  0
SECTION
  2
HEADER
  9
$ACADVER
  1
AC1009
  9
$INSBASE
 10
0
 20
0
 30
0
  9
$EXTMIN
 10
0
 20
0
  9
$EXTMAX
 10
1189
 20
841
  9
$LIMMIN
 10
0
 20
0
  9
$LIMMAX
 10
1189
 20
841
  9
$LTSCALE
 40
1
  0
ENDSEC
  0
SECTION
  2
TABLES
  0
TABLE
  2
LTYPE
 70
     9
  0
LTYPE
  2
CONTINUOUS
 70
    64
  3
実線
 72
    65
 73
     0
 40
0.0
  0
LTYPE
  2
DASHED1
 70
    64
  3
--  --  --  --  --  --  --  --  
 72
    65
 73
     2
 40
2.5
 49
1.25
 49
-1.25
  0
LTYPE
  2
DASHED2
 70
    64
  3
----    ----    ----    ----    
 72
    65
 73
     2
 40
5.0
 49
2.5
 49
-2.5
  0
LTYPE
  2
DASHED3
 70
    64
  3
------  ------  ------  ------  
 72
    65
 73
     2
 40
5.0
 49
3.75
 49
-1.25
  0
LTYPE
  2
CENTER1
 70
    64
  3
----- - ----- - ----- - ----- - 
 72
    65
 73
     4
 40
10.0
 49
6.25
 49
-1.25
 49
1.25
 49
-1.25
  0
LTYPE
  2
CENTER2
 70
    64
  3
----------  --  ----------  --  
 72
    65
 73
     4
 40
20.0
 49
12.5
 49
-2.5
 49
2.5
 49
-2.5
  0
LTYPE
  2
PHANTOM1
 70
    64
  3
--- - - --- - - --- - - --- - - 
 72
    65
 73
     6
 40
10.0
 49
3.25
 49
-1.25
 49
1.25
 49
-1.25
 49
1.25
 49
-1.25
  0
LTYPE
  2
PHANTOM2
 70
    64
  3
--------  -  -  --------  -  -  
 72
    65
 73
     6
 40
20.0
 49
10.0
 49
-2.5
 49
1.25
 49
-2.5
 49
1.25
 49
-2.5
  0
LTYPE
  2
DOT
 70
    64
  3
-   -   -   -   -   -   -   -   
 72
    65
 73
     2
 40
2.5
 49
0.625
 49
-1.875
  0
LTYPE
  2
DUMMY
 70
    64
  3
ダミー
 72
    65
 73
     0
 40
0.0
  0
LTYPE
  2
RAND1
 70
    64
  3
ランダム線1
 72
    65
 73
     4
 40
10.0
 49
1.0
 49
-2.0
 49
3.0
 49
-4.0
  0
LTYPE
  2
RAND2
 70
    64
  3
ランダム線2
 72
    65
 73
     4
 40
14.0
 49
2.0
 49
-3.0
 49
4.0
 49
-5.0
  0
LTYPE
  2
RAND3
 70
    64
  3
ランダム線3
 72
    65
 73
     4
 40
18.0
 49
3.0
 49
-4.0
 49
5.0
 49
-6.0
  0
LTYPE
  2
RAND4
 70
    64
  3
ランダム線4
 72
    65
 73
     4
 40
22.0
 49
4.0
 49
-5.0
 49
6.0
 49
-7.0
  0
LTYPE
  2
RAND5
 70
    64
  3
ランダム線5
 72
    65
 73
     4
 40
26.0
 49
5.0
 49
-6.0
 49
7.0
 49
-8.0
  0
LTYPE
  2
LONG1
 70
    64
  3
----------  --  ----------  --  
 72
    65
 73
     4
 40
40.0
 49
32.5
 49
-2.5
 49
2.5
 49
-2.5
  0
LTYPE
  2
LONG2
 70
    64
  3
--------  -  -  --------  -  -  
 72
    65
 73
     6
 40
40.0
 49
30.0
 49
-2.5
 49
1.25
 49
-2.5
 49
1.25
 49
-2.5
  0
LTYPE
  2
LONG3
 70
    64
  3
+++++++++++++++..+++++++++++++++
 72
    65
 73
     2
 40
40.0
 49
37.5
 49
-2.5
  0
LTYPE
  2
LONG4
 70
    64
  3
+++++++++++++++..+++++++++++++++
 72
    65
 73
     2
 40
80.0
 49
75.0
 49
-5.0
  0
LTYPE
  2
LONG5
 70
    64
  3
----------  --  ----------  --  
 72
    65
 73
     4
 40
60.0
 49
37.5
 49
-7.5
 49
7.5
 49
-7.5
  0
LTYPE
  2
dashed
 70
   64
  3
-------   -------------   ------
 72
   65
 73
    2
 40
7.5
 49
6
 49
-1.5
  0
LTYPE
  2
dashed_spaced
 70
   64
  3
----        --------        ----
 72
   65
 73
    2
 40
12
 49
6
 49
-6
  0
LTYPE
  2
long_dashed_dotted
 70
   64
  3
------------- --- --------------
 72
   65
 73
    4
 40
15.25
 49
12
 49
-1.5
 49
0.25
 49
-1.5
  0
LTYPE
  2
long_dashed_double-dotted
 70
   64
  3
----------- --- --- ------------
 72
   65
 73
    6
 40
17
 49
12
 49
-1.5
 49
0.25
 49
-1.5
 49
0.25
 49
-1.5
  0
LTYPE
  2
long_dashed_triplicate-dotted
 70
   64
  3
--------- --- --- --- ----------
 72
   65
 73
    8
 40
18.75
 49
12
 49
-1.5
 49
0.25
 49
-1.5
 49
0.25
 49
-1.5
 49
0.25
 49
-1.5
  0
LTYPE
  2
dotted
 70
   64
  3
   -       -       -       -    
 72
   65
 73
    2
 40
1.75
 49
0.25
 49
-1.5
  0
LTYPE
  2
chain
 70
   64
  3
-------------- -- --------------
 72
   65
 73
    4
 40
18.5
 49
12
 49
-1.5
 49
3.5
 49
-1.5
  0
LTYPE
  2
chain_double_dash
 70
   64
  3
------------ -- -- -------------
 72
   65
 73
    6
 40
23.5
 49
12
 49
-1.5
 49
3.5
 49
-1.5
 49
3.5
 49
-1.5
  0
LTYPE
  2
dashed_dotted
 70
   64
  3
-----------     -     ----------
 72
   65
 73
    4
 40
9.25
 49
6
 49
-1.5
 49
0.25
 49
-1.5
  0
LTYPE
  2
double-dashed_dotted
 70
   64
  3
------   -----------   -   -----
 72
   65
 73
    6
 40
16.75
 49
6
 49
-1.5
 49
6
 49
-1.5
 49
0.25
 49
-1.5
  0
LTYPE
  2
dashed_double-dotted
 70
   64
  3
---------    -    -    ---------
 72
   65
 73
    6
 40
11
 49
6
 49
-1.5
 49
0.25
 49
-1.5
 49
0.25
 49
-1.5
  0
LTYPE
  2
double-dashed_double-dotted
 70
   64
  3
-----   ---------   -   -   ----
 72
   65
 73
    8
 40
18.5
 49
6
 49
-1.5
 49
6
 49
-1.5
 49
0.25
 49
-1.5
 49
0.25
 49
-1.5
  0
LTYPE
  2
dashed_triplicate-dotted
 70
   64
  3
-------    -    -    -    ------
 72
   65
 73
    8
 40
12.75
 49
6
 49
-1.5
 49
0.25
 49
-1.5
 49
0.25
 49
-1.5
 49
0.25
 49
-1.5
  0
LTYPE
  2
double-dashed_triplicate-dotted
 70
   64
  3
-----  ---------  -  -  -  -----
 72
   65
 73
   10
 40
20.25
 49
6
 49
-1.5
 49
6
 49
-1.5
 49
0.25
 49
-1.5
 49
0.25
 49
-1.5
 49
0.25
 49
-1.5
  0
LTYPE
  2
undefined
 70
   64
  3
--------------------------------
 72
   65
 73
    0
 40
0
  0
ENDTAB
  0
TABLE
  2
STYLE
  5
3
100
AcDbSymbolTable
 70
     1
  0
STYLE
  5
10
100
AcDbSymbolTableRecord
100
AcDbTextStyleTableRecord
  2
STANDARD
 70
     0
 40
0.0
 41
1.0
 50
0.0
 71
     0
 42
0.2
  3
txt
  4
bigfont.shx
  0
STYLE
  5
26
100
AcDbSymbolTableRecord
100
AcDbTextStyleTableRecord
  2
TATEGAKI
 70
    68
 40
0.0
 41
1.0
 50
0.0
 71
     0
 42
1.0
  3
txt
  4
bigfont.shx
  0
ENDTAB
  0
TABLE
  2
LAYER
 70
    4
  0
LAYER
  2
_0-0_
 70
   64
 62
    7
  6
CONTINUOUS
  0
LAYER
  2
_0-1_
 70
   64
 62
    7
  6
CONTINUOUS
  0
LAYER
  2
_0-f_
 70
   64
 62
    7
  6
CONTINUOUS
  0
LAYER
  2
ADD_LINE
 70
   64
 62
    7
  6
CONTINUOUS
  0
ENDTAB
  0
ENDSEC
  0
SECTION
  2
BLOCKS
  0
ENDSEC
  0
SECTION
  2
ENTITIES
  0
TEXT
  8
_0-f_
 62
    7
 10
0.8349225356279248
 20
1.1731767154623753
 40
4.2999999999999998
 41
0.744186046511628
 50
0
  1
E255  E255S
  0
LINE
  8
_0-0_
  6
CONTINUOUS
 62
    7
 10
91.968462179033509
 20
75.359214610624576
 11
93.968462179033509
 21
75.359214610624576
  0
LINE
  8
_0-0_
  6
CONTINUOUS
 62
    7
 10
93.968462179033509
 20
75.359214610624576
 11
98.02080217903324
 21
75.146834610624637
  0
LINE
  8
_0-0_
  6
CONTINUOUS
 62
    7
 10
98.968462179033509
 20
74.148204610624589
 11
98.968462179033509
 21
73.205934610624581
  0
LINE
  8
_0-0_
  6
CONTINUOUS
 62
    7
 10
98.684162179033251
 20
72.906344610624501
 11
94.537062179033114
 21
72.689004610624806
  0
LINE
  8
_0-0_
  6
CONTINUOUS
 62
    7
 10
94.537062179033114
 20
71.42941461062469
 11
98.684162179033251
 21
71.212074610624768
  0
LINE
  8
_0-0_
  6
CONTINUOUS
 62
    7
 10
98.968462179033509
 20
70.91248461062446
 11
98.968462179033509
 21
69.97021461062468
  0
LINE
  8
_0-0_
  6
CONTINUOUS
 62
    7
 10
98.02080217903324
 20
68.971584610624859
 11
93.968462179033509
 21
68.759214610624667
  0
LINE
  8
_0-0_
  6
CONTINUOUS
 62
    7
 10
93.968462179033509
 20
68.759214610624667
 11
93.968462179033509
 21
75.359214610624576
  0
LINE
  8
_0-0_
  6
CONTINUOUS
 62
    7
 10
93.968462179033509
 20
68.759214610624667
 11
91.968462179033509
 21
68.759214610624667
  0
LINE
  8
_0-0_
  6
CONTINUOUS
 62
    7
 10
91.968462179033509
 20
59.559214610624849
 11
91.968462179033509
 21
84.559214610624849
  0
LINE
  8
_0-0_
  6
CONTINUOUS
 62
    7
 10
91.968462179033509
 20
84.559214610624849
 11
89.968462179033054
 21
84.559214610624849
  0
LINE
  8
_0-0_
  6
CONTINUOUS
 62
    7
 10
88.968462179033509
 20
83.559214610624849
 11
88.968462179033509
 21
60.559214610624849
  0
LINE
  8
_0-0_
  6
CONTINUOUS
 62
    7
 10
89.968462179033054
 20
59.559214610624849
 11
91.968462179033509
 21
59.559214610624849
  0
ARC
  8
_0-0_
  6
CONTINUOUS
 62
    7
 10
94.568462179032963
 20
72.028584610624648
 40
0.5999999999999996
 50
180
 51
267
  0
ARC
  8
_0-0_
  6
CONTINUOUS
 62
    7
 10
94.568462179032963
 20
72.089834610624848
 40
0.5999999999999996
 50
92.999999999999986
 51
180
  0
ARC
  8
_0-0_
  6
CONTINUOUS
 62
    7
 10
97.968462179033509
 20
69.97021461062468
 40
1
 50
273
 51
359.99999999999994
  0
ARC
  8
_0-0_
  6
CONTINUOUS
 62
    7
 10
97.968462179033509
 20
74.148204610624589
 40
1
 50
0
 51
87
  0
ARC
  8
_0-0_
  6
CONTINUOUS
 62
    7
 10
98.668462179032872
 20
70.91248461062446
 40
0.2999999999999998
 50
0
 51
87
  0
ARC
  8
_0-0_
  6
CONTINUOUS
 62
    7
 10
98.668462179032872
 20
73.205934610624581
 40
0.2999999999999998
 50
273
 51
359.99999999999994
  0
ARC
  8
_0-0_
  6
CONTINUOUS
 62
    7
 10
89.968462179033054
 20
60.559214610624849
 40
1
 50
180
 51
270
  0
ARC
  8
_0-0_
  6
CONTINUOUS
 62
    7
 10
89.968462179033054
 20
83.559214610624849
 40
1
 50
90
 51
180
  0
LINE
  8
_0-0_
  6
CONTINUOUS
 62
    7
 10
48.306834827299326
 20
64.559214610624849
 11
55.706834827299417
 21
64.559214610624849
  0
LINE
  8
_0-0_
  6
CONTINUOUS
 62
    7
 10
56.006834827299599
 20
64.259214610624667
 11
56.006834827299599
 21
61.859214610624576
  0
LINE
  8
_0-0_
  6
CONTINUOUS
 62
    7
 10
55.706834827299417
 20
61.559214610624849
 11
48.306834827299326
 21
61.559214610624849
  0
LINE
  8
_0-0_
  6
CONTINUOUS
 62
    7
 10
48.006834827299599
 20
61.859214610624576
 11
48.006834827299599
 21
64.259214610624667
  0
LINE
  8
_0-0_
  6
CONTINUOUS
 62
    7
 10
48.541504827299605
 20
64.110384610624578
 11
49.050604827299367
 21
64.110384610624578
  0
LINE
  8
_0-0_
  6
CONTINUOUS
 62
    7
 10
49.050604827299367
 20
64.110384610624578
 11
49.050604827299367
 21
62.432774610624847
  0
LINE
  8
_0-0_
  6
CONTINUOUS
 62
    7
 10
49.050604827299367
 20
62.432774610624847
 11
49.970844827299288
 21
62.432774610624847
  0
LINE
  8
_0-0_
  6
CONTINUOUS
 62
    7
 10
49.970844827299288
 20
62.432774610624847
 11
49.970844827299288
 21
62.068824610624461
  0
LINE
  8
_0-0_
  6
CONTINUOUS
 62
    7
 10
49.970844827299288
 20
62.068824610624461
 11
48.541504827299605
 21
62.068824610624461
  0
LINE
  8
_0-0_
  6
CONTINUOUS
 62
    7
 10
48.541504827299605
 20
62.068824610624461
 11
48.541504827299605
 21
64.110384610624578
  0
LINE
  8
_0-0_
  6
CONTINUOUS
 62
    7
 10
50.363644827299368
 20
64.110384610624578
 11
51.793354827299254
 21
64.110384610624578
  0
LINE
  8
_0-0_
  6
CONTINUOUS
 62
    7
 10
51.793354827299254
 20
64.110384610624578
 11
51.793354827299254
 21
63.746424610624899
  0
LINE
  8
_0-0_
  6
CONTINUOUS
 62
    7
 10
51.793354827299254
 20
63.746424610624899
 11
50.870944827299581
 21
63.746424610624899
  0
LINE
  8
_0-0_
  6
CONTINUOUS
 62
    7
 10
50.870944827299581
 20
63.746424610624899
 11
50.870944827299581
 21
63.27298461062469
  0
LINE
  8
_0-0_
  6
CONTINUOUS
 62
    7
 10
50.870944827299581
 20
63.27298461062469
 11
51.705394827299415
 21
63.27298461062469
  0
LINE
  8
_0-0_
  6
CONTINUOUS
 62
    7
 10
51.705394827299415
 20
63.27298461062469
 11
51.705394827299415
 21
62.931324610624642
  0
LINE
  8
_0-0_
  6
CONTINUOUS
 62
    7
 10
51.705394827299415
 20
62.931324610624642
 11
50.870944827299581
 21
62.931324610624642
  0
LINE
  8
_0-0_
  6
CONTINUOUS
 62
    7
 10
50.870944827299581
 20
62.931324610624642
 11
50.870944827299581
 21
62.432774610624847
  0
LINE
  8
_0-0_
  6
CONTINUOUS
 62
    7
 10
50.870944827299581
 20
62.432774610624847
 11
51.793354827299254
 21
62.432774610624847
  0
LINE
  8
_0-0_
  6
CONTINUOUS
 62
    7
 10
51.793354827299254
 20
62.432774610624847
 11
51.793354827299254
 21
62.068824610624461
  0
LINE
  8
_0-0_
  6
CONTINUOUS
 62
    7
 10
51.793354827299254
 20
62.068824610624461
 11
50.363644827299368
 21
62.068824610624461
  0
LINE
  8
_0-0_
  6
CONTINUOUS
 62
    7
 10
50.363644827299368
 20
62.068824610624461
 11
50.363644827299368
 21
64.110384610624578
  0
LINE
  8
_0-0_
  6
CONTINUOUS
 62
    7
 10
53.096794827299846
 20
63.500664610624654
 11
53.616904827299322
 21
63.500664610624654
  0
LINE
  8
_0-0_
  6
CONTINUOUS
 62
    7
 10
53.630314827299799
 20
62.765004610624828
 11
53.099334827299344
 21
62.765004610624828
  0
ARC
  8
_0-0_
  6
CONTINUOUS
 62
    7
 10
54.565354827299188
 20
63.089604610624747
 40
2.3989862999999998
 50
164.21600000000004
 51
195.78399000000002
  0
ARC
  8
_0-0_
  6
CONTINUOUS
 62
    7
 10
58.802524827299521
 20
63.089604610624747
 40
6.0927388999999996
 50
176.78918999999999
 51
183.21080000000001
  0
ARC
  8
_0-0_
  6
CONTINUOUS
 62
    7
 10
52.797444827299614
 20
62.62444461062455
 40
0.5721789
 50
199.11812000000006
 51
253.77089000000001
  0
ARC
  8
_0-0_
  6
CONTINUOUS
 62
    7
 10
52.909374827299644
 20
63.143944610624885
 40
1.1029028999999999
 50
255.73070000000004
 51
284.26929000000007
  0
ARC
  8
_0-0_
  6
CONTINUOUS
 62
    7
 10
53.021304827299218
 20
62.62444461062455
 40
0.5721789
 50
286.22910000000002
 51
340.88186999999999
  0
ARC
  8
_0-0_
  6
CONTINUOUS
 62
    7
 10
51.253394827299189
 20
63.089604610624747
 40
2.3989862999999998
 50
344.21599999999995
 51
352.22374999999994
  0
ARC
  8
_0-0_
  6
CONTINUOUS
 62
    7
 10
52.909374827299644
 20
62.556954610624643
 40
0.1658629
 50
198.78093000000001
 51
341.21906000000001
  0
ARC
  8
_0-0_
  6
CONTINUOUS
 62
    7
 10
52.173164827299615
 20
62.748844610624701
 40
0.9263072999999999
 50
344.64474000000007
 51
1.0000756000000433
  0
ARC
  8
_0-0_
  6
CONTINUOUS
 62
    7
 10
53.645584827299672
 20
62.748844610624701
 40
0.9263072999999999
 50
179.28076999999999
 51
195.35525000000001
  0
ARC
  8
_0-0_
  6
CONTINUOUS
 62
    7
 10
52.909374827299644
 20
63.62225461062485
 40
0.1658629
 50
18.780933999999998
 51
161.21906000000001
  0
ARC
  8
_0-0_
  6
CONTINUOUS
 62
    7
 10
53.645584827299672
 20
63.430364610624792
 40
0.9263072999999999
 50
164.64474000000004
 51
180.71922000000004
  0
ARC
  8
_0-0_
  6
CONTINUOUS
 62
    7
 10
52.173164827299615
 20
63.430364610624792
 40
0.9263072999999999
 50
4.3528099999999998
 51
15.355258000000001
  0
ARC
  8
_0-0_
  6
CONTINUOUS
 62
    7
 10
53.021304827299218
 20
63.554754610624741
 40
0.5721789
 50
19.118120000000001
 51
73.770895999999979
  0
ARC
  8
_0-0_
  6
CONTINUOUS
 62
    7
 10
51.253394827299189
 20
63.089604610624747
 40
2.3989862999999998
 50
9.8663227000000013
 51
15.783997000000001
  0
ARC
  8
_0-0_
  6
CONTINUOUS
 62
    7
 10
52.909374827299644
 20
63.035254610624861
 40
1.1029028999999999
 50
75.730706999999995
 51
104.26929
  0
ARC
  8
_0-0_
  6
CONTINUOUS
 62
    7
 10
52.797444827299614
 20
63.554754610624741
 40
0.5721789
 50
106.2291
 51
160.88186999999999
  0
ARC
  8
_0-0_
  6
CONTINUOUS
 62
    7
 10
56.354644827299808
 20
63.089604610624747
 40
2.3989862999999998
 50
164.21600000000004
 51
195.78399000000002
  0
ARC
  8
_0-0_
  6
CONTINUOUS
 62
    7
 10
60.591814827299231
 20
63.089604610624747
 40
6.0927388999999996
 50
176.78918999999999
 51
183.21080000000001
  0
ARC
  8
_0-0_
  6
CONTINUOUS
 62
    7
 10
48.805514827299476
 20
63.089604610624747
 40
6.0927388999999996
 50
356.78919000000002
 51
3.2108098999999948
  0
ARC
  8
_0-0_
  6
CONTINUOUS
 62
    7
 10
54.698664827299353
 20
62.556954610624643
 40
0.1658629
 50
198.78093000000001
 51
341.21906000000001
  0
ARC
  8
_0-0_
  6
CONTINUOUS
 62
    7
 10
54.698664827299353
 20
63.143944610624885
 40
1.1029028999999999
 50
255.73070000000004
 51
284.26929000000007
  0
ARC
  8
_0-0_
  6
CONTINUOUS
 62
    7
 10
54.810594827299383
 20
62.62444461062455
 40
0.5721789
 50
286.22910000000002
 51
340.88186999999999
  0
ARC
  8
_0-0_
  6
CONTINUOUS
 62
    7
 10
54.586734827299324
 20
62.62444461062455
 40
0.5721789
 50
199.11812000000006
 51
253.77089000000001
  0
ARC
  8
_0-0_
  6
CONTINUOUS
 62
    7
 10
53.042684827299809
 20
63.089604610624747
 40
2.3989862999999998
 50
344.21599999999995
 51
15.783997000000026
  0
ARC
  8
_0-0_
  6
CONTINUOUS
 62
    7
 10
53.962454827299325
 20
62.748844610624701
 40
0.9263072999999999
 50
344.64474000000007
 51
0.719224299999991
  0
ARC
  8
_0-0_
  6
CONTINUOUS
 62
    7
 10
55.434874827299382
 20
62.748844610624701
 40
0.9263072999999999
 50
179.28076999999999
 51
195.35525000000001
  0
ARC
  8
_0-0_
  6
CONTINUOUS
 62
    7
 10
55.434874827299382
 20
63.430364610624792
 40
0.9263072999999999
 50
164.64474000000004
 51
180.71922000000004
  0
ARC
  8
_0-0_
  6
CONTINUOUS
 62
    7
 10
54.698664827299353
 20
63.62225461062485
 40
0.1658629
 50
18.780933999999998
 51
161.21906000000001
  0
ARC
  8
_0-0_
  6
CONTINUOUS
 62
    7
 10
53.962454827299325
 20
63.430364610624792
 40
0.9263072999999999
 50
359.28076999999996
 51
15.355257999999957
  0
ARC
  8
_0-0_
  6
CONTINUOUS
 62
    7
 10
54.698664827299353
 20
63.035254610624861
 40
1.1029028999999999
 50
75.730706999999995
 51
104.26929
  0
ARC
  8
_0-0_
  6
CONTINUOUS
 62
    7
 10
54.586734827299324
 20
63.554754610624741
 40
0.5721789
 50
106.2291
 51
160.88186999999999
  0
ARC
  8
_0-0_
  6
CONTINUOUS
 62
    7
 10
54.810594827299383
 20
63.554754610624741
 40
0.5721789
 50
19.118120000000001
 51
73.770895999999979
  0
ARC
  8
_0-0_
  6
CONTINUOUS
 62
    7
 10
48.306834827299326
 20
61.859214610624576
 40
0.2999999999999998
 50
180
 51
270
  0
ARC
  8
_0-0_
  6
CONTINUOUS
 62
    7
 10
48.306834827299326
 20
64.259214610624667
 40
0.2999999999999998
 50
90
 51
180
  0
ARC
  8
_0-0_
  6
CONTINUOUS
 62
    7
 10
55.706834827299417
 20
64.259214610624667
 40
0.2999999999999998
 50
0
 51
90
  0
ARC
  8
_0-0_
  6
CONTINUOUS
 62
    7
 10
55.706834827299417
 20
61.859214610624576
 40
0.2999999999999998
 50
270
 51
0
  0
LINE
  8
_0-0_
  6
CONTINUOUS
 62
    7
 10
58.006834827299599
 20
83.559214610624849
 11
58.006834827299599
 21
60.559214610624849
  0
LINE
  8
_0-0_
  6
CONTINUOUS
 62
    7
 10
57.006834827299599
 20
59.559214610624849
 11
4.0068348272995991
 21
59.559214610624849
  0
LINE
  8
_0-0_
  6
CONTINUOUS
 62
    7
 10
3.0068348272991443
 20
60.559214610624849
 11
3.0068348272991443
 21
83.559214610624849
  0
LINE
  8
_0-0_
  6
CONTINUOUS
 62
    7
 10
4.0068348272995991
 20
84.559214610624849
 11
57.006834827299599
 21
84.559214610624849
  0
LINE
  8
_0-0_
  6
CONTINUOUS
 62
    7
 10
46.004224827299595
 20
74.307524610624796
 11
46.004224827299595
 21
73.293414610624723
  0
LINE
  8
_0-0_
  6
CONTINUOUS
 62
    7
 10
45.009424827299199
 20
73.293414610624723
 11
45.009424827299199
 21
74.307524610624796
  0
LINE
  8
_0-0_
  6
CONTINUOUS
 62
    7
 10
44.27258482729917
 20
72.556574610624693
 11
43.258504827299248
 21
72.556574610624693
  0
LINE
  8
_0-0_
  6
CONTINUOUS
 62
    7
 10
43.258504827299248
 20
71.561824610624853
 11
44.27258482729917
 21
71.561824610624853
  0
LINE
  8
_0-0_
  6
CONTINUOUS
 62
    7
 10
45.009424827299199
 20
70.824984610624824
 11
45.009424827299199
 21
69.810924610624852
  0
LINE
  8
_0-0_
  6
CONTINUOUS
 62
    7
 10
46.004224827299595
 20
69.810924610624852
 11
46.004224827299595
 21
70.824984610624824
  0
LINE
  8
_0-0_
  6
CONTINUOUS
 62
    7
 10
46.741064827299624
 20
71.561824610624853
 11
47.755104827299647
 21
71.561824610624853
  0
LINE
  8
_0-0_
  6
CONTINUOUS
 62
    7
 10
47.755104827299647
 20
72.556574610624693
 11
46.741064827299624
 21
72.556574610624693
  0
LINE
  8
_0-0_
  6
CONTINUOUS
 62
    7
 10
17.755104827299647
 20
72.556574610624693
 11
16.741064827299624
 21
72.556574610624693
  0
LINE
  8
_0-0_
  6
CONTINUOUS
 62
    7
 10
16.741064827299624
 20
71.561824610624853
 11
17.755104827299647
 21
71.561824610624853
  0
LINE
  8
_0-0_
  6
CONTINUOUS
 62
    7
 10
16.004224827299595
 20
70.824984610624824
 11
16.004224827299595
 21
69.810924610624852
  0
LINE
  8
_0-0_
  6
CONTINUOUS
 62
    7
 10
15.009424827299199
 20
69.810924610624852
 11
15.009424827299199
 21
70.824984610624824
  0
LINE
  8
_0-0_
  6
CONTINUOUS
 62
    7
 10
14.27258482729917
 20
71.561824610624853
 11
13.258504827299248
 21
71.561824610624853
  0
LINE
  8
_0-0_
  6
CONTINUOUS
 62
    7
 10
13.258504827299248
 20
72.556574610624693
 11
14.27258482729917
 21
72.556574610624693
  0
LINE
  8
_0-0_
  6
CONTINUOUS
 62
    7
 10
15.009424827299199
 20
73.293414610624723
 11
15.009424827299199
 21
74.307524610624796
  0
LINE
  8
_0-0_
  6
CONTINUOUS
 62
    7
 10
16.004224827299595
 20
74.307524610624796
 11
16.004224827299595
 21
73.293414610624723
  0
ARC
  8
_0-0_
  6
CONTINUOUS
 62
    7
 10
57.006834827299599
 20
83.559214610624849
 40
1
 50
0
 51
90
  0
ARC
  8
_0-0_
  6
CONTINUOUS
 62
    7
 10
57.006834827299599
 20
60.559214610624849
 40
1
 50
270
 51
0
  0
CIRCLE
  8
_0-0_
  6
CONTINUOUS
 62
    7
 10
45.506834827299599
 20
72.059214610624849
 40
3.5499999999999998
  0
ARC
  8
_0-0_
  6
CONTINUOUS
 62
    7
 10
44.27258482729917
 20
73.293414610624723
 40
0.7368479999999999
 50
270
 51
0
  0
ARC
  8
_0-0_
  6
CONTINUOUS
 62
    7
 10
46.741064827299624
 20
73.293414610624723
 40
0.7368479999999999
 50
180
 51
270
  0
ARC
  8
_0-0_
  6
CONTINUOUS
 62
    7
 10
46.741064827299624
 20
70.824984610624824
 40
0.7368479999999999
 50
90
 51
180
  0
ARC
  8
_0-0_
  6
CONTINUOUS
 62
    7
 10
44.27258482729917
 20
70.824984610624824
 40
0.7368479999999999
 50
0
 51
90
  0
ARC
  8
_0-0_
  6
CONTINUOUS
 62
    7
 10
45.506844827299346
 20
72.059224610624597
 40
2.3026499999999999
 50
347.52571999999998
 51
12.474273000000045
  0
ARC
  8
_0-0_
  6
CONTINUOUS
 62
    7
 10
45.506844827299346
 20
72.059224610624597
 40
2.3026499999999999
 50
77.525817000000018
 51
102.47418000000003
  0
ARC
  8
_0-0_
  6
CONTINUOUS
 62
    7
 10
45.506844827299346
 20
72.059224610624597
 40
2.3026499999999999
 50
167.52571999999995
 51
192.47426999999996
  0
ARC
  8
_0-0_
  6
CONTINUOUS
 62
    7
 10
45.506844827299346
 20
72.059224610624597
 40
2.3026499999999999
 50
257.52580999999998
 51
282.47417999999999
  0
ARC
  8
_0-0_
  6
CONTINUOUS
 62
    7
 10
4.0068348272995991
 20
83.559214610624849
 40
1
 50
90
 51
180
  0
ARC
  8
_0-0_
  6
CONTINUOUS
 62
    7
 10
4.0068348272995991
 20
60.559214610624849
 40
1
 50
180
 51
270
  0
CIRCLE
  8
_0-0_
  6
CONTINUOUS
 62
    7
 10
15.506834827299599
 20
72.059214610624849
 40
3.5499999999999998
  0
ARC
  8
_0-0_
  6
CONTINUOUS
 62
    7
 10
14.27258482729917
 20
73.293414610624723
 40
0.7368479999999999
 50
270
 51
0
  0
ARC
  8
_0-0_
  6
CONTINUOUS
 62
    7
 10
16.741064827299624
 20
73.293414610624723
 40
0.7368479999999999
 50
180
 51
270
  0
ARC
  8
_0-0_
  6
CONTINUOUS
 62
    7
 10
16.741064827299624
 20
70.824984610624824
 40
0.7368479999999999
 50
90
 51
180
  0
ARC
  8
_0-0_
  6
CONTINUOUS
 62
    7
 10
14.27258482729917
 20
70.824984610624824
 40
0.7368479999999999
 50
0
 51
90
  0
ARC
  8
_0-0_
  6
CONTINUOUS
 62
    7
 10
15.506844827299346
 20
72.059224610624597
 40
2.3026499999999999
 50
347.52571999999998
 51
12.474273000000045
  0
ARC
  8
_0-0_
  6
CONTINUOUS
 62
    7
 10
15.506844827299346
 20
72.059224610624597
 40
2.3026499999999999
 50
77.525817000000018
 51
102.47418000000003
  0
ARC
  8
_0-0_
  6
CONTINUOUS
 62
    7
 10
15.506844827299346
 20
72.059224610624597
 40
2.3026499999999999
 50
167.52571999999995
 51
192.47426999999996
  0
ARC
  8
_0-0_
  6
CONTINUOUS
 62
    7
 10
15.506844827299346
 20
72.059224610624597
 40
2.3026499999999999
 50
257.52580999999998
 51
282.47417999999999
  0
LINE
  8
_0-0_
  6
CONTINUOUS
 62
    7
 10
47.321349080811615
 20
8.9581894362238472
 11
43.692320573787129
 21
8.9581894362238472
  0
LINE
  8
_0-0_
  6
CONTINUOUS
 62
    7
 10
42.194376271655074
 20
10.379685501859285
 11
42.006834827299372
 21
13.958189436223847
  0
LINE
  8
_0-0_
  6
CONTINUOUS
 62
    7
 10
49.006834827299372
 20
13.958189436223847
 11
48.81929338294367
 21
10.379685501859285
  0
LINE
  8
_0-0_
  6
CONTINUOUS
 62
    7
 10
58.006834827299599
 20
17.958189436223847
 11
58.006834827299599
 21
15.958189436223847
  0
LINE
  8
_0-0_
  6
CONTINUOUS
 62
    7
 10
50.106834827299281
 20
13.958189436223847
 11
40.906834827299008
 21
13.958189436223847
  0
LINE
  8
_0-0_
  6
CONTINUOUS
 62
    7
 10
20.106834827299281
 20
13.958189436223847
 11
10.906834827299008
 21
13.958189436223847
  0
LINE
  8
_0-0_
  6
CONTINUOUS
 62
    7
 10
12.006834827299372
 20
13.958189436223847
 11
12.194376271655074
 21
10.379685501859285
  0
LINE
  8
_0-0_
  6
CONTINUOUS
 62
    7
 10
13.692320573787129
 20
8.9581894362238472
 11
17.321349080811615
 21
8.9581894362238472
  0
LINE
  8
_0-0_
  6
CONTINUOUS
 62
    7
 10
3.0068348272993717
 20
15.958189436223847
 11
3.0068348272993717
 21
17.958189436223847
  0
LINE
  8
_0-0_
  6
CONTINUOUS
 62
    7
 10
4.0068348272993717
 20
18.958189436223847
 11
57.006834827299599
 21
18.958189436223847
  0
LINE
  8
_0-0_
  6
CONTINUOUS
 62
    7
 10
19.006834827299372
 20
13.958189436223847
 11
18.81929338294367
 21
10.379685501859285
  0
ARC
  8
_0-0_
  6
CONTINUOUS
 62
    7
 10
57.006834827299599
 20
17.958189436223847
 40
1
 50
0
 51
90
  0
ARC
  8
_0-0_
  6
CONTINUOUS
 62
    7
 10
50.106834827299281
 20
14.258189436223574
 40
0.2999999999999999
 50
270
 51
0
  0
ARC
  8
_0-0_
  6
CONTINUOUS
 62
    7
 10
40.906834827299008
 20
14.258189436223574
 40
0.2999999999999999
 50
180
 51
270
  0
ARC
  8
_0-0_
  6
CONTINUOUS
 62
    7
 10
47.321349080811615
 20
10.458189436223847
 40
1.5
 50
270
 51
356.99999999999983
  0
ARC
  8
_0-0_
  6
CONTINUOUS
 62
    7
 10
43.692320573787129
 20
10.458189436223847
 40
1.5
 50
183.0000000000002
 51
270
  0
ARC
  8
_0-0_
  6
CONTINUOUS
 62
    7
 10
4.0068348272993717
 20
17.958189436223847
 40
1
 50
90
 51
180
  0
ARC
  8
_0-0_
  6
CONTINUOUS
 62
    7
 10
20.106834827299281
 20
14.258189436223574
 40
0.2999999999999999
 50
270
 51
0
  0
ARC
  8
_0-0_
  6
CONTINUOUS
 62
    7
 10
10.906834827299008
 20
14.258189436223574
 40
0.2999999999999999
 50
180
 51
270
  0
ARC
  8
_0-0_
  6
CONTINUOUS
 62
    7
 10
17.321349080811615
 20
10.458189436223847
 40
1.5
 50
270
 51
356.99999999999983
  0
ARC
  8
_0-0_
  6
CONTINUOUS
 62
    7
 10
13.692320573787129
 20
10.458189436223847
 40
1.5
 50
183.0000000000002
 51
270
  0
LINE
  8
_0-0_
  6
CONTINUOUS
 62
    7
 10
58.006834827299599
 20
15.958189436223847
 11
3.0068348272993717
 21
15.958189436223847
  0
LINE
  8
_0-0_
  6
CONTINUOUS
 62
    7
 10
10.606834827299281
 20
14.258189436223574
 11
10.606834827299281
 21
15.958189436223847
  0
LINE
  8
_0-0_
  6
CONTINUOUS
 62
    7
 10
20.406834827299463
 20
15.958189436223847
 11
20.406834827299463
 21
14.258189436223574
  0
LINE
  8
_0-0_
  6
CONTINUOUS
 62
    7
 10
40.606834827299281
 20
14.258189436223574
 11
40.606834827299281
 21
15.958189436223847
  0
LINE
  8
_0-0_
  6
CONTINUOUS
 62
    7
 10
50.406834827299463
 20
15.958189436223847
 11
50.406834827299463
 21
14.258189436223574
  0
LINE
  8
_0-1_
  6
CENTER1
 62
    7
 10
98.968462179033509
 20
72.059214610624849
 11
95.13414217903312
 21
72.059214610624849
  0
LINE
  8
_0-1_
  6
CENTER1
 62
    7
 10
94.286042179033416
 20
72.059214610624849
 11
88.968462179033509
 21
72.059214610624849
  0
LINE
  8
_0-1_
  6
CENTER1
 62
    7
 10
45.506844827299346
 20
76.309214610624849
 11
45.506844827299346
 21
67.809224610624597
  0
LINE
  8
_0-1_
  6
CENTER1
 62
    7
 10
49.756864827299751
 20
72.059224610624597
 11
41.256874827299498
 21
72.059224610624597
  0
LINE
  8
_0-1_
  6
CENTER1
 62
    7
 10
19.756864827299751
 20
72.059224610624597
 11
11.256874827299498
 21
72.059224610624597
  0
LINE
  8
_0-1_
  6
CENTER1
 62
    7
 10
15.506844827299346
 20
76.309214610624849
 11
15.506844827299346
 21
67.809224610624597
  0
ENDSEC
  0
EOF
