  0
SECTION
  2
HEADER
  9
$ACADVER
  1
AC1009
  9
$INSBASE
 10
0
 20
0
 30
0
  9
$EXTMIN
 10
0
 20
0
  9
$EXTMAX
 10
1189
 20
841
  9
$LIMMIN
 10
0
 20
0
  9
$LIMMAX
 10
1189
 20
841
  9
$LTSCALE
 40
1
  0
ENDSEC
  0
SECTION
  2
TABLES
  0
TABLE
  2
LTYPE
 70
     9
  0
LTYPE
  2
CONTINUOUS
 70
    64
  3
実線
 72
    65
 73
     0
 40
0.0
  0
LTYPE
  2
DASHED1
 70
    64
  3
--  --  --  --  --  --  --  --  
 72
    65
 73
     2
 40
2.5
 49
1.25
 49
-1.25
  0
LTYPE
  2
DASHED2
 70
    64
  3
----    ----    ----    ----    
 72
    65
 73
     2
 40
5.0
 49
2.5
 49
-2.5
  0
LTYPE
  2
DASHED3
 70
    64
  3
------  ------  ------  ------  
 72
    65
 73
     2
 40
5.0
 49
3.75
 49
-1.25
  0
LTYPE
  2
CENTER1
 70
    64
  3
----- - ----- - ----- - ----- - 
 72
    65
 73
     4
 40
10.0
 49
6.25
 49
-1.25
 49
1.25
 49
-1.25
  0
LTYPE
  2
CENTER2
 70
    64
  3
----------  --  ----------  --  
 72
    65
 73
     4
 40
20.0
 49
12.5
 49
-2.5
 49
2.5
 49
-2.5
  0
LTYPE
  2
PHANTOM1
 70
    64
  3
--- - - --- - - --- - - --- - - 
 72
    65
 73
     6
 40
10.0
 49
3.25
 49
-1.25
 49
1.25
 49
-1.25
 49
1.25
 49
-1.25
  0
LTYPE
  2
PHANTOM2
 70
    64
  3
--------  -  -  --------  -  -  
 72
    65
 73
     6
 40
20.0
 49
10.0
 49
-2.5
 49
1.25
 49
-2.5
 49
1.25
 49
-2.5
  0
LTYPE
  2
DOT
 70
    64
  3
-   -   -   -   -   -   -   -   
 72
    65
 73
     2
 40
2.5
 49
0.625
 49
-1.875
  0
LTYPE
  2
DUMMY
 70
    64
  3
ダミー
 72
    65
 73
     0
 40
0.0
  0
LTYPE
  2
RAND1
 70
    64
  3
ランダム線1
 72
    65
 73
     4
 40
10.0
 49
1.0
 49
-2.0
 49
3.0
 49
-4.0
  0
LTYPE
  2
RAND2
 70
    64
  3
ランダム線2
 72
    65
 73
     4
 40
14.0
 49
2.0
 49
-3.0
 49
4.0
 49
-5.0
  0
LTYPE
  2
RAND3
 70
    64
  3
ランダム線3
 72
    65
 73
     4
 40
18.0
 49
3.0
 49
-4.0
 49
5.0
 49
-6.0
  0
LTYPE
  2
RAND4
 70
    64
  3
ランダム線4
 72
    65
 73
     4
 40
22.0
 49
4.0
 49
-5.0
 49
6.0
 49
-7.0
  0
LTYPE
  2
RAND5
 70
    64
  3
ランダム線5
 72
    65
 73
     4
 40
26.0
 49
5.0
 49
-6.0
 49
7.0
 49
-8.0
  0
LTYPE
  2
LONG1
 70
    64
  3
----------  --  ----------  --  
 72
    65
 73
     4
 40
40.0
 49
32.5
 49
-2.5
 49
2.5
 49
-2.5
  0
LTYPE
  2
LONG2
 70
    64
  3
--------  -  -  --------  -  -  
 72
    65
 73
     6
 40
40.0
 49
30.0
 49
-2.5
 49
1.25
 49
-2.5
 49
1.25
 49
-2.5
  0
LTYPE
  2
LONG3
 70
    64
  3
+++++++++++++++..+++++++++++++++
 72
    65
 73
     2
 40
40.0
 49
37.5
 49
-2.5
  0
LTYPE
  2
LONG4
 70
    64
  3
+++++++++++++++..+++++++++++++++
 72
    65
 73
     2
 40
80.0
 49
75.0
 49
-5.0
  0
LTYPE
  2
LONG5
 70
    64
  3
----------  --  ----------  --  
 72
    65
 73
     4
 40
60.0
 49
37.5
 49
-7.5
 49
7.5
 49
-7.5
  0
LTYPE
  2
dashed
 70
   64
  3
-------   -------------   ------
 72
   65
 73
    2
 40
7.5
 49
6
 49
-1.5
  0
LTYPE
  2
dashed_spaced
 70
   64
  3
----        --------        ----
 72
   65
 73
    2
 40
12
 49
6
 49
-6
  0
LTYPE
  2
long_dashed_dotted
 70
   64
  3
------------- --- --------------
 72
   65
 73
    4
 40
15.25
 49
12
 49
-1.5
 49
0.25
 49
-1.5
  0
LTYPE
  2
long_dashed_double-dotted
 70
   64
  3
----------- --- --- ------------
 72
   65
 73
    6
 40
17
 49
12
 49
-1.5
 49
0.25
 49
-1.5
 49
0.25
 49
-1.5
  0
LTYPE
  2
long_dashed_triplicate-dotted
 70
   64
  3
--------- --- --- --- ----------
 72
   65
 73
    8
 40
18.75
 49
12
 49
-1.5
 49
0.25
 49
-1.5
 49
0.25
 49
-1.5
 49
0.25
 49
-1.5
  0
LTYPE
  2
dotted
 70
   64
  3
   -       -       -       -    
 72
   65
 73
    2
 40
1.75
 49
0.25
 49
-1.5
  0
LTYPE
  2
chain
 70
   64
  3
-------------- -- --------------
 72
   65
 73
    4
 40
18.5
 49
12
 49
-1.5
 49
3.5
 49
-1.5
  0
LTYPE
  2
chain_double_dash
 70
   64
  3
------------ -- -- -------------
 72
   65
 73
    6
 40
23.5
 49
12
 49
-1.5
 49
3.5
 49
-1.5
 49
3.5
 49
-1.5
  0
LTYPE
  2
dashed_dotted
 70
   64
  3
-----------     -     ----------
 72
   65
 73
    4
 40
9.25
 49
6
 49
-1.5
 49
0.25
 49
-1.5
  0
LTYPE
  2
double-dashed_dotted
 70
   64
  3
------   -----------   -   -----
 72
   65
 73
    6
 40
16.75
 49
6
 49
-1.5
 49
6
 49
-1.5
 49
0.25
 49
-1.5
  0
LTYPE
  2
dashed_double-dotted
 70
   64
  3
---------    -    -    ---------
 72
   65
 73
    6
 40
11
 49
6
 49
-1.5
 49
0.25
 49
-1.5
 49
0.25
 49
-1.5
  0
LTYPE
  2
double-dashed_double-dotted
 70
   64
  3
-----   ---------   -   -   ----
 72
   65
 73
    8
 40
18.5
 49
6
 49
-1.5
 49
6
 49
-1.5
 49
0.25
 49
-1.5
 49
0.25
 49
-1.5
  0
LTYPE
  2
dashed_triplicate-dotted
 70
   64
  3
-------    -    -    -    ------
 72
   65
 73
    8
 40
12.75
 49
6
 49
-1.5
 49
0.25
 49
-1.5
 49
0.25
 49
-1.5
 49
0.25
 49
-1.5
  0
LTYPE
  2
double-dashed_triplicate-dotted
 70
   64
  3
-----  ---------  -  -  -  -----
 72
   65
 73
   10
 40
20.25
 49
6
 49
-1.5
 49
6
 49
-1.5
 49
0.25
 49
-1.5
 49
0.25
 49
-1.5
 49
0.25
 49
-1.5
  0
LTYPE
  2
undefined
 70
   64
  3
--------------------------------
 72
   65
 73
    0
 40
0
  0
ENDTAB
  0
TABLE
  2
STYLE
  5
3
100
AcDbSymbolTable
 70
     1
  0
STYLE
  5
10
100
AcDbSymbolTableRecord
100
AcDbTextStyleTableRecord
  2
STANDARD
 70
     0
 40
0.0
 41
1.0
 50
0.0
 71
     0
 42
0.2
  3
txt
  4
bigfont.shx
  0
STYLE
  5
26
100
AcDbSymbolTableRecord
100
AcDbTextStyleTableRecord
  2
TATEGAKI
 70
    68
 40
0.0
 41
1.0
 50
0.0
 71
     0
 42
1.0
  3
txt
  4
bigfont.shx
  0
ENDTAB
  0
TABLE
  2
LAYER
 70
    4
  0
LAYER
  2
_0-0_
 70
   64
 62
    7
  6
CONTINUOUS
  0
LAYER
  2
_0-1_
 70
   64
 62
    7
  6
CONTINUOUS
  0
LAYER
  2
_0-f_
 70
   64
 62
    7
  6
CONTINUOUS
  0
LAYER
  2
ADD_LINE
 70
   64
 62
    7
  6
CONTINUOUS
  0
ENDTAB
  0
ENDSEC
  0
SECTION
  2
BLOCKS
  0
ENDSEC
  0
SECTION
  2
ENTITIES
  0
TEXT
  8
_0-f_
 62
    7
 10
0.5712627875348061
 20
1.2744090384958326
 40
4.2999999999999998
 41
0.744186046511628
 50
0
  1
E240  E240S
  0
LINE
  8
_0-0_
  6
CONTINUOUS
 62
    7
 10
1.2673457909880881
 20
18.028498702381853
 11
1.2673457909880881
 21
16.028498702381853
  0
LINE
  8
_0-0_
  6
CONTINUOUS
 62
    7
 10
25.267345790988088
 20
14.028498702381853
 11
25.45488723534379
 21
10.449994768017518
  0
LINE
  8
_0-0_
  6
CONTINUOUS
 62
    7
 10
32.267345790988088
 20
14.028498702381853
 11
32.079804346632386
 21
10.449994768017518
  0
LINE
  8
_0-0_
  6
CONTINUOUS
 62
    7
 10
33.367345790987997
 20
14.028498702381853
 11
9.1673457909879517
 21
14.028498702381853
  0
LINE
  8
_0-0_
  6
CONTINUOUS
 62
    7
 10
8.8673457909879971
 20
14.328498702381808
 11
8.8673457909879971
 21
16.028498702381853
  0
LINE
  8
_0-0_
  6
CONTINUOUS
 62
    7
 10
41.267345790988088
 20
18.028498702381853
 11
41.267345790988088
 21
16.028498702381853
  0
LINE
  8
_0-0_
  6
CONTINUOUS
 62
    7
 10
40.267345790988088
 20
19.028498702381853
 11
2.2673457909880881
 21
19.028498702381853
  0
LINE
  8
_0-0_
  6
CONTINUOUS
 62
    7
 10
26.952831537475618
 20
9.028498702381853
 11
30.581860044500331
 21
9.028498702381853
  0
LINE
  8
_0-0_
  6
CONTINUOUS
 62
    7
 10
17.079804346632386
 20
10.449994768017518
 11
17.267345790988088
 21
14.028498702381853
  0
LINE
  8
_0-0_
  6
CONTINUOUS
 62
    7
 10
15.581860044500559
 20
9.028498702381853
 11
11.952831537475618
 21
9.028498702381853
  0
LINE
  8
_0-0_
  6
CONTINUOUS
 62
    7
 10
10.267345790988088
 20
14.028498702381853
 11
10.45488723534379
 21
10.449994768017518
  0
ARC
  8
_0-0_
  6
CONTINUOUS
 62
    7
 10
26.952831537475618
 20
10.528498702381853
 40
1.5
 50
182.99999999999915
 51
270
  0
ARC
  8
_0-0_
  6
CONTINUOUS
 62
    7
 10
2.2673457909880881
 20
18.028498702381853
 40
1
 50
90
 51
180
  0
ARC
  8
_0-0_
  6
CONTINUOUS
 62
    7
 10
40.267345790988088
 20
18.028498702381853
 40
1
 50
0
 51
90
  0
ARC
  8
_0-0_
  6
CONTINUOUS
 62
    7
 10
33.367345790987997
 20
14.328498702381808
 40
0.2999999999999998
 50
270
 51
0
  0
ARC
  8
_0-0_
  6
CONTINUOUS
 62
    7
 10
9.1673457909879517
 20
14.328498702381808
 40
0.2999999999999998
 50
180
 51
270
  0
ARC
  8
_0-0_
  6
CONTINUOUS
 62
    7
 10
15.581860044500559
 20
10.528498702381853
 40
1.5
 50
270
 51
356.99999999999983
  0
ARC
  8
_0-0_
  6
CONTINUOUS
 62
    7
 10
11.952831537475618
 20
10.528498702381853
 40
1.5
 50
183.0000000000002
 51
270
  0
ARC
  8
_0-0_
  6
CONTINUOUS
 62
    7
 10
30.581860044500331
 20
10.528498702381853
 40
1.5
 50
270
 51
356.99999999999983
  0
LINE
  8
_0-0_
  6
CONTINUOUS
 62
    7
 10
41.267345790988088
 20
16.028498702381853
 11
1.2673457909880881
 21
16.028498702381853
  0
LINE
  8
_0-0_
  6
CONTINUOUS
 62
    7
 10
33.667345790987952
 20
16.028498702381853
 11
33.667345790987952
 21
14.328498702381808
  0
LINE
  8
_0-0_
  6
CONTINUOUS
 62
    7
 10
31.56734579098827
 20
64.629523876782855
 11
38.967345790988361
 21
64.629523876782855
  0
LINE
  8
_0-0_
  6
CONTINUOUS
 62
    7
 10
39.267345790988088
 20
64.329523876782673
 11
39.267345790988088
 21
61.929523876782582
  0
LINE
  8
_0-0_
  6
CONTINUOUS
 62
    7
 10
38.967345790988361
 20
61.629523876782855
 11
31.56734579098827
 21
61.629523876782855
  0
LINE
  8
_0-0_
  6
CONTINUOUS
 62
    7
 10
31.267345790988088
 20
61.929523876782582
 11
31.267345790988088
 21
64.329523876782673
  0
LINE
  8
_0-0_
  6
CONTINUOUS
 62
    7
 10
31.802015790988094
 20
64.180693876782584
 11
31.802015790988094
 21
62.139133876782466
  0
LINE
  8
_0-0_
  6
CONTINUOUS
 62
    7
 10
31.802015790988094
 20
62.139133876782466
 11
33.231355790988687
 21
62.139133876782466
  0
LINE
  8
_0-0_
  6
CONTINUOUS
 62
    7
 10
33.231355790988687
 20
62.139133876782466
 11
33.231355790988687
 21
62.503083876782853
  0
LINE
  8
_0-0_
  6
CONTINUOUS
 62
    7
 10
33.231355790988687
 20
62.503083876782853
 11
32.31111579098831
 21
62.503083876782853
  0
LINE
  8
_0-0_
  6
CONTINUOUS
 62
    7
 10
32.31111579098831
 20
62.503083876782853
 11
32.31111579098831
 21
64.180693876782584
  0
LINE
  8
_0-0_
  6
CONTINUOUS
 62
    7
 10
32.31111579098831
 20
64.180693876782584
 11
31.802015790988094
 21
64.180693876782584
  0
LINE
  8
_0-0_
  6
CONTINUOUS
 62
    7
 10
33.624155790988311
 20
64.180693876782584
 11
33.624155790988311
 21
62.139133876782466
  0
LINE
  8
_0-0_
  6
CONTINUOUS
 62
    7
 10
33.624155790988311
 20
62.139133876782466
 11
35.053865790988198
 21
62.139133876782466
  0
LINE
  8
_0-0_
  6
CONTINUOUS
 62
    7
 10
35.053865790988198
 20
62.139133876782466
 11
35.053865790988198
 21
62.503083876782853
  0
LINE
  8
_0-0_
  6
CONTINUOUS
 62
    7
 10
35.053865790988198
 20
62.503083876782853
 11
34.131455790988525
 21
62.503083876782853
  0
LINE
  8
_0-0_
  6
CONTINUOUS
 62
    7
 10
34.131455790988525
 20
62.503083876782853
 11
34.131455790988525
 21
63.001633876782648
  0
LINE
  8
_0-0_
  6
CONTINUOUS
 62
    7
 10
34.131455790988525
 20
63.001633876782648
 11
34.965905790988813
 21
63.001633876782648
  0
LINE
  8
_0-0_
  6
CONTINUOUS
 62
    7
 10
34.965905790988813
 20
63.001633876782648
 11
34.965905790988813
 21
63.343293876782695
  0
LINE
  8
_0-0_
  6
CONTINUOUS
 62
    7
 10
34.965905790988813
 20
63.343293876782695
 11
34.131455790988525
 21
63.343293876782695
  0
LINE
  8
_0-0_
  6
CONTINUOUS
 62
    7
 10
34.131455790988525
 20
63.343293876782695
 11
34.131455790988525
 21
63.816733876782905
  0
LINE
  8
_0-0_
  6
CONTINUOUS
 62
    7
 10
34.131455790988525
 20
63.816733876782905
 11
35.053865790988198
 21
63.816733876782905
  0
LINE
  8
_0-0_
  6
CONTINUOUS
 62
    7
 10
35.053865790988198
 20
63.816733876782905
 11
35.053865790988198
 21
64.180693876782584
  0
LINE
  8
_0-0_
  6
CONTINUOUS
 62
    7
 10
35.053865790988198
 20
64.180693876782584
 11
33.624155790988311
 21
64.180693876782584
  0
LINE
  8
_0-0_
  6
CONTINUOUS
 62
    7
 10
36.357305790988335
 20
63.570973876782659
 11
36.877415790988721
 21
63.570973876782659
  0
LINE
  8
_0-0_
  6
CONTINUOUS
 62
    7
 10
36.890825790988288
 20
62.835313876782834
 11
36.359845790988743
 21
62.835313876782834
  0
ARC
  8
_0-0_
  6
CONTINUOUS
 62
    7
 10
37.825865790988132
 20
63.159913876782753
 40
2.3989862999999998
 50
164.21600000000004
 51
195.78399000000002
  0
ARC
  8
_0-0_
  6
CONTINUOUS
 62
    7
 10
42.06303579098801
 20
63.159913876782753
 40
6.0927388999999996
 50
176.78918999999999
 51
183.21080000000001
  0
ARC
  8
_0-0_
  6
CONTINUOUS
 62
    7
 10
36.057955790988103
 20
62.694753876782556
 40
0.5721789
 50
199.11812000000006
 51
253.77089000000001
  0
ARC
  8
_0-0_
  6
CONTINUOUS
 62
    7
 10
36.169885790988133
 20
63.214253876782891
 40
1.1029028999999999
 50
255.73070000000004
 51
284.26929000000007
  0
ARC
  8
_0-0_
  6
CONTINUOUS
 62
    7
 10
36.281815790988162
 20
62.694753876782556
 40
0.5721789
 50
286.22910000000002
 51
340.88186999999999
  0
ARC
  8
_0-0_
  6
CONTINUOUS
 62
    7
 10
34.513905790988588
 20
63.159913876782753
 40
2.3989862999999998
 50
344.21599999999995
 51
352.22374999999994
  0
ARC
  8
_0-0_
  6
CONTINUOUS
 62
    7
 10
36.169885790988133
 20
62.627263876782649
 40
0.1658629
 50
198.78093000000001
 51
341.21906000000001
  0
ARC
  8
_0-0_
  6
CONTINUOUS
 62
    7
 10
35.433675790988559
 20
62.819153876782707
 40
0.9263072999999999
 50
344.64474000000007
 51
1.0000756000000433
  0
ARC
  8
_0-0_
  6
CONTINUOUS
 62
    7
 10
36.906095790988161
 20
62.819153876782707
 40
0.9263072999999999
 50
179.28076999999999
 51
195.35525000000001
  0
ARC
  8
_0-0_
  6
CONTINUOUS
 62
    7
 10
36.169885790988133
 20
63.692563876782856
 40
0.1658629
 50
18.780933999999998
 51
161.21906000000001
  0
ARC
  8
_0-0_
  6
CONTINUOUS
 62
    7
 10
36.906095790988161
 20
63.500673876782798
 40
0.9263072999999999
 50
164.64474000000004
 51
180.71922000000004
  0
ARC
  8
_0-0_
  6
CONTINUOUS
 62
    7
 10
35.433675790988559
 20
63.500673876782798
 40
0.9263072999999999
 50
4.3528099999999998
 51
15.355258000000001
  0
ARC
  8
_0-0_
  6
CONTINUOUS
 62
    7
 10
36.281815790988162
 20
63.625063876782747
 40
0.5721789
 50
19.118120000000001
 51
73.770895999999979
  0
ARC
  8
_0-0_
  6
CONTINUOUS
 62
    7
 10
34.513905790988588
 20
63.159913876782753
 40
2.3989862999999998
 50
9.8663227000000013
 51
15.783997000000001
  0
ARC
  8
_0-0_
  6
CONTINUOUS
 62
    7
 10
36.169885790988133
 20
63.105563876782867
 40
1.1029028999999999
 50
75.730706999999995
 51
104.26929
  0
ARC
  8
_0-0_
  6
CONTINUOUS
 62
    7
 10
36.057955790988103
 20
63.625063876782747
 40
0.5721789
 50
106.2291
 51
160.88186999999999
  0
ARC
  8
_0-0_
  6
CONTINUOUS
 62
    7
 10
39.615155790988297
 20
63.159913876782753
 40
2.3989862999999998
 50
164.21600000000004
 51
195.78399000000002
  0
ARC
  8
_0-0_
  6
CONTINUOUS
 62
    7
 10
43.85232579098863
 20
63.159913876782753
 40
6.0927388999999996
 50
176.78918999999999
 51
183.21080000000001
  0
ARC
  8
_0-0_
  6
CONTINUOUS
 62
    7
 10
32.066025790988419
 20
63.159913876782753
 40
6.0927388999999996
 50
356.78919000000002
 51
3.2108098999999948
  0
ARC
  8
_0-0_
  6
CONTINUOUS
 62
    7
 10
37.959175790988297
 20
62.627263876782649
 40
0.1658629
 50
198.78093000000001
 51
341.21906000000001
  0
ARC
  8
_0-0_
  6
CONTINUOUS
 62
    7
 10
37.959175790988297
 20
63.214253876782891
 40
1.1029028999999999
 50
255.73070000000004
 51
284.26929000000007
  0
ARC
  8
_0-0_
  6
CONTINUOUS
 62
    7
 10
38.071105790988781
 20
62.694753876782556
 40
0.5721789
 50
286.22910000000002
 51
340.88186999999999
  0
ARC
  8
_0-0_
  6
CONTINUOUS
 62
    7
 10
37.847245790988723
 20
62.694753876782556
 40
0.5721789
 50
199.11812000000006
 51
253.77089000000001
  0
ARC
  8
_0-0_
  6
CONTINUOUS
 62
    7
 10
36.303195790988298
 20
63.159913876782753
 40
2.3989862999999998
 50
344.21599999999995
 51
15.783997000000026
  0
ARC
  8
_0-0_
  6
CONTINUOUS
 62
    7
 10
37.222965790988269
 20
62.819153876782707
 40
0.9263072999999999
 50
344.64474000000007
 51
0.719224299999991
  0
ARC
  8
_0-0_
  6
CONTINUOUS
 62
    7
 10
38.695385790988325
 20
62.819153876782707
 40
0.9263072999999999
 50
179.28076999999999
 51
195.35525000000001
  0
ARC
  8
_0-0_
  6
CONTINUOUS
 62
    7
 10
38.695385790988325
 20
63.500673876782798
 40
0.9263072999999999
 50
164.64474000000004
 51
180.71922000000004
  0
ARC
  8
_0-0_
  6
CONTINUOUS
 62
    7
 10
37.959175790988297
 20
63.692563876782856
 40
0.1658629
 50
18.780933999999998
 51
161.21906000000001
  0
ARC
  8
_0-0_
  6
CONTINUOUS
 62
    7
 10
37.222965790988269
 20
63.500673876782798
 40
0.9263072999999999
 50
359.28076999999996
 51
15.355257999999957
  0
ARC
  8
_0-0_
  6
CONTINUOUS
 62
    7
 10
37.959175790988297
 20
63.105563876782867
 40
1.1029028999999999
 50
75.730706999999995
 51
104.26929
  0
ARC
  8
_0-0_
  6
CONTINUOUS
 62
    7
 10
37.847245790988723
 20
63.625063876782747
 40
0.5721789
 50
106.2291
 51
160.88186999999999
  0
ARC
  8
_0-0_
  6
CONTINUOUS
 62
    7
 10
38.071105790988781
 20
63.625063876782747
 40
0.5721789
 50
19.118120000000001
 51
73.770895999999979
  0
ARC
  8
_0-0_
  6
CONTINUOUS
 62
    7
 10
31.56734579098827
 20
61.929523876782582
 40
0.2999999999999998
 50
180
 51
270
  0
ARC
  8
_0-0_
  6
CONTINUOUS
 62
    7
 10
31.56734579098827
 20
64.329523876782673
 40
0.2999999999999998
 50
90
 51
180
  0
ARC
  8
_0-0_
  6
CONTINUOUS
 62
    7
 10
38.967345790988361
 20
64.329523876782673
 40
0.2999999999999998
 50
0
 51
90
  0
ARC
  8
_0-0_
  6
CONTINUOUS
 62
    7
 10
38.967345790988361
 20
61.929523876782582
 40
0.2999999999999998
 50
270
 51
0
  0
LINE
  8
_0-0_
  6
CONTINUOUS
 62
    7
 10
2.2673457909885428
 20
84.629523876782855
 11
40.267345790988088
 21
84.629523876782855
  0
LINE
  8
_0-0_
  6
CONTINUOUS
 62
    7
 10
41.267345790988088
 20
83.629523876782855
 11
41.267345790988088
 21
60.629523876782855
  0
LINE
  8
_0-0_
  6
CONTINUOUS
 62
    7
 10
40.267345790988088
 20
59.629523876782855
 11
2.2673457909885428
 21
59.629523876782855
  0
LINE
  8
_0-0_
  6
CONTINUOUS
 62
    7
 10
1.2673457909880881
 20
60.629523876782855
 11
1.2673457909880881
 21
83.629523876782855
  0
LINE
  8
_0-0_
  6
CONTINUOUS
 62
    7
 10
13.269935790988143
 20
74.377833876782802
 11
13.269935790988143
 21
73.363723876782728
  0
LINE
  8
_0-0_
  6
CONTINUOUS
 62
    7
 10
14.264735790988539
 20
73.363723876782728
 11
14.264735790988539
 21
74.377833876782802
  0
LINE
  8
_0-0_
  6
CONTINUOUS
 62
    7
 10
15.001575790988113
 20
72.626883876782699
 11
16.015615790988136
 21
72.626883876782699
  0
LINE
  8
_0-0_
  6
CONTINUOUS
 62
    7
 10
16.015615790988136
 20
71.632133876782859
 11
15.001575790988113
 21
71.632133876782859
  0
LINE
  8
_0-0_
  6
CONTINUOUS
 62
    7
 10
14.264735790988539
 20
70.89529387678283
 11
14.264735790988539
 21
69.881233876782858
  0
LINE
  8
_0-0_
  6
CONTINUOUS
 62
    7
 10
13.269935790988143
 20
69.881233876782858
 11
13.269935790988143
 21
70.89529387678283
  0
LINE
  8
_0-0_
  6
CONTINUOUS
 62
    7
 10
12.533095790988568
 20
71.632133876782859
 11
11.519015790988647
 21
71.632133876782859
  0
LINE
  8
_0-0_
  6
CONTINUOUS
 62
    7
 10
11.519015790988647
 20
72.626883876782699
 11
12.533095790988568
 21
72.626883876782699
  0
LINE
  8
_0-0_
  6
CONTINUOUS
 62
    7
 10
26.519015790988647
 20
72.626883876782699
 11
27.533095790988568
 21
72.626883876782699
  0
LINE
  8
_0-0_
  6
CONTINUOUS
 62
    7
 10
27.533095790988568
 20
71.632133876782859
 11
26.519015790988647
 21
71.632133876782859
  0
LINE
  8
_0-0_
  6
CONTINUOUS
 62
    7
 10
28.269935790988143
 20
70.89529387678283
 11
28.269935790988143
 21
69.881233876782858
  0
LINE
  8
_0-0_
  6
CONTINUOUS
 62
    7
 10
29.264735790988539
 20
69.881233876782858
 11
29.264735790988539
 21
70.89529387678283
  0
LINE
  8
_0-0_
  6
CONTINUOUS
 62
    7
 10
30.001575790988113
 20
71.632133876782859
 11
31.015615790988136
 21
71.632133876782859
  0
LINE
  8
_0-0_
  6
CONTINUOUS
 62
    7
 10
31.015615790988136
 20
72.626883876782699
 11
30.001575790988113
 21
72.626883876782699
  0
LINE
  8
_0-0_
  6
CONTINUOUS
 62
    7
 10
29.264735790988539
 20
73.363723876782728
 11
29.264735790988539
 21
74.377833876782802
  0
LINE
  8
_0-0_
  6
CONTINUOUS
 62
    7
 10
28.269935790988143
 20
74.377833876782802
 11
28.269935790988143
 21
73.363723876782728
  0
ARC
  8
_0-0_
  6
CONTINUOUS
 62
    7
 10
2.2673457909885428
 20
83.629523876782855
 40
1
 50
90
 51
180
  0
ARC
  8
_0-0_
  6
CONTINUOUS
 62
    7
 10
2.2673457909885428
 20
60.629523876782855
 40
1
 50
180
 51
270
  0
ARC
  8
_0-0_
  6
CONTINUOUS
 62
    7
 10
40.267345790988088
 20
83.629523876782855
 40
1
 50
0
 51
90
  0
ARC
  8
_0-0_
  6
CONTINUOUS
 62
    7
 10
40.267345790988088
 20
60.629523876782855
 40
1
 50
270
 51
0
  0
CIRCLE
  8
_0-0_
  6
CONTINUOUS
 62
    7
 10
13.767345790988088
 20
72.129523876782855
 40
3.5499999999999998
  0
ARC
  8
_0-0_
  6
CONTINUOUS
 62
    7
 10
12.533095790988568
 20
73.363723876782728
 40
0.7368479999999999
 50
270
 51
0
  0
ARC
  8
_0-0_
  6
CONTINUOUS
 62
    7
 10
15.001575790988113
 20
73.363723876782728
 40
0.7368479999999999
 50
180
 51
270
  0
ARC
  8
_0-0_
  6
CONTINUOUS
 62
    7
 10
15.001575790988113
 20
70.89529387678283
 40
0.7368479999999999
 50
90
 51
180
  0
ARC
  8
_0-0_
  6
CONTINUOUS
 62
    7
 10
12.533095790988568
 20
70.89529387678283
 40
0.7368479999999999
 50
0
 51
90
  0
ARC
  8
_0-0_
  6
CONTINUOUS
 62
    7
 10
13.76735579098829
 20
72.129533876782602
 40
2.3026499999999999
 50
347.52571999999998
 51
12.474273000000045
  0
ARC
  8
_0-0_
  6
CONTINUOUS
 62
    7
 10
13.76735579098829
 20
72.129533876782602
 40
2.3026499999999999
 50
77.525817000000018
 51
102.47418000000003
  0
ARC
  8
_0-0_
  6
CONTINUOUS
 62
    7
 10
13.76735579098829
 20
72.129533876782602
 40
2.3026499999999999
 50
167.52571999999995
 51
192.47426999999996
  0
ARC
  8
_0-0_
  6
CONTINUOUS
 62
    7
 10
13.76735579098829
 20
72.129533876782602
 40
2.3026499999999999
 50
257.52580999999998
 51
282.47417999999999
  0
CIRCLE
  8
_0-0_
  6
CONTINUOUS
 62
    7
 10
28.767345790988088
 20
72.129523876782855
 40
3.5499999999999998
  0
ARC
  8
_0-0_
  6
CONTINUOUS
 62
    7
 10
27.533095790988568
 20
73.363723876782728
 40
0.7368479999999999
 50
270
 51
0
  0
ARC
  8
_0-0_
  6
CONTINUOUS
 62
    7
 10
30.001575790988113
 20
73.363723876782728
 40
0.7368479999999999
 50
180
 51
270
  0
ARC
  8
_0-0_
  6
CONTINUOUS
 62
    7
 10
30.001575790988113
 20
70.89529387678283
 40
0.7368479999999999
 50
90
 51
180
  0
ARC
  8
_0-0_
  6
CONTINUOUS
 62
    7
 10
27.533095790988568
 20
70.89529387678283
 40
0.7368479999999999
 50
0
 51
90
  0
ARC
  8
_0-0_
  6
CONTINUOUS
 62
    7
 10
28.76735579098829
 20
72.129533876782602
 40
2.3026499999999999
 50
347.52571999999998
 51
12.474273000000045
  0
ARC
  8
_0-0_
  6
CONTINUOUS
 62
    7
 10
28.76735579098829
 20
72.129533876782602
 40
2.3026499999999999
 50
77.525817000000018
 51
102.47418000000003
  0
ARC
  8
_0-0_
  6
CONTINUOUS
 62
    7
 10
28.76735579098829
 20
72.129533876782602
 40
2.3026499999999999
 50
167.52571999999995
 51
192.47426999999996
  0
ARC
  8
_0-0_
  6
CONTINUOUS
 62
    7
 10
28.76735579098829
 20
72.129533876782602
 40
2.3026499999999999
 50
257.52580999999998
 51
282.47417999999999
  0
LINE
  8
_0-0_
  6
CONTINUOUS
 62
    7
 10
75.228973142722452
 20
75.429523876782582
 11
77.228973142722452
 21
75.429523876782582
  0
LINE
  8
_0-0_
  6
CONTINUOUS
 62
    7
 10
77.228973142722452
 20
75.429523876782582
 11
81.281313142722183
 21
75.217143876782643
  0
LINE
  8
_0-0_
  6
CONTINUOUS
 62
    7
 10
82.228973142722452
 20
74.218513876782595
 11
82.228973142722452
 21
73.276243876782587
  0
LINE
  8
_0-0_
  6
CONTINUOUS
 62
    7
 10
81.944673142722195
 20
72.976653876782507
 11
77.797573142722058
 21
72.759313876782812
  0
LINE
  8
_0-0_
  6
CONTINUOUS
 62
    7
 10
77.797573142722058
 20
71.499723876782696
 11
81.944673142722195
 21
71.282383876782774
  0
LINE
  8
_0-0_
  6
CONTINUOUS
 62
    7
 10
82.228973142722452
 20
70.982793876782466
 11
82.228973142722452
 21
70.040523876782686
  0
LINE
  8
_0-0_
  6
CONTINUOUS
 62
    7
 10
81.281313142722183
 20
69.041893876782865
 11
77.228973142722452
 21
68.829523876782673
  0
LINE
  8
_0-0_
  6
CONTINUOUS
 62
    7
 10
77.228973142722452
 20
68.829523876782673
 11
77.228973142722452
 21
75.429523876782582
  0
LINE
  8
_0-0_
  6
CONTINUOUS
 62
    7
 10
77.228973142722452
 20
68.829523876782673
 11
75.228973142722452
 21
68.829523876782673
  0
LINE
  8
_0-0_
  6
CONTINUOUS
 62
    7
 10
75.228973142722452
 20
59.629523876782855
 11
75.228973142722452
 21
84.629523876782855
  0
LINE
  8
_0-0_
  6
CONTINUOUS
 62
    7
 10
75.228973142722452
 20
84.629523876782855
 11
73.228973142721998
 21
84.629523876782855
  0
LINE
  8
_0-0_
  6
CONTINUOUS
 62
    7
 10
72.228973142722452
 20
83.629523876782855
 11
72.228973142722452
 21
60.629523876782855
  0
LINE
  8
_0-0_
  6
CONTINUOUS
 62
    7
 10
73.228973142721998
 20
59.629523876782855
 11
75.228973142722452
 21
59.629523876782855
  0
ARC
  8
_0-0_
  6
CONTINUOUS
 62
    7
 10
77.828973142721907
 20
72.098893876782654
 40
0.5999999999999996
 50
180
 51
267
  0
ARC
  8
_0-0_
  6
CONTINUOUS
 62
    7
 10
77.828973142721907
 20
72.160143876782854
 40
0.5999999999999996
 50
92.999999999999986
 51
180
  0
ARC
  8
_0-0_
  6
CONTINUOUS
 62
    7
 10
81.228973142722452
 20
70.040523876782686
 40
1
 50
273
 51
359.99999999999994
  0
ARC
  8
_0-0_
  6
CONTINUOUS
 62
    7
 10
81.228973142722452
 20
74.218513876782595
 40
1
 50
0
 51
87
  0
ARC
  8
_0-0_
  6
CONTINUOUS
 62
    7
 10
81.928973142721816
 20
70.982793876782466
 40
0.2999999999999998
 50
0
 51
87
  0
ARC
  8
_0-0_
  6
CONTINUOUS
 62
    7
 10
81.928973142721816
 20
73.276243876782587
 40
0.2999999999999998
 50
273
 51
359.99999999999994
  0
ARC
  8
_0-0_
  6
CONTINUOUS
 62
    7
 10
73.228973142721998
 20
60.629523876782855
 40
1
 50
180
 51
270
  0
ARC
  8
_0-0_
  6
CONTINUOUS
 62
    7
 10
73.228973142721998
 20
83.629523876782855
 40
1
 50
90
 51
180
  0
LINE
  8
_0-1_
  6
CENTER1
 62
  152
 10
13.767355790988063
 20
20.74616461241817
 11
13.767355790988063
 21
7.5318152533558305
  0
LINE
  8
_0-1_
  6
CENTER1
 62
  152
 10
28.767355790988063
 20
20.74616461241817
 11
28.767355790988063
 21
7.5318152533558305
  0
LINE
  8
_0-1_
  6
CENTER2
 62
  152
 10
33.01737579098824
 20
72.129533876782602
 11
24.517385790988442
 21
72.129533876782602
  0
LINE
  8
_0-1_
  6
CENTER2
 62
  152
 10
18.01737579098824
 20
72.129533876782602
 11
9.5173857909884418
 21
72.129533876782602
  0
LINE
  8
_0-1_
  6
CENTER2
 62
  152
 10
13.76735579098829
 20
76.379523876782855
 11
13.76735579098829
 21
67.879533876782602
  0
LINE
  8
_0-1_
  6
CENTER2
 62
  152
 10
28.76735579098829
 20
67.879533876782602
 11
28.76735579098829
 21
76.379523876782855
  0
LINE
  8
_0-1_
  6
CENTER1
 62
  152
 10
82.228973142722452
 20
72.129523876782855
 11
78.394653142722063
 21
72.129523876782855
  0
LINE
  8
_0-1_
  6
CENTER1
 62
  152
 10
77.54655314272236
 20
72.129523876782855
 11
72.228973142722452
 21
72.129523876782855
  0
ENDSEC
  0
EOF
