  0
SECTION
  2
HEADER
  9
$ACADVER
  1
AC1009
  9
$INSBASE
 10
0
 20
0
 30
0
  9
$EXTMIN
 10
0
 20
0
  9
$EXTMAX
 10
1189
 20
841
  9
$LIMMIN
 10
0
 20
0
  9
$LIMMAX
 10
1189
 20
841
  9
$LTSCALE
 40
1
  0
ENDSEC
  0
SECTION
  2
TABLES
  0
TABLE
  2
LTYPE
 70
     9
  0
LTYPE
  2
CONTINUOUS
 70
    64
  3
実線
 72
    65
 73
     0
 40
0.0
  0
LTYPE
  2
DASHED1
 70
    64
  3
--  --  --  --  --  --  --  --  
 72
    65
 73
     2
 40
2.5
 49
1.25
 49
-1.25
  0
LTYPE
  2
DASHED2
 70
    64
  3
----    ----    ----    ----    
 72
    65
 73
     2
 40
5.0
 49
2.5
 49
-2.5
  0
LTYPE
  2
DASHED3
 70
    64
  3
------  ------  ------  ------  
 72
    65
 73
     2
 40
5.0
 49
3.75
 49
-1.25
  0
LTYPE
  2
CENTER1
 70
    64
  3
----- - ----- - ----- - ----- - 
 72
    65
 73
     4
 40
10.0
 49
6.25
 49
-1.25
 49
1.25
 49
-1.25
  0
LTYPE
  2
CENTER2
 70
    64
  3
----------  --  ----------  --  
 72
    65
 73
     4
 40
20.0
 49
12.5
 49
-2.5
 49
2.5
 49
-2.5
  0
LTYPE
  2
PHANTOM1
 70
    64
  3
--- - - --- - - --- - - --- - - 
 72
    65
 73
     6
 40
10.0
 49
3.25
 49
-1.25
 49
1.25
 49
-1.25
 49
1.25
 49
-1.25
  0
LTYPE
  2
PHANTOM2
 70
    64
  3
--------  -  -  --------  -  -  
 72
    65
 73
     6
 40
20.0
 49
10.0
 49
-2.5
 49
1.25
 49
-2.5
 49
1.25
 49
-2.5
  0
LTYPE
  2
DOT
 70
    64
  3
-   -   -   -   -   -   -   -   
 72
    65
 73
     2
 40
2.5
 49
0.625
 49
-1.875
  0
LTYPE
  2
DUMMY
 70
    64
  3
ダミー
 72
    65
 73
     0
 40
0.0
  0
LTYPE
  2
RAND1
 70
    64
  3
ランダム線1
 72
    65
 73
     4
 40
10.0
 49
1.0
 49
-2.0
 49
3.0
 49
-4.0
  0
LTYPE
  2
RAND2
 70
    64
  3
ランダム線2
 72
    65
 73
     4
 40
14.0
 49
2.0
 49
-3.0
 49
4.0
 49
-5.0
  0
LTYPE
  2
RAND3
 70
    64
  3
ランダム線3
 72
    65
 73
     4
 40
18.0
 49
3.0
 49
-4.0
 49
5.0
 49
-6.0
  0
LTYPE
  2
RAND4
 70
    64
  3
ランダム線4
 72
    65
 73
     4
 40
22.0
 49
4.0
 49
-5.0
 49
6.0
 49
-7.0
  0
LTYPE
  2
RAND5
 70
    64
  3
ランダム線5
 72
    65
 73
     4
 40
26.0
 49
5.0
 49
-6.0
 49
7.0
 49
-8.0
  0
LTYPE
  2
LONG1
 70
    64
  3
----------  --  ----------  --  
 72
    65
 73
     4
 40
40.0
 49
32.5
 49
-2.5
 49
2.5
 49
-2.5
  0
LTYPE
  2
LONG2
 70
    64
  3
--------  -  -  --------  -  -  
 72
    65
 73
     6
 40
40.0
 49
30.0
 49
-2.5
 49
1.25
 49
-2.5
 49
1.25
 49
-2.5
  0
LTYPE
  2
LONG3
 70
    64
  3
+++++++++++++++..+++++++++++++++
 72
    65
 73
     2
 40
40.0
 49
37.5
 49
-2.5
  0
LTYPE
  2
LONG4
 70
    64
  3
+++++++++++++++..+++++++++++++++
 72
    65
 73
     2
 40
80.0
 49
75.0
 49
-5.0
  0
LTYPE
  2
LONG5
 70
    64
  3
----------  --  ----------  --  
 72
    65
 73
     4
 40
60.0
 49
37.5
 49
-7.5
 49
7.5
 49
-7.5
  0
LTYPE
  2
dashed
 70
   64
  3
-------   -------------   ------
 72
   65
 73
    2
 40
7.5
 49
6
 49
-1.5
  0
LTYPE
  2
dashed_spaced
 70
   64
  3
----        --------        ----
 72
   65
 73
    2
 40
12
 49
6
 49
-6
  0
LTYPE
  2
long_dashed_dotted
 70
   64
  3
------------- --- --------------
 72
   65
 73
    4
 40
15.25
 49
12
 49
-1.5
 49
0.25
 49
-1.5
  0
LTYPE
  2
long_dashed_double-dotted
 70
   64
  3
----------- --- --- ------------
 72
   65
 73
    6
 40
17
 49
12
 49
-1.5
 49
0.25
 49
-1.5
 49
0.25
 49
-1.5
  0
LTYPE
  2
long_dashed_triplicate-dotted
 70
   64
  3
--------- --- --- --- ----------
 72
   65
 73
    8
 40
18.75
 49
12
 49
-1.5
 49
0.25
 49
-1.5
 49
0.25
 49
-1.5
 49
0.25
 49
-1.5
  0
LTYPE
  2
dotted
 70
   64
  3
   -       -       -       -    
 72
   65
 73
    2
 40
1.75
 49
0.25
 49
-1.5
  0
LTYPE
  2
chain
 70
   64
  3
-------------- -- --------------
 72
   65
 73
    4
 40
18.5
 49
12
 49
-1.5
 49
3.5
 49
-1.5
  0
LTYPE
  2
chain_double_dash
 70
   64
  3
------------ -- -- -------------
 72
   65
 73
    6
 40
23.5
 49
12
 49
-1.5
 49
3.5
 49
-1.5
 49
3.5
 49
-1.5
  0
LTYPE
  2
dashed_dotted
 70
   64
  3
-----------     -     ----------
 72
   65
 73
    4
 40
9.25
 49
6
 49
-1.5
 49
0.25
 49
-1.5
  0
LTYPE
  2
double-dashed_dotted
 70
   64
  3
------   -----------   -   -----
 72
   65
 73
    6
 40
16.75
 49
6
 49
-1.5
 49
6
 49
-1.5
 49
0.25
 49
-1.5
  0
LTYPE
  2
dashed_double-dotted
 70
   64
  3
---------    -    -    ---------
 72
   65
 73
    6
 40
11
 49
6
 49
-1.5
 49
0.25
 49
-1.5
 49
0.25
 49
-1.5
  0
LTYPE
  2
double-dashed_double-dotted
 70
   64
  3
-----   ---------   -   -   ----
 72
   65
 73
    8
 40
18.5
 49
6
 49
-1.5
 49
6
 49
-1.5
 49
0.25
 49
-1.5
 49
0.25
 49
-1.5
  0
LTYPE
  2
dashed_triplicate-dotted
 70
   64
  3
-------    -    -    -    ------
 72
   65
 73
    8
 40
12.75
 49
6
 49
-1.5
 49
0.25
 49
-1.5
 49
0.25
 49
-1.5
 49
0.25
 49
-1.5
  0
LTYPE
  2
double-dashed_triplicate-dotted
 70
   64
  3
-----  ---------  -  -  -  -----
 72
   65
 73
   10
 40
20.25
 49
6
 49
-1.5
 49
6
 49
-1.5
 49
0.25
 49
-1.5
 49
0.25
 49
-1.5
 49
0.25
 49
-1.5
  0
LTYPE
  2
undefined
 70
   64
  3
--------------------------------
 72
   65
 73
    0
 40
0
  0
ENDTAB
  0
TABLE
  2
STYLE
  5
3
100
AcDbSymbolTable
 70
     1
  0
STYLE
  5
10
100
AcDbSymbolTableRecord
100
AcDbTextStyleTableRecord
  2
STANDARD
 70
     0
 40
0.0
 41
1.0
 50
0.0
 71
     0
 42
0.2
  3
txt
  4
bigfont.shx
  0
STYLE
  5
26
100
AcDbSymbolTableRecord
100
AcDbTextStyleTableRecord
  2
TATEGAKI
 70
    68
 40
0.0
 41
1.0
 50
0.0
 71
     0
 42
1.0
  3
txt
  4
bigfont.shx
  0
ENDTAB
  0
TABLE
  2
LAYER
 70
    4
  0
LAYER
  2
_0-0_
 70
   64
 62
    7
  6
CONTINUOUS
  0
LAYER
  2
_0-1_
 70
   64
 62
    7
  6
CONTINUOUS
  0
LAYER
  2
_0-f_
 70
   64
 62
    7
  6
CONTINUOUS
  0
LAYER
  2
ADD_LINE
 70
   64
 62
    7
  6
CONTINUOUS
  0
ENDTAB
  0
ENDSEC
  0
SECTION
  2
BLOCKS
  0
ENDSEC
  0
SECTION
  2
ENTITIES
  0
TEXT
  8
_0-f_
 62
    7
 10
1.2553133561980303
 20
0.7932299982260246
 40
4.2999999999999998
 41
0.744186046511628
 50
0
  1
E205
  0
LINE
  8
_0-1_
  6
CONTINUOUS
 62
  152
 10
11.020508487213874
 20
79.7518876040142
 11
11.68322122555287
 21
80.414600342352742
  0
LINE
  8
_0-1_
  6
CONTINUOUS
 62
  152
 10
11.96269385039318
 20
80.394072967193324
 11
34.362693850393271
 21
80.394072967193324
  0
LINE
  8
_0-1_
  6
CONTINUOUS
 62
  152
 10
34.64216647523358
 20
80.414600342352742
 11
35.304879213572121
 21
79.7518876040142
  0
LINE
  8
_0-0_
  6
CONTINUOUS
 62
    7
 10
34.662693850392998
 20
79.394072967193324
 11
11.662693850392998
 21
79.394072967193324
  0
LINE
  8
_0-1_
  6
CONTINUOUS
 62
  152
 10
11.662693850392998
 20
80.694072967193279
 11
11.662693850392998
 21
98.094072967193142
  0
LINE
  8
_0-1_
  6
CONTINUOUS
 62
  152
 10
11.68322122555287
 20
98.373545592033679
 11
11.020508487213874
 21
99.036258330372448
  0
LINE
  8
_0-0_
  6
CONTINUOUS
 62
    7
 10
11.662693850392998
 20
99.394072967193324
 11
34.662693850392998
 21
99.394072967193324
  0
LINE
  8
_0-1_
  6
CONTINUOUS
 62
  152
 10
35.304879213572121
 20
99.036258330372448
 11
34.64216647523358
 21
98.373545592033679
  0
LINE
  8
_0-1_
  6
CONTINUOUS
 62
  152
 10
34.362693850393271
 20
98.394072967193324
 11
11.96269385039318
 21
98.394072967193324
  0
LINE
  8
_0-0_
  6
CONTINUOUS
 62
    7
 10
10.662693850392998
 20
98.394072967193324
 11
10.662693850392998
 21
80.394072967193324
  0
LINE
  8
_0-1_
  6
CENTER1
 62
  152
 10
10.662693850392998
 20
91.894072967193324
 11
35.662693850392998
 21
91.894072967193324
  0
LINE
  8
_0-0_
  6
CONTINUOUS
 62
    7
 10
33.662693850392998
 20
84.094072967193142
 11
33.662693850392998
 21
81.694072967193279
  0
LINE
  8
_0-0_
  6
CONTINUOUS
 62
    7
 10
25.662693850392998
 20
81.694072967193279
 11
25.662693850392998
 21
84.094072967193142
  0
LINE
  8
_0-0_
  6
CONTINUOUS
 62
    7
 10
25.96269385039318
 20
84.394072967193324
 11
33.362693850393271
 21
84.394072967193324
  0
LINE
  8
_0-1_
  6
CONTINUOUS
 62
  152
 10
34.662693850392998
 20
80.694072967193279
 11
34.662693850392998
 21
98.094072967193142
  0
LINE
  8
_0-0_
  6
CONTINUOUS
 62
    7
 10
35.662693850392998
 20
98.394072967193324
 11
35.662693850392998
 21
80.394072967193324
  0
LINE
  8
_0-1_
  6
CONTINUOUS
 62
  152
 10
28.019505087608877
 20
81.90368421023868
 11
28.019505087608877
 21
83.945245452838662
  0
LINE
  8
_0-1_
  6
CONTINUOUS
 62
  152
 10
28.019505087608877
 20
83.945245452838662
 11
29.449219879153361
 21
83.945245452838662
  0
LINE
  8
_0-1_
  6
CONTINUOUS
 62
  152
 10
29.449219879153361
 20
83.945245452838662
 11
29.449219879153361
 21
83.581287516087514
  0
LINE
  8
_0-1_
  6
CONTINUOUS
 62
  152
 10
29.449219879153361
 20
83.581287516087514
 11
28.526805173048842
 21
83.581287516087514
  0
LINE
  8
_0-1_
  6
CONTINUOUS
 62
  152
 10
28.526805173048842
 20
83.581287516087514
 11
28.526805173048842
 21
83.107843202148615
  0
LINE
  8
_0-1_
  6
CONTINUOUS
 62
  152
 10
28.526805173048842
 20
83.107843202148615
 11
29.361258848026182
 21
83.107843202148615
  0
LINE
  8
_0-1_
  6
CONTINUOUS
 62
  152
 10
29.361258848026182
 20
83.107843202148615
 11
29.361258848026182
 21
82.766192124168583
  0
LINE
  8
_0-1_
  6
CONTINUOUS
 62
  152
 10
29.361258848026182
 20
82.766192124168583
 11
28.526805173048842
 21
82.766192124168583
  0
LINE
  8
_0-1_
  6
CONTINUOUS
 62
  152
 10
28.526805173048842
 20
82.766192124168583
 11
28.526805173048842
 21
82.267642147018705
  0
LINE
  8
_0-1_
  6
CONTINUOUS
 62
  152
 10
28.526805173048842
 20
82.267642147018705
 11
29.449219879153361
 21
82.267642147018705
  0
LINE
  8
_0-1_
  6
CONTINUOUS
 62
  152
 10
29.449219879153361
 20
82.267642147018705
 11
29.449219879153361
 21
81.90368421023868
  0
LINE
  8
_0-1_
  6
CONTINUOUS
 62
  152
 10
29.449219879153361
 20
81.90368421023868
 11
28.019505087608877
 21
81.90368421023868
  0
LINE
  8
_0-1_
  6
CONTINUOUS
 62
  152
 10
27.62670878143058
 20
81.90368421023868
 11
26.197366005116464
 21
81.90368421023868
  0
LINE
  8
_0-1_
  6
CONTINUOUS
 62
  152
 10
26.197366005116464
 20
81.90368421023868
 11
26.197366005116464
 21
83.945245452838662
  0
LINE
  8
_0-1_
  6
CONTINUOUS
 62
  152
 10
26.197366005116464
 20
83.945245452838662
 11
26.706471533516151
 21
83.945245452838662
  0
LINE
  8
_0-1_
  6
CONTINUOUS
 62
  152
 10
26.706471533516151
 20
83.945245452838662
 11
26.706471533516151
 21
82.267642147018705
  0
LINE
  8
_0-1_
  6
CONTINUOUS
 62
  152
 10
26.706471533516151
 20
82.267642147018705
 11
27.62670878143058
 21
82.267642147018705
  0
LINE
  8
_0-1_
  6
CONTINUOUS
 62
  152
 10
27.62670878143058
 20
82.267642147018705
 11
27.62670878143058
 21
81.90368421023868
  0
LINE
  8
_0-0_
  6
CONTINUOUS
 62
    7
 10
25.96269385039318
 20
81.394072967193324
 11
33.362693850393271
 21
81.394072967193324
  0
LINE
  8
_0-1_
  6
CONTINUOUS
 62
  152
 10
31.272762561772879
 20
83.335531246318624
 11
30.752661915635827
 21
83.335531246318624
  0
LINE
  8
_0-1_
  6
CONTINUOUS
 62
  152
 10
30.755192652711912
 20
82.599870626278744
 11
31.286182058174518
 21
82.599870626278744
  0
LINE
  8
_0-1_
  6
CENTER1
 62
  152
 10
23.162693850392998
 20
79.394072967193324
 11
23.162693850392998
 21
99.394072967193324
  0
ARC
  8
_0-1_
  6
CONTINUOUS
 62
  152
 10
32.221213345859496
 20
82.924464831538671
 40
2.3989863444973807
 50
164.21600247589294
 51
195.78399752410706
  0
ARC
  8
_0-1_
  6
CONTINUOUS
 62
  152
 10
36.45838394382622
 20
82.924464831534351
 40
6.0927389498109967
 50
176.78919008197266
 51
183.21080991802734
  0
ARC
  8
_0-1_
  6
CONTINUOUS
 62
  152
 10
30.453303826311412
 20
82.459311159345589
 40
0.5721789663386138
 50
199.11812031409383
 51
253.77089632225113
  0
ARC
  8
_0-1_
  6
CONTINUOUS
 62
  152
 10
30.565235030853501
 20
82.978808639941235
 40
1.102902967963006
 50
255.7307072235771
 51
284.2692927764229
  0
ARC
  8
_0-1_
  6
CONTINUOUS
 62
  152
 10
30.677166235395589
 20
82.459311159345589
 40
0.5721789663386138
 50
286.22910367774887
 51
340.8818796859062
  0
ARC
  8
_0-1_
  6
CONTINUOUS
 62
  152
 10
28.909256715847505
 20
82.924464831538671
 40
2.3989863444973807
 50
344.21600247589294
 51
352.22375855280194
  0
ARC
  8
_0-1_
  6
CONTINUOUS
 62
  152
 10
30.565235030853501
 20
82.391813687135027
 40
0.1658629864205163
 50
198.7809348325886
 51
341.21906516741143
  0
ARC
  8
_0-1_
  6
CONTINUOUS
 62
  152
 10
29.829026437581661
 20
82.583703112425155
 40
0.9263073175532966
 50
344.64474174215434
 51
1.0000756008749376
  0
ARC
  8
_0-1_
  6
CONTINUOUS
 62
  152
 10
31.301443624124886
 20
82.583703112425155
 40
0.9263073175532966
 50
179.28077569259486
 51
195.35525825784566
  0
ARC
  8
_0-1_
  6
CONTINUOUS
 62
  152
 10
30.565235030853501
 20
83.457115975942088
 40
0.1658629864205163
 50
18.780934832588589
 51
161.2190651674114
  0
ARC
  8
_0-1_
  6
CONTINUOUS
 62
  152
 10
31.301443624124886
 20
83.265226550652187
 40
0.9263073175532966
 50
164.64474174215434
 51
180.71922430740514
  0
ARC
  8
_0-1_
  6
CONTINUOUS
 62
  152
 10
29.829026437581661
 20
83.265226550652187
 40
0.9263073175532966
 50
4.3528100028009122
 51
15.355258257845675
  0
ARC
  8
_0-1_
  6
CONTINUOUS
 62
  152
 10
30.677166235395589
 20
83.389618503731754
 40
0.5721789663386138
 50
19.118120314093822
 51
73.770896322251133
  0
ARC
  8
_0-1_
  6
CONTINUOUS
 62
  152
 10
28.909256715847505
 20
82.924464831538671
 40
2.3989863444973807
 50
9.8663227198208787
 51
15.783997524107056
  0
ARC
  8
_0-1_
  6
CONTINUOUS
 62
  152
 10
30.565235030853501
 20
82.870121023136107
 40
1.102902967963006
 50
75.730707223577113
 51
104.2692927764229
  0
ARC
  8
_0-1_
  6
CONTINUOUS
 62
  152
 10
30.453303826311412
 20
83.389618503731754
 40
0.5721789663386138
 50
106.22910367774887
 51
160.88187968590617
  0
ARC
  8
_0-1_
  6
CONTINUOUS
 62
  152
 10
34.010505645888998
 20
82.924464831538671
 40
2.3989863444973807
 50
164.21600247589294
 51
195.78399752410706
  0
ARC
  8
_0-1_
  6
CONTINUOUS
 62
  152
 10
38.247676243855722
 20
82.924464831534351
 40
6.0927389498109967
 50
176.78919008197266
 51
183.21080991802734
  0
ARC
  8
_0-1_
  6
CONTINUOUS
 62
  152
 10
26.461378417909827
 20
82.924464831534351
 40
6.0927389498109967
 50
356.78919008197266
 51
3.2108099180273357
  0
ARC
  8
_0-1_
  6
CONTINUOUS
 62
  152
 10
32.354527330883002
 20
82.391813687135027
 40
0.1658629864205163
 50
198.7809348325886
 51
341.21906516741143
  0
ARC
  8
_0-1_
  6
CONTINUOUS
 62
  152
 10
32.354527330883002
 20
82.978808639941235
 40
1.102902967963006
 50
255.7307072235771
 51
284.2692927764229
  0
ARC
  8
_0-1_
  6
CONTINUOUS
 62
  152
 10
32.466458535424636
 20
82.459311159345589
 40
0.5721789663386138
 50
286.22910367774887
 51
340.8818796859062
  0
ARC
  8
_0-1_
  6
CONTINUOUS
 62
  152
 10
32.242596126340914
 20
82.459311159345589
 40
0.5721789663386138
 50
199.11812031409383
 51
253.77089632225113
  0
ARC
  8
_0-1_
  6
CONTINUOUS
 62
  152
 10
30.698549015876551
 20
82.924464831538671
 40
2.3989863444973807
 50
344.21600247589294
 51
15.783997524107056
  0
ARC
  8
_0-1_
  6
CONTINUOUS
 62
  152
 10
31.618318737611617
 20
82.583703112425155
 40
0.9263073175532966
 50
344.64474174215434
 51
0.7192243074051302
  0
ARC
  8
_0-1_
  6
CONTINUOUS
 62
  152
 10
33.090735924154387
 20
82.583703112425155
 40
0.9263073175532966
 50
179.28077569259486
 51
195.35525825784566
  0
ARC
  8
_0-1_
  6
CONTINUOUS
 62
  152
 10
33.090735924154387
 20
83.265226550652187
 40
0.9263073175532966
 50
164.64474174215434
 51
180.71922430740514
  0
ARC
  8
_0-1_
  6
CONTINUOUS
 62
  152
 10
32.354527330883002
 20
83.457115975942088
 40
0.1658629864205163
 50
18.780934832588589
 51
161.2190651674114
  0
ARC
  8
_0-1_
  6
CONTINUOUS
 62
  152
 10
31.618318737611617
 20
83.265226550652187
 40
0.9263073175532966
 50
359.28077569259489
 51
15.355258257845675
  0
ARC
  8
_0-1_
  6
CONTINUOUS
 62
  152
 10
32.354527330883002
 20
82.870121023136107
 40
1.102902967963006
 50
75.730707223577113
 51
104.2692927764229
  0
ARC
  8
_0-1_
  6
CONTINUOUS
 62
  152
 10
32.242596126340914
 20
83.389618503731754
 40
0.5721789663386138
 50
106.22910367774887
 51
160.88187968590617
  0
ARC
  8
_0-1_
  6
CONTINUOUS
 62
  152
 10
32.466458535424636
 20
83.389618503731754
 40
0.5721789663386138
 50
19.118120314093822
 51
73.770896322251133
  0
ARC
  8
_0-1_
  6
CONTINUOUS
 62
  152
 10
11.96269385039318
 20
80.694072967193279
 40
0.3
 50
180
 51
270
  0
ARC
  8
_0-1_
  6
CONTINUOUS
 62
  152
 10
34.362693850393271
 20
80.694072967193279
 40
0.3
 50
270
 51
0
  0
ARC
  8
_0-0_
  6
CONTINUOUS
 62
    7
 10
25.96269385039318
 20
84.094072967193142
 40
0.3
 50
90
 51
180
  0
ARC
  8
_0-0_
  6
CONTINUOUS
 62
    7
 10
34.662693850392998
 20
80.394072967193324
 40
1
 50
270
 51
0
  0
ARC
  8
_0-0_
  6
CONTINUOUS
 62
    7
 10
11.662693850392998
 20
80.394072967193324
 40
1
 50
180
 51
270
  0
CIRCLE
  8
_0-0_
  6
CONTINUOUS
 62
    7
 10
23.162693850392998
 20
91.894072967193324
 40
3.5499999999999994
  0
ARC
  8
_0-0_
  6
CONTINUOUS
 62
    7
 10
25.96269385039318
 20
81.694072967193279
 40
0.3
 50
180
 51
270
  0
ARC
  8
_0-0_
  6
CONTINUOUS
 62
    7
 10
33.362693850393271
 20
84.094072967193142
 40
0.3
 50
0
 51
90
  0
ARC
  8
_0-0_
  6
CONTINUOUS
 62
    7
 10
33.362693850393271
 20
81.694072967193279
 40
0.3
 50
270
 51
0
  0
ARC
  8
_0-1_
  6
CONTINUOUS
 62
  152
 10
11.96269385039318
 20
98.094072967193142
 40
0.3
 50
90
 51
180
  0
ARC
  8
_0-1_
  6
CONTINUOUS
 62
  152
 10
34.362693850393271
 20
98.094072967193142
 40
0.3
 50
0
 51
90.000000000000014
  0
ARC
  8
_0-0_
  6
CONTINUOUS
 62
    7
 10
11.662693850392998
 20
98.394072967193324
 40
1
 50
90
 51
180
  0
ARC
  8
_0-0_
  6
CONTINUOUS
 62
    7
 10
34.662693850392998
 20
98.394072967193324
 40
1
 50
0
 51
90.000000000000014
  0
LINE
  8
_0-0_
  6
CONTINUOUS
 62
    7
 10
34.662693850392998
 20
1.2923438241386975
 11
11.662693850392998
 21
1.2923438241386975
  0
LINE
  8
_0-0_
  6
CONTINUOUS
 62
    7
 10
10.662693850392998
 20
2.2923438241386975
 11
10.662693850392998
 21
20.292343824138698
  0
LINE
  8
_0-0_
  6
CONTINUOUS
 62
    7
 10
12.062693850392861
 20
19.892343824138663
 11
34.262693850392907
 21
19.892343824138663
  0
LINE
  8
_0-0_
  6
CONTINUOUS
 62
    7
 10
34.262693850392907
 20
19.892343824138663
 11
34.262693850392907
 21
2.6923438241386748
  0
LINE
  8
_0-0_
  6
CONTINUOUS
 62
    7
 10
34.262693850392907
 20
2.6923438241386748
 11
12.062693850392861
 21
2.6923438241386748
  0
LINE
  8
_0-0_
  6
CONTINUOUS
 62
    7
 10
12.062693850392861
 20
2.6923438241386748
 11
12.062693850392861
 21
19.892343824138663
  0
LINE
  8
_0-0_
  6
CONTINUOUS
 62
    7
 10
11.662693850392998
 20
21.292343824138698
 11
34.662693850392998
 21
21.292343824138698
  0
LINE
  8
_0-0_
  6
CONTINUOUS
 62
    7
 10
35.662693850392998
 20
20.292343824138698
 11
35.662693850392998
 21
2.2923438241386975
  0
LINE
  8
_0-1_
  6
CENTER1
 62
  152
 10
35.662693850392998
 20
8.7923438241384702
 11
10.662693850392998
 21
8.7923438241384702
  0
LINE
  8
_0-0_
  6
CONTINUOUS
 62
    7
 10
18.262693850392907
 20
11.792343824138698
 11
18.262693850392907
 21
5.7923438241386975
  0
LINE
  8
_0-0_
  6
CONTINUOUS
 62
    7
 10
18.562693850393089
 20
5.492343824138743
 11
27.762693850393362
 21
5.492343824138743
  0
LINE
  8
_0-0_
  6
CONTINUOUS
 62
    7
 10
28.062693850393089
 20
5.7923438241386975
 11
28.062693850393089
 21
11.792343824138698
  0
LINE
  8
_0-0_
  6
CONTINUOUS
 62
    7
 10
27.762693850393362
 20
12.092343824138652
 11
18.562693850393089
 21
12.092343824138652
  0
LINE
  8
_0-0_
  6
CONTINUOUS
 62
    7
 10
19.662693850392998
 20
11.792343824138698
 11
19.662693850392998
 21
5.7923438241386975
  0
LINE
  8
_0-0_
  6
CONTINUOUS
 62
    7
 10
19.96269385039318
 20
8.1923438241385611
 11
26.362693850392816
 21
8.1923438241385611
  0
LINE
  8
_0-0_
  6
CONTINUOUS
 62
    7
 10
26.362693850392816
 20
9.3923438241386066
 11
19.96269385039318
 21
9.3923438241386066
  0
LINE
  8
_0-0_
  6
CONTINUOUS
 62
    7
 10
26.662693850392998
 20
11.792343824138698
 11
26.662693850392998
 21
5.7923438241386975
  0
LINE
  8
_0-1_
  6
CENTER1
 62
  152
 10
23.162693850392998
 20
1.2923438241386975
 11
23.162693850392998
 21
21.292343824138698
  0
ARC
  8
_0-0_
  6
CONTINUOUS
 62
    7
 10
11.662693850392998
 20
20.292343824138698
 40
1
 50
90
 51
180
  0
ARC
  8
_0-0_
  6
CONTINUOUS
 62
    7
 10
34.662693850392998
 20
20.292343824138698
 40
1
 50
0
 51
90.000000000000014
  0
ARC
  8
_0-0_
  6
CONTINUOUS
 62
    7
 10
18.562693850393089
 20
11.792343824138698
 40
0.3
 50
90
 51
180
  0
ARC
  8
_0-0_
  6
CONTINUOUS
 62
    7
 10
18.562693850393089
 20
5.7923438241386975
 40
0.3
 50
180
 51
270
  0
ARC
  8
_0-0_
  6
CONTINUOUS
 62
    7
 10
27.762693850393362
 20
11.792343824138698
 40
0.3
 50
0
 51
90.000000000000014
  0
ARC
  8
_0-0_
  6
CONTINUOUS
 62
    7
 10
27.762693850393362
 20
5.7923438241386975
 40
0.3
 50
270
 51
0
  0
ARC
  8
_0-0_
  6
CONTINUOUS
 62
    7
 10
19.96269385039318
 20
11.792343824138698
 40
0.3
 50
90
 51
180
  0
ARC
  8
_0-0_
  6
CONTINUOUS
 62
    7
 10
19.96269385039318
 20
5.7923438241386975
 40
0.3
 50
180
 51
270
  0
ARC
  8
_0-0_
  6
CONTINUOUS
 62
    7
 10
26.362693850392816
 20
5.7923438241386975
 40
0.3
 50
270
 51
0
  0
ARC
  8
_0-0_
  6
CONTINUOUS
 62
    7
 10
26.362693850392816
 20
11.792343824138698
 40
0.3
 50
0
 51
90.000000000000014
  0
ARC
  8
_0-0_
  6
CONTINUOUS
 62
    7
 10
19.96269385039318
 20
9.6923438241385611
 40
0.3
 50
180
 51
270
  0
ARC
  8
_0-0_
  6
CONTINUOUS
 62
    7
 10
26.362693850392816
 20
9.6923438241385611
 40
0.3
 50
270
 51
0
  0
ARC
  8
_0-0_
  6
CONTINUOUS
 62
    7
 10
19.96269385039318
 20
7.8923438241386066
 40
0.3
 50
90
 51
180
  0
ARC
  8
_0-0_
  6
CONTINUOUS
 62
    7
 10
26.362693850392816
 20
7.8923438241386066
 40
0.3
 50
0
 51
90.000000000000014
  0
ARC
  8
_0-0_
  6
CONTINUOUS
 62
    7
 10
23.162693850392998
 20
8.7923438241386975
 40
1.5
 50
156.42182152180428
 51
203.57817847821062
  0
ARC
  8
_0-0_
  6
CONTINUOUS
 62
    7
 10
23.162693850392998
 20
8.7923438241386975
 40
1.5
 50
336.42182152178935
 51
23.578178478195714
  0
ARC
  8
_0-0_
  6
CONTINUOUS
 62
    7
 10
34.662693850392998
 20
2.2923438241386975
 40
1
 50
270
 51
0
  0
ARC
  8
_0-0_
  6
CONTINUOUS
 62
    7
 10
11.662693850392998
 20
2.2923438241386975
 40
1
 50
180
 51
270
  0
LINE
  8
_0-0_
  6
CONTINUOUS
 62
    7
 10
35.662693850392998
 20
53.317428343166853
 11
35.662693850392998
 21
51.317428343166853
  0
LINE
  8
_0-0_
  6
CONTINUOUS
 62
    7
 10
10.662693850392998
 20
51.317428343166853
 11
10.662693850392998
 21
53.317428343166853
  0
LINE
  8
_0-1_
  6
CENTER1
 62
  152
 10
23.162693850392998
 20
54.317428343166853
 11
23.162693850392998
 21
44.317428343166853
  0
LINE
  8
_0-0_
  6
CONTINUOUS
 62
    7
 10
24.977208103905241
 20
44.317428343166853
 11
21.348179596880755
 21
44.317428343166853
  0
LINE
  8
_0-0_
  6
CONTINUOUS
 62
    7
 10
11.662693850392998
 20
54.317428343166853
 11
34.662693850392998
 21
54.317428343166853
  0
LINE
  8
_0-0_
  6
CONTINUOUS
 62
    7
 10
26.662693850392998
 20
49.317428343166853
 11
26.475152406037296
 21
45.738924408802291
  0
LINE
  8
_0-0_
  6
CONTINUOUS
 62
    7
 10
19.8502352947487
 20
45.738924408802291
 11
19.662693850392998
 21
49.317428343166853
  0
LINE
  8
_0-0_
  6
CONTINUOUS
 62
    7
 10
18.562693850393089
 20
49.317428343166853
 11
27.762693850393362
 21
49.317428343166853
  0
ARC
  8
_0-0_
  6
CONTINUOUS
 62
    7
 10
34.662693850392998
 20
53.317428343166853
 40
1
 50
0
 51
90
  0
ARC
  8
_0-0_
  6
CONTINUOUS
 62
    7
 10
11.662693850392998
 20
53.317428343166853
 40
1
 50
90
 51
180
  0
ARC
  8
_0-0_
  6
CONTINUOUS
 62
    7
 10
18.562693850393089
 20
49.61742834316658
 40
0.3
 50
180
 51
270
  0
ARC
  8
_0-0_
  6
CONTINUOUS
 62
    7
 10
27.762693850393362
 20
49.61742834316658
 40
0.3
 50
270
 51
0
  0
ARC
  8
_0-0_
  6
CONTINUOUS
 62
    7
 10
21.348179596880755
 20
45.817428343166853
 40
1.5
 50
183.00000000000017
 51
270
  0
ARC
  8
_0-0_
  6
CONTINUOUS
 62
    7
 10
24.977208103905241
 20
45.817428343166853
 40
1.5
 50
270
 51
356.99999999999983
  0
LINE
  8
_0-0_
  6
CONTINUOUS
 62
    7
 10
35.662693850392998
 20
51.317428343166853
 11
10.662693850392998
 21
51.317428343166853
  0
LINE
  8
_0-0_
  6
CONTINUOUS
 62
    7
 10
18.262693850392907
 20
49.61742834316658
 11
18.262693850392907
 21
51.317428343166853
  0
LINE
  8
_0-0_
  6
CONTINUOUS
 62
    7
 10
28.062693850393089
 20
51.317428343166853
 11
28.062693850393089
 21
49.61742834316658
  0
LINE
  8
_0-0_
  6
CONTINUOUS
 62
    7
 10
68.129272138213764
 20
99.394072967193097
 11
68.129272138213764
 21
79.394072967193324
  0
LINE
  8
_0-0_
  6
CONTINUOUS
 62
    7
 10
68.129272138213764
 20
79.394072967193324
 11
66.129272138213764
 21
79.394072967193324
  0
LINE
  8
_0-0_
  6
CONTINUOUS
 62
    7
 10
66.129272138213764
 20
99.394072967193097
 11
68.129272138213764
 21
99.394072967193097
  0
LINE
  8
_0-0_
  6
CONTINUOUS
 62
    7
 10
65.129272138213764
 20
98.394072967193097
 11
65.129272138213764
 21
80.394072967193324
  0
LINE
  8
_0-0_
  6
CONTINUOUS
 62
    7
 10
70.129272138213764
 20
91.294072967193586
 11
74.844972925086722
 21
91.046933561189917
  0
LINE
  8
_0-0_
  6
CONTINUOUS
 62
    7
 10
75.129272138213764
 20
93.040801233622688
 11
75.129272138213764
 21
93.983069504063451
  0
LINE
  8
_0-0_
  6
CONTINUOUS
 62
    7
 10
74.181608094456578
 20
94.981699038817851
 11
70.129272138213764
 21
95.194072967193051
  0
LINE
  8
_0-0_
  6
CONTINUOUS
 62
    7
 10
70.129272138213764
 20
95.194072967193051
 11
68.129272138213764
 21
95.194072967193051
  0
LINE
  8
_0-0_
  6
CONTINUOUS
 62
    7
 10
70.129272138213764
 20
95.194072967193051
 11
70.129272138213764
 21
88.594072967193142
  0
LINE
  8
_0-0_
  6
CONTINUOUS
 62
    7
 10
70.129272138213764
 20
88.594072967193142
 11
74.181608094456806
 21
88.806446895568797
  0
LINE
  8
_0-0_
  6
CONTINUOUS
 62
    7
 10
75.129272138213764
 20
89.805076430323652
 11
75.129272138213764
 21
90.747344700763506
  0
LINE
  8
_0-0_
  6
CONTINUOUS
 62
    7
 10
70.129272138213764
 20
92.494072967193119
 11
74.844972925086722
 21
92.741212373196277
  0
LINE
  8
_0-0_
  6
CONTINUOUS
 62
    7
 10
70.129272138213764
 20
88.594072967193597
 11
68.129272138213764
 21
88.594072967193597
  0
ARC
  8
_0-0_
  6
CONTINUOUS
 62
    7
 10
66.129272138213764
 20
80.394072967193324
 40
1
 50
180
 51
270
  0
ARC
  8
_0-0_
  6
CONTINUOUS
 62
    7
 10
74.129272138213764
 20
93.983069504063451
 40
1
 50
0
 51
87.000000000004874
  0
ARC
  8
_0-0_
  6
CONTINUOUS
 62
    7
 10
74.129272138213764
 20
89.805076430323652
 40
1
 50
273.00000000000159
 51
0.0000000000000254
  0
ARC
  8
_0-0_
  6
CONTINUOUS
 62
    7
 10
74.82927213821381
 20
93.040801233622688
 40
0.3
 50
272.99999999999665
 51
0.0000000000000127
  0
ARC
  8
_0-0_
  6
CONTINUOUS
 62
    7
 10
74.82927213821381
 20
90.747344700763506
 40
0.3
 50
0
 51
86.999999999997954
  0
ARC
  8
_0-0_
  6
CONTINUOUS
 62
    7
 10
66.129272138213764
 20
98.394072967193097
 40
1
 50
90
 51
180
  0
LINE
  8
_0-1_
  6
CENTER1
 62
  152
 10
63.291383546980342
 20
91.894072967193324
 11
77.842856560852852
 21
91.894072967193324
  0
ARC
  8
_0-0_
  6
CONTINUOUS
 62
    7
 10
23.162693850392998
 20
91.894072967193324
 40
2.3026499999999999
 50
257.52580999999998
 51
282.47417999999999
  0
ARC
  8
_0-0_
  6
CONTINUOUS
 62
    7
 10
23.162693850392998
 20
91.894072967193324
 40
2.3026499999999999
 50
167.52571999999995
 51
192.47426999999996
  0
ARC
  8
_0-0_
  6
CONTINUOUS
 62
    7
 10
23.162693850392998
 20
91.894072967193324
 40
2.3026499999999999
 50
77.525817000000018
 51
102.47418000000003
  0
ARC
  8
_0-0_
  6
CONTINUOUS
 62
    7
 10
23.162693850392998
 20
91.894072967193324
 40
2.3026499999999999
 50
347.52571999999998
 51
12.474273000000045
  0
ARC
  8
_0-0_
  6
CONTINUOUS
 62
    7
 10
21.928433850393276
 20
90.659832967193552
 40
0.7368479999999999
 50
0
 51
90
  0
ARC
  8
_0-0_
  6
CONTINUOUS
 62
    7
 10
24.396913850393275
 20
90.659832967193552
 40
0.7368479999999999
 50
90
 51
180
  0
ARC
  8
_0-0_
  6
CONTINUOUS
 62
    7
 10
24.396913850393275
 20
93.12826296719345
 40
0.7368479999999999
 50
180
 51
270
  0
ARC
  8
_0-0_
  6
CONTINUOUS
 62
    7
 10
21.928433850393276
 20
93.12826296719345
 40
0.7368479999999999
 50
270
 51
0
  0
LINE
  8
_0-0_
  6
CONTINUOUS
 62
    7
 10
22.66527385039285
 20
89.645772967193579
 11
22.66527385039285
 21
90.659832967193552
  0
LINE
  8
_0-0_
  6
CONTINUOUS
 62
    7
 10
23.660073850392791
 20
90.659832967193552
 11
23.660073850392791
 21
89.645772967193579
  0
LINE
  8
_0-0_
  6
CONTINUOUS
 62
    7
 10
25.410953850393298
 20
91.396672967193581
 11
24.396913850393275
 21
91.396672967193581
  0
LINE
  8
_0-0_
  6
CONTINUOUS
 62
    7
 10
24.396913850393275
 20
92.391422967193421
 11
25.410953850393298
 21
92.391422967193421
  0
LINE
  8
_0-0_
  6
CONTINUOUS
 62
    7
 10
23.660073850392791
 20
94.142372967193523
 11
23.660073850392791
 21
93.12826296719345
  0
LINE
  8
_0-0_
  6
CONTINUOUS
 62
    7
 10
22.66527385039285
 20
93.12826296719345
 11
22.66527385039285
 21
94.142372967193523
  0
LINE
  8
_0-0_
  6
CONTINUOUS
 62
    7
 10
21.928433850393276
 20
92.391422967193421
 11
20.914353850393354
 21
92.391422967193421
  0
LINE
  8
_0-0_
  6
CONTINUOUS
 62
    7
 10
20.914353850393354
 20
91.396672967193581
 11
21.928433850393276
 21
91.396672967193581
  0
ENDSEC
  0
EOF
