  0
SECTION
  2
HEADER
  9
$ACADVER
  1
AC1009
  9
$INSBASE
 10
0
 20
0
 30
0
  9
$EXTMIN
 10
0
 20
0
  9
$EXTMAX
 10
1189
 20
841
  9
$LIMMIN
 10
0
 20
0
  9
$LIMMAX
 10
1189
 20
841
  9
$LTSCALE
 40
1
  0
ENDSEC
  0
SECTION
  2
TABLES
  0
TABLE
  2
LTYPE
 70
     9
  0
LTYPE
  2
CONTINUOUS
 70
    64
  3
実線
 72
    65
 73
     0
 40
0.0
  0
LTYPE
  2
DASHED1
 70
    64
  3
--  --  --  --  --  --  --  --  
 72
    65
 73
     2
 40
2.5
 49
1.25
 49
-1.25
  0
LTYPE
  2
DASHED2
 70
    64
  3
----    ----    ----    ----    
 72
    65
 73
     2
 40
5.0
 49
2.5
 49
-2.5
  0
LTYPE
  2
DASHED3
 70
    64
  3
------  ------  ------  ------  
 72
    65
 73
     2
 40
5.0
 49
3.75
 49
-1.25
  0
LTYPE
  2
CENTER1
 70
    64
  3
----- - ----- - ----- - ----- - 
 72
    65
 73
     4
 40
10.0
 49
6.25
 49
-1.25
 49
1.25
 49
-1.25
  0
LTYPE
  2
CENTER2
 70
    64
  3
----------  --  ----------  --  
 72
    65
 73
     4
 40
20.0
 49
12.5
 49
-2.5
 49
2.5
 49
-2.5
  0
LTYPE
  2
PHANTOM1
 70
    64
  3
--- - - --- - - --- - - --- - - 
 72
    65
 73
     6
 40
10.0
 49
3.25
 49
-1.25
 49
1.25
 49
-1.25
 49
1.25
 49
-1.25
  0
LTYPE
  2
PHANTOM2
 70
    64
  3
--------  -  -  --------  -  -  
 72
    65
 73
     6
 40
20.0
 49
10.0
 49
-2.5
 49
1.25
 49
-2.5
 49
1.25
 49
-2.5
  0
LTYPE
  2
DOT
 70
    64
  3
-   -   -   -   -   -   -   -   
 72
    65
 73
     2
 40
2.5
 49
0.625
 49
-1.875
  0
LTYPE
  2
DUMMY
 70
    64
  3
ダミー
 72
    65
 73
     0
 40
0.0
  0
LTYPE
  2
RAND1
 70
    64
  3
ランダム線1
 72
    65
 73
     4
 40
10.0
 49
1.0
 49
-2.0
 49
3.0
 49
-4.0
  0
LTYPE
  2
RAND2
 70
    64
  3
ランダム線2
 72
    65
 73
     4
 40
14.0
 49
2.0
 49
-3.0
 49
4.0
 49
-5.0
  0
LTYPE
  2
RAND3
 70
    64
  3
ランダム線3
 72
    65
 73
     4
 40
18.0
 49
3.0
 49
-4.0
 49
5.0
 49
-6.0
  0
LTYPE
  2
RAND4
 70
    64
  3
ランダム線4
 72
    65
 73
     4
 40
22.0
 49
4.0
 49
-5.0
 49
6.0
 49
-7.0
  0
LTYPE
  2
RAND5
 70
    64
  3
ランダム線5
 72
    65
 73
     4
 40
26.0
 49
5.0
 49
-6.0
 49
7.0
 49
-8.0
  0
LTYPE
  2
LONG1
 70
    64
  3
----------  --  ----------  --  
 72
    65
 73
     4
 40
40.0
 49
32.5
 49
-2.5
 49
2.5
 49
-2.5
  0
LTYPE
  2
LONG2
 70
    64
  3
--------  -  -  --------  -  -  
 72
    65
 73
     6
 40
40.0
 49
30.0
 49
-2.5
 49
1.25
 49
-2.5
 49
1.25
 49
-2.5
  0
LTYPE
  2
LONG3
 70
    64
  3
+++++++++++++++..+++++++++++++++
 72
    65
 73
     2
 40
40.0
 49
37.5
 49
-2.5
  0
LTYPE
  2
LONG4
 70
    64
  3
+++++++++++++++..+++++++++++++++
 72
    65
 73
     2
 40
80.0
 49
75.0
 49
-5.0
  0
LTYPE
  2
LONG5
 70
    64
  3
----------  --  ----------  --  
 72
    65
 73
     4
 40
60.0
 49
37.5
 49
-7.5
 49
7.5
 49
-7.5
  0
LTYPE
  2
dashed
 70
   64
  3
-------   -------------   ------
 72
   65
 73
    2
 40
7.5
 49
6
 49
-1.5
  0
LTYPE
  2
dashed_spaced
 70
   64
  3
----        --------        ----
 72
   65
 73
    2
 40
12
 49
6
 49
-6
  0
LTYPE
  2
long_dashed_dotted
 70
   64
  3
------------- --- --------------
 72
   65
 73
    4
 40
15.25
 49
12
 49
-1.5
 49
0.25
 49
-1.5
  0
LTYPE
  2
long_dashed_double-dotted
 70
   64
  3
----------- --- --- ------------
 72
   65
 73
    6
 40
17
 49
12
 49
-1.5
 49
0.25
 49
-1.5
 49
0.25
 49
-1.5
  0
LTYPE
  2
long_dashed_triplicate-dotted
 70
   64
  3
--------- --- --- --- ----------
 72
   65
 73
    8
 40
18.75
 49
12
 49
-1.5
 49
0.25
 49
-1.5
 49
0.25
 49
-1.5
 49
0.25
 49
-1.5
  0
LTYPE
  2
dotted
 70
   64
  3
   -       -       -       -    
 72
   65
 73
    2
 40
1.75
 49
0.25
 49
-1.5
  0
LTYPE
  2
chain
 70
   64
  3
-------------- -- --------------
 72
   65
 73
    4
 40
18.5
 49
12
 49
-1.5
 49
3.5
 49
-1.5
  0
LTYPE
  2
chain_double_dash
 70
   64
  3
------------ -- -- -------------
 72
   65
 73
    6
 40
23.5
 49
12
 49
-1.5
 49
3.5
 49
-1.5
 49
3.5
 49
-1.5
  0
LTYPE
  2
dashed_dotted
 70
   64
  3
-----------     -     ----------
 72
   65
 73
    4
 40
9.25
 49
6
 49
-1.5
 49
0.25
 49
-1.5
  0
LTYPE
  2
double-dashed_dotted
 70
   64
  3
------   -----------   -   -----
 72
   65
 73
    6
 40
16.75
 49
6
 49
-1.5
 49
6
 49
-1.5
 49
0.25
 49
-1.5
  0
LTYPE
  2
dashed_double-dotted
 70
   64
  3
---------    -    -    ---------
 72
   65
 73
    6
 40
11
 49
6
 49
-1.5
 49
0.25
 49
-1.5
 49
0.25
 49
-1.5
  0
LTYPE
  2
double-dashed_double-dotted
 70
   64
  3
-----   ---------   -   -   ----
 72
   65
 73
    8
 40
18.5
 49
6
 49
-1.5
 49
6
 49
-1.5
 49
0.25
 49
-1.5
 49
0.25
 49
-1.5
  0
LTYPE
  2
dashed_triplicate-dotted
 70
   64
  3
-------    -    -    -    ------
 72
   65
 73
    8
 40
12.75
 49
6
 49
-1.5
 49
0.25
 49
-1.5
 49
0.25
 49
-1.5
 49
0.25
 49
-1.5
  0
LTYPE
  2
double-dashed_triplicate-dotted
 70
   64
  3
-----  ---------  -  -  -  -----
 72
   65
 73
   10
 40
20.25
 49
6
 49
-1.5
 49
6
 49
-1.5
 49
0.25
 49
-1.5
 49
0.25
 49
-1.5
 49
0.25
 49
-1.5
  0
LTYPE
  2
undefined
 70
   64
  3
--------------------------------
 72
   65
 73
    0
 40
0
  0
ENDTAB
  0
TABLE
  2
STYLE
  5
3
100
AcDbSymbolTable
 70
     1
  0
STYLE
  5
10
100
AcDbSymbolTableRecord
100
AcDbTextStyleTableRecord
  2
STANDARD
 70
     0
 40
0.0
 41
1.0
 50
0.0
 71
     0
 42
0.2
  3
txt
  4
bigfont.shx
  0
STYLE
  5
26
100
AcDbSymbolTableRecord
100
AcDbTextStyleTableRecord
  2
TATEGAKI
 70
    68
 40
0.0
 41
1.0
 50
0.0
 71
     0
 42
1.0
  3
txt
  4
bigfont.shx
  0
ENDTAB
  0
TABLE
  2
LAYER
 70
    4
  0
LAYER
  2
_0-0_
 70
   64
 62
    7
  6
CONTINUOUS
  0
LAYER
  2
_0-1_
 70
   64
 62
    7
  6
CONTINUOUS
  0
LAYER
  2
_0-f_
 70
   64
 62
    7
  6
CONTINUOUS
  0
LAYER
  2
ADD_LINE
 70
   64
 62
    7
  6
CONTINUOUS
  0
ENDTAB
  0
ENDSEC
  0
SECTION
  2
BLOCKS
  0
ENDSEC
  0
SECTION
  2
ENTITIES
  0
LINE
  8
_0-1_
  6
CENTER1
 62
  152
 10
810.67462746141564
 20
526.72851250665246
 11
810.67462746141564
 21
525.4629457158062
  0
LINE
  8
_0-1_
  6
CENTER1
 62
  152
 10
810.67462746141564
 20
525.4629457158062
 11
810.67462746141564
 21
526.72851250665246
  0
TEXT
  8
_0-f_
 62
    7
 10
1.8225480086928201
 20
1.7530247201036673
 40
4.2999999999999998
 41
0.744186046511628
 50
0
  1
E154 E154S
  0
LINE
  8
_0-0_
  6
CONTINUOUS
 62
    7
 10
32.680843745837592
 20
53.142189762550402
 11
32.171743745837375
 21
53.142189762550402
  0
LINE
  8
_0-0_
  6
CONTINUOUS
 62
    7
 10
32.171743745837375
 20
53.142189762550402
 11
32.171743745837375
 21
51.100629762550739
  0
LINE
  8
_0-0_
  6
CONTINUOUS
 62
    7
 10
32.171743745837375
 20
51.100629762550739
 11
33.601083745837059
 21
51.100629762550739
  0
LINE
  8
_0-0_
  6
CONTINUOUS
 62
    7
 10
33.601083745837059
 20
51.100629762550739
 11
33.601083745837059
 21
51.46457976255067
  0
LINE
  8
_0-0_
  6
CONTINUOUS
 62
    7
 10
33.601083745837059
 20
51.46457976255067
 11
32.680843745837592
 21
51.46457976255067
  0
LINE
  8
_0-0_
  6
CONTINUOUS
 62
    7
 10
32.680843745837592
 20
51.46457976255067
 11
32.680843745837592
 21
53.142189762550402
  0
LINE
  8
_0-0_
  6
CONTINUOUS
 62
    7
 10
31.937073745837552
 20
53.591019762550673
 11
39.337073745837188
 21
53.591019762550673
  0
LINE
  8
_0-0_
  6
CONTINUOUS
 62
    7
 10
39.63707374583737
 20
53.291019762550491
 11
39.63707374583737
 21
50.8910197625504
  0
LINE
  8
_0-0_
  6
CONTINUOUS
 62
    7
 10
39.337073745837188
 20
50.591019762550673
 11
31.937073745837552
 21
50.591019762550673
  0
LINE
  8
_0-0_
  6
CONTINUOUS
 62
    7
 10
31.637073745836915
 20
50.8910197625504
 11
31.637073745836915
 21
53.291019762550491
  0
LINE
  8
_0-0_
  6
CONTINUOUS
 62
    7
 10
33.993883745837593
 20
53.142189762550402
 11
35.423593745837024
 21
53.142189762550402
  0
LINE
  8
_0-0_
  6
CONTINUOUS
 62
    7
 10
35.423593745837024
 20
53.142189762550402
 11
35.423593745837024
 21
52.778229762550723
  0
LINE
  8
_0-0_
  6
CONTINUOUS
 62
    7
 10
35.423593745837024
 20
52.778229762550723
 11
34.501183745836897
 21
52.778229762550723
  0
LINE
  8
_0-0_
  6
CONTINUOUS
 62
    7
 10
34.501183745836897
 20
52.778229762550723
 11
34.501183745836897
 21
52.304789762550513
  0
LINE
  8
_0-0_
  6
CONTINUOUS
 62
    7
 10
34.501183745836897
 20
52.304789762550513
 11
35.335633745837185
 21
52.304789762550513
  0
LINE
  8
_0-0_
  6
CONTINUOUS
 62
    7
 10
35.335633745837185
 20
52.304789762550513
 11
35.335633745837185
 21
51.963129762550466
  0
LINE
  8
_0-0_
  6
CONTINUOUS
 62
    7
 10
35.335633745837185
 20
51.963129762550466
 11
34.501183745836897
 21
51.963129762550466
  0
LINE
  8
_0-0_
  6
CONTINUOUS
 62
    7
 10
34.501183745836897
 20
51.963129762550466
 11
34.501183745836897
 21
51.46457976255067
  0
LINE
  8
_0-0_
  6
CONTINUOUS
 62
    7
 10
34.501183745836897
 20
51.46457976255067
 11
35.423593745837024
 21
51.46457976255067
  0
LINE
  8
_0-0_
  6
CONTINUOUS
 62
    7
 10
35.423593745837024
 20
51.46457976255067
 11
35.423593745837024
 21
51.100629762550739
  0
LINE
  8
_0-0_
  6
CONTINUOUS
 62
    7
 10
35.423593745837024
 20
51.100629762550739
 11
33.993883745837593
 21
51.100629762550739
  0
LINE
  8
_0-0_
  6
CONTINUOUS
 62
    7
 10
33.993883745837593
 20
51.100629762550739
 11
33.993883745837593
 21
53.142189762550402
  0
LINE
  8
_0-0_
  6
CONTINUOUS
 62
    7
 10
36.727033745836707
 20
52.532469762550477
 11
37.247143745837093
 21
52.532469762550477
  0
LINE
  8
_0-0_
  6
CONTINUOUS
 62
    7
 10
37.260553745837115
 20
51.796809762550652
 11
36.729573745837115
 21
51.796809762550652
  0
LINE
  8
_0-0_
  6
CONTINUOUS
 62
    7
 10
40.237073745836824
 20
63.991019762550764
 11
2.2370737458372787
 21
63.991019762550764
  0
LINE
  8
_0-0_
  6
CONTINUOUS
 62
    7
 10
1.2370737458368239
 20
62.991019762550764
 11
1.2370737458368239
 21
49.991019762550764
  0
LINE
  8
_0-0_
  6
CONTINUOUS
 62
    7
 10
2.2370737458372787
 20
48.991019762550764
 11
40.237073745836824
 21
48.991019762550764
  0
LINE
  8
_0-0_
  6
CONTINUOUS
 62
    7
 10
41.237073745836824
 20
49.991019762550764
 11
41.237073745836824
 21
62.991019762550764
  0
LINE
  8
_0-0_
  6
CONTINUOUS
 62
    7
 10
29.234463745837274
 20
58.73932976255071
 11
29.234463745837274
 21
57.725219762550637
  0
LINE
  8
_0-0_
  6
CONTINUOUS
 62
    7
 10
28.239663745836879
 20
57.725219762550637
 11
28.239663745836879
 21
58.73932976255071
  0
LINE
  8
_0-0_
  6
CONTINUOUS
 62
    7
 10
27.502823745836849
 20
56.988379762550608
 11
26.488743745836928
 21
56.988379762550608
  0
LINE
  8
_0-0_
  6
CONTINUOUS
 62
    7
 10
26.488743745836928
 20
55.993629762550768
 11
27.502823745836849
 21
55.993629762550768
  0
LINE
  8
_0-0_
  6
CONTINUOUS
 62
    7
 10
28.239663745836879
 20
55.256789762550738
 11
28.239663745836879
 21
54.242729762550766
  0
LINE
  8
_0-0_
  6
CONTINUOUS
 62
    7
 10
29.234463745837274
 20
54.242729762550766
 11
29.234463745837274
 21
55.256789762550738
  0
LINE
  8
_0-0_
  6
CONTINUOUS
 62
    7
 10
29.971303745836849
 20
55.993629762550768
 11
30.985343745836872
 21
55.993629762550768
  0
LINE
  8
_0-0_
  6
CONTINUOUS
 62
    7
 10
30.985343745836872
 20
56.988379762550608
 11
29.971303745836849
 21
56.988379762550608
  0
LINE
  8
_0-0_
  6
CONTINUOUS
 62
    7
 10
15.985343745836872
 20
56.988379762550608
 11
14.971303745836849
 21
56.988379762550608
  0
LINE
  8
_0-0_
  6
CONTINUOUS
 62
    7
 10
14.971303745836849
 20
55.993629762550768
 11
15.985343745836872
 21
55.993629762550768
  0
LINE
  8
_0-0_
  6
CONTINUOUS
 62
    7
 10
14.234463745837274
 20
55.256789762550738
 11
14.234463745837274
 21
54.242729762550766
  0
LINE
  8
_0-0_
  6
CONTINUOUS
 62
    7
 10
13.239663745836879
 20
54.242729762550766
 11
13.239663745836879
 21
55.256789762550738
  0
LINE
  8
_0-0_
  6
CONTINUOUS
 62
    7
 10
12.502823745836849
 20
55.993629762550768
 11
11.488743745836928
 21
55.993629762550768
  0
LINE
  8
_0-0_
  6
CONTINUOUS
 62
    7
 10
11.488743745836928
 20
56.988379762550608
 11
12.502823745836849
 21
56.988379762550608
  0
LINE
  8
_0-0_
  6
CONTINUOUS
 62
    7
 10
13.239663745836879
 20
57.725219762550637
 11
13.239663745836879
 21
58.73932976255071
  0
LINE
  8
_0-0_
  6
CONTINUOUS
 62
    7
 10
14.234463745837274
 20
58.73932976255071
 11
14.234463745837274
 21
57.725219762550637
  0
LINE
  8
_0-0_
  6
CONTINUOUS
 62
    7
 10
72.198701097571302
 20
62.991019762550764
 11
72.198701097571302
 21
49.991019762550764
  0
LINE
  8
_0-0_
  6
CONTINUOUS
 62
    7
 10
73.198701097570847
 20
48.991019762550764
 11
75.198701097571302
 21
48.991019762550764
  0
LINE
  8
_0-0_
  6
CONTINUOUS
 62
    7
 10
75.198701097571302
 20
63.991019762550764
 11
73.198701097570847
 21
63.991019762550764
  0
LINE
  8
_0-0_
  6
CONTINUOUS
 62
    7
 10
1.2370737458368239
 20
18.270126953722468
 11
1.2370737458368239
 21
16.270126953722468
  0
LINE
  8
_0-0_
  6
CONTINUOUS
 62
    7
 10
25.237073745836824
 20
14.270126953722468
 11
25.424615190192526
 21
10.691623019358133
  0
LINE
  8
_0-0_
  6
CONTINUOUS
 62
    7
 10
32.237073745836824
 20
14.270126953722468
 11
32.049532301481122
 21
10.691623019358133
  0
LINE
  8
_0-0_
  6
CONTINUOUS
 62
    7
 10
33.337073745836733
 20
14.270126953722468
 11
9.1370737458366875
 21
14.270126953722468
  0
LINE
  8
_0-0_
  6
CONTINUOUS
 62
    7
 10
8.837073745836733
 20
14.570126953722422
 11
8.837073745836733
 21
16.270126953722468
  0
LINE
  8
_0-0_
  6
CONTINUOUS
 62
    7
 10
41.237073745836824
 20
18.270126953722468
 11
41.237073745836824
 21
16.270126953722468
  0
LINE
  8
_0-0_
  6
CONTINUOUS
 62
    7
 10
40.237073745836824
 20
19.270126953722468
 11
2.2370737458368239
 21
19.270126953722468
  0
LINE
  8
_0-0_
  6
CONTINUOUS
 62
    7
 10
26.922559492324353
 20
9.2701269537224675
 11
30.551587999349067
 21
9.2701269537224675
  0
LINE
  8
_0-0_
  6
CONTINUOUS
 62
    7
 10
17.049532301481122
 20
10.691623019358133
 11
17.237073745836824
 21
14.270126953722468
  0
LINE
  8
_0-0_
  6
CONTINUOUS
 62
    7
 10
15.551587999349294
 20
9.2701269537224675
 11
11.922559492324353
 21
9.2701269537224675
  0
LINE
  8
_0-0_
  6
CONTINUOUS
 62
    7
 10
10.237073745836824
 20
14.270126953722468
 11
10.424615190192526
 21
10.691623019358133
  0
LINE
  8
_0-0_
  6
CONTINUOUS
 62
    7
 10
41.237073745836824
 20
16.270126953722468
 11
1.2370737458368239
 21
16.270126953722468
  0
LINE
  8
_0-0_
  6
CONTINUOUS
 62
    7
 10
33.637073745836688
 20
16.270126953722468
 11
33.637073745836688
 21
14.570126953722422
  0
LINE
  8
_0-1_
  6
CENTER2
 62
  152
 10
13.737083745837026
 20
60.741019762550764
 11
13.737083745837026
 21
52.241029762550511
  0
LINE
  8
_0-1_
  6
CENTER2
 62
  152
 10
9.4871137458371777
 20
56.491029762550511
 11
17.987103745836976
 21
56.491029762550511
  0
LINE
  8
_0-1_
  6
CENTER2
 62
  152
 10
24.487113745837178
 20
56.491029762550511
 11
32.987103745836976
 21
56.491029762550511
  0
LINE
  8
_0-1_
  6
CENTER2
 62
  152
 10
28.737083745837026
 20
52.241029762550511
 11
28.737083745837026
 21
60.741019762550764
  0
LINE
  8
_0-1_
  6
CENTER1
 62
  152
 10
72.198701097571302
 20
56.491019762550764
 11
82.198701097571302
 21
56.491019762550764
  0
LINE
  8
_0-1_
  6
CENTER1
 62
  152
 10
13.737083745836799
 20
20.987792863758784
 11
13.737083745836799
 21
7.773443504696445
  0
LINE
  8
_0-1_
  6
CENTER1
 62
  152
 10
28.737083745836799
 20
20.987792863758784
 11
28.737083745836799
 21
7.773443504696445
  0
ARC
  8
_0-0_
  6
CONTINUOUS
 62
    7
 10
38.195593745836959
 20
52.12140976255057
 40
2.3989862999999998
 50
164.21600000000004
 51
195.78399000000002
  0
ARC
  8
_0-0_
  6
CONTINUOUS
 62
    7
 10
42.432763745837292
 20
52.12140976255057
 40
6.0927388999999996
 50
176.78918999999999
 51
183.21080000000001
  0
ARC
  8
_0-0_
  6
CONTINUOUS
 62
    7
 10
36.42768374583693
 20
51.656249762550374
 40
0.5721789
 50
199.11812000000006
 51
253.77089000000001
  0
ARC
  8
_0-0_
  6
CONTINUOUS
 62
    7
 10
36.539613745837414
 20
52.175749762550709
 40
1.1029028999999999
 50
255.73070000000004
 51
284.26929000000007
  0
ARC
  8
_0-0_
  6
CONTINUOUS
 62
    7
 10
36.651543745837444
 20
51.656249762550374
 40
0.5721789
 50
286.22910000000002
 51
340.88186999999999
  0
ARC
  8
_0-0_
  6
CONTINUOUS
 62
    7
 10
34.88363374583696
 20
52.12140976255057
 40
2.3989862999999998
 50
344.21599999999995
 51
352.22374999999994
  0
ARC
  8
_0-0_
  6
CONTINUOUS
 62
    7
 10
36.539613745837414
 20
51.588759762550467
 40
0.1658629
 50
198.78093000000001
 51
341.21906000000001
  0
ARC
  8
_0-0_
  6
CONTINUOUS
 62
    7
 10
35.803403745837386
 20
51.780649762550524
 40
0.9263072999999999
 50
344.64474000000007
 51
1.0000756000000433
  0
ARC
  8
_0-0_
  6
CONTINUOUS
 62
    7
 10
37.275823745837442
 20
51.780649762550524
 40
0.9263072999999999
 50
179.28076999999999
 51
195.35525000000001
  0
ARC
  8
_0-0_
  6
CONTINUOUS
 62
    7
 10
36.539613745837414
 20
52.654059762550673
 40
0.1658629
 50
18.780933999999998
 51
161.21906000000001
  0
ARC
  8
_0-0_
  6
CONTINUOUS
 62
    7
 10
37.275823745837442
 20
52.462169762550616
 40
0.9263072999999999
 50
164.64474000000004
 51
180.71922000000004
  0
ARC
  8
_0-0_
  6
CONTINUOUS
 62
    7
 10
35.803403745837386
 20
52.462169762550616
 40
0.9263072999999999
 50
4.3528099999999998
 51
15.355258000000001
  0
ARC
  8
_0-0_
  6
CONTINUOUS
 62
    7
 10
36.651543745837444
 20
52.586559762550564
 40
0.5721789
 50
19.118120000000001
 51
73.770895999999979
  0
ARC
  8
_0-0_
  6
CONTINUOUS
 62
    7
 10
34.88363374583696
 20
52.12140976255057
 40
2.3989862999999998
 50
9.8663227000000013
 51
15.783997000000001
  0
ARC
  8
_0-0_
  6
CONTINUOUS
 62
    7
 10
36.539613745837414
 20
52.067059762550684
 40
1.1029028999999999
 50
75.730706999999995
 51
104.26929
  0
ARC
  8
_0-0_
  6
CONTINUOUS
 62
    7
 10
36.42768374583693
 20
52.586559762550564
 40
0.5721789
 50
106.2291
 51
160.88186999999999
  0
ARC
  8
_0-0_
  6
CONTINUOUS
 62
    7
 10
39.984883745837124
 20
52.12140976255057
 40
2.3989862999999998
 50
164.21600000000004
 51
195.78399000000002
  0
ARC
  8
_0-0_
  6
CONTINUOUS
 62
    7
 10
44.222053745837002
 20
52.12140976255057
 40
6.0927388999999996
 50
176.78918999999999
 51
183.21080000000001
  0
ARC
  8
_0-0_
  6
CONTINUOUS
 62
    7
 10
32.435753745837246
 20
52.12140976255057
 40
6.0927388999999996
 50
356.78919000000002
 51
3.2108098999999948
  0
ARC
  8
_0-0_
  6
CONTINUOUS
 62
    7
 10
38.328903745837124
 20
51.588759762550467
 40
0.1658629
 50
198.78093000000001
 51
341.21906000000001
  0
ARC
  8
_0-0_
  6
CONTINUOUS
 62
    7
 10
38.328903745837124
 20
52.175749762550709
 40
1.1029028999999999
 50
255.73070000000004
 51
284.26929000000007
  0
ARC
  8
_0-0_
  6
CONTINUOUS
 62
    7
 10
38.440833745837153
 20
51.656249762550374
 40
0.5721789
 50
286.22910000000002
 51
340.88186999999999
  0
ARC
  8
_0-0_
  6
CONTINUOUS
 62
    7
 10
38.216973745837095
 20
51.656249762550374
 40
0.5721789
 50
199.11812000000006
 51
253.77089000000001
  0
ARC
  8
_0-0_
  6
CONTINUOUS
 62
    7
 10
36.672923745837124
 20
52.12140976255057
 40
2.3989862999999998
 50
344.21599999999995
 51
15.783997000000026
  0
ARC
  8
_0-0_
  6
CONTINUOUS
 62
    7
 10
37.592693745837096
 20
51.780649762550524
 40
0.9263072999999999
 50
344.64474000000007
 51
0.719224299999991
  0
ARC
  8
_0-0_
  6
CONTINUOUS
 62
    7
 10
39.065113745837152
 20
51.780649762550524
 40
0.9263072999999999
 50
179.28076999999999
 51
195.35525000000001
  0
ARC
  8
_0-0_
  6
CONTINUOUS
 62
    7
 10
39.065113745837152
 20
52.462169762550616
 40
0.9263072999999999
 50
164.64474000000004
 51
180.71922000000004
  0
ARC
  8
_0-0_
  6
CONTINUOUS
 62
    7
 10
38.328903745837124
 20
52.654059762550673
 40
0.1658629
 50
18.780933999999998
 51
161.21906000000001
  0
ARC
  8
_0-0_
  6
CONTINUOUS
 62
    7
 10
37.592693745837096
 20
52.462169762550616
 40
0.9263072999999999
 50
359.28076999999996
 51
15.355257999999957
  0
ARC
  8
_0-0_
  6
CONTINUOUS
 62
    7
 10
38.328903745837124
 20
52.067059762550684
 40
1.1029028999999999
 50
75.730706999999995
 51
104.26929
  0
ARC
  8
_0-0_
  6
CONTINUOUS
 62
    7
 10
38.216973745837095
 20
52.586559762550564
 40
0.5721789
 50
106.2291
 51
160.88186999999999
  0
ARC
  8
_0-0_
  6
CONTINUOUS
 62
    7
 10
38.440833745837153
 20
52.586559762550564
 40
0.5721789
 50
19.118120000000001
 51
73.770895999999979
  0
ARC
  8
_0-0_
  6
CONTINUOUS
 62
    7
 10
31.937073745837552
 20
50.8910197625504
 40
0.2999999999999998
 50
180
 51
270
  0
ARC
  8
_0-0_
  6
CONTINUOUS
 62
    7
 10
31.937073745837552
 20
53.291019762550491
 40
0.2999999999999998
 50
90
 51
180
  0
ARC
  8
_0-0_
  6
CONTINUOUS
 62
    7
 10
39.337073745837188
 20
53.291019762550491
 40
0.2999999999999998
 50
0
 51
90
  0
ARC
  8
_0-0_
  6
CONTINUOUS
 62
    7
 10
39.337073745837188
 20
50.8910197625504
 40
0.2999999999999998
 50
270
 51
0
  0
ARC
  8
_0-0_
  6
CONTINUOUS
 62
    7
 10
2.2370737458372787
 20
62.991019762550764
 40
1
 50
90
 51
180
  0
ARC
  8
_0-0_
  6
CONTINUOUS
 62
    7
 10
2.2370737458372787
 20
49.991019762550764
 40
1
 50
180
 51
270
  0
ARC
  8
_0-0_
  6
CONTINUOUS
 62
    7
 10
40.237073745836824
 20
62.991019762550764
 40
1
 50
0
 51
90
  0
ARC
  8
_0-0_
  6
CONTINUOUS
 62
    7
 10
40.237073745836824
 20
49.991019762550764
 40
1
 50
270
 51
0
  0
CIRCLE
  8
_0-0_
  6
CONTINUOUS
 62
    7
 10
13.737073745836824
 20
56.491019762550764
 40
3.5499999999999998
  0
ARC
  8
_0-0_
  6
CONTINUOUS
 62
    7
 10
12.502823745836849
 20
57.725219762550637
 40
0.7368479999999999
 50
270
 51
0
  0
ARC
  8
_0-0_
  6
CONTINUOUS
 62
    7
 10
14.971303745836849
 20
57.725219762550637
 40
0.7368479999999999
 50
180
 51
270
  0
ARC
  8
_0-0_
  6
CONTINUOUS
 62
    7
 10
14.971303745836849
 20
55.256789762550738
 40
0.7368479999999999
 50
90
 51
180
  0
ARC
  8
_0-0_
  6
CONTINUOUS
 62
    7
 10
12.502823745836849
 20
55.256789762550738
 40
0.7368479999999999
 50
0
 51
90
  0
ARC
  8
_0-0_
  6
CONTINUOUS
 62
    7
 10
13.737083745837026
 20
56.491029762550511
 40
2.3026499999999999
 50
347.52571999999998
 51
12.474273000000045
  0
ARC
  8
_0-0_
  6
CONTINUOUS
 62
    7
 10
13.737083745837026
 20
56.491029762550511
 40
2.3026499999999999
 50
77.525817000000018
 51
102.47418000000003
  0
ARC
  8
_0-0_
  6
CONTINUOUS
 62
    7
 10
13.737083745837026
 20
56.491029762550511
 40
2.3026499999999999
 50
167.52571999999995
 51
192.47426999999996
  0
ARC
  8
_0-0_
  6
CONTINUOUS
 62
    7
 10
13.737083745837026
 20
56.491029762550511
 40
2.3026499999999999
 50
257.52580999999998
 51
282.47417999999999
  0
CIRCLE
  8
_0-0_
  6
CONTINUOUS
 62
    7
 10
28.737073745836824
 20
56.491019762550764
 40
3.5499999999999998
  0
ARC
  8
_0-0_
  6
CONTINUOUS
 62
    7
 10
27.502823745836849
 20
57.725219762550637
 40
0.7368479999999999
 50
270
 51
0
  0
ARC
  8
_0-0_
  6
CONTINUOUS
 62
    7
 10
29.971303745836849
 20
57.725219762550637
 40
0.7368479999999999
 50
180
 51
270
  0
ARC
  8
_0-0_
  6
CONTINUOUS
 62
    7
 10
29.971303745836849
 20
55.256789762550738
 40
0.7368479999999999
 50
90
 51
180
  0
ARC
  8
_0-0_
  6
CONTINUOUS
 62
    7
 10
27.502823745836849
 20
55.256789762550738
 40
0.7368479999999999
 50
0
 51
90
  0
ARC
  8
_0-0_
  6
CONTINUOUS
 62
    7
 10
28.737083745837026
 20
56.491029762550511
 40
2.3026499999999999
 50
347.52571999999998
 51
12.474273000000045
  0
ARC
  8
_0-0_
  6
CONTINUOUS
 62
    7
 10
28.737083745837026
 20
56.491029762550511
 40
2.3026499999999999
 50
77.525817000000018
 51
102.47418000000003
  0
ARC
  8
_0-0_
  6
CONTINUOUS
 62
    7
 10
28.737083745837026
 20
56.491029762550511
 40
2.3026499999999999
 50
167.52571999999995
 51
192.47426999999996
  0
ARC
  8
_0-0_
  6
CONTINUOUS
 62
    7
 10
28.737083745837026
 20
56.491029762550511
 40
2.3026499999999999
 50
257.52580999999998
 51
282.47417999999999
  0
LINE
  8
_0-0_
  6
CONTINUOUS
 62
    7
 10
75.198701097571302
 20
48.991019762550764
 11
75.198701097571302
 21
63.991019762550764
  0
LINE
  8
_0-0_
  6
CONTINUOUS
 62
    7
 10
75.198701097571302
 20
59.791019762550491
 11
77.198701097571302
 21
59.791019762550491
  0
LINE
  8
_0-0_
  6
CONTINUOUS
 62
    7
 10
77.198701097571302
 20
59.791019762550491
 11
81.251041097571033
 21
59.578639762550551
  0
LINE
  8
_0-0_
  6
CONTINUOUS
 62
    7
 10
82.198701097571302
 20
58.580009762550503
 11
82.198701097571302
 21
57.637739762550495
  0
LINE
  8
_0-0_
  6
CONTINUOUS
 62
    7
 10
81.914401097571044
 20
57.338149762550415
 11
77.767301097570908
 21
57.120809762550721
  0
LINE
  8
_0-0_
  6
CONTINUOUS
 62
    7
 10
77.767301097570908
 20
55.861219762550604
 11
81.914401097571044
 21
55.643879762550455
  0
LINE
  8
_0-0_
  6
CONTINUOUS
 62
    7
 10
82.198701097571302
 20
55.344289762550375
 11
82.198701097571302
 21
54.402019762550367
  0
LINE
  8
_0-0_
  6
CONTINUOUS
 62
    7
 10
81.251041097571033
 20
53.403389762550773
 11
77.198701097571302
 21
53.191019762550582
  0
LINE
  8
_0-0_
  6
CONTINUOUS
 62
    7
 10
77.198701097571302
 20
53.191019762550582
 11
75.198701097571302
 21
53.191019762550582
  0
LINE
  8
_0-0_
  6
CONTINUOUS
 62
    7
 10
77.198701097571302
 20
53.191019762550582
 11
77.198701097571302
 21
59.791019762550491
  0
ARC
  8
_0-0_
  6
CONTINUOUS
 62
    7
 10
73.198701097570847
 20
49.991019762550764
 40
1
 50
180
 51
270
  0
ARC
  8
_0-0_
  6
CONTINUOUS
 62
    7
 10
73.198701097570847
 20
62.991019762550764
 40
1
 50
90
 51
180
  0
ARC
  8
_0-0_
  6
CONTINUOUS
 62
    7
 10
77.798701097570756
 20
56.460389762550562
 40
0.5999999999999996
 50
180
 51
267
  0
ARC
  8
_0-0_
  6
CONTINUOUS
 62
    7
 10
77.798701097570756
 20
56.521639762550762
 40
0.5999999999999996
 50
92.999999999999986
 51
180
  0
ARC
  8
_0-0_
  6
CONTINUOUS
 62
    7
 10
81.198701097571302
 20
54.402019762550367
 40
1
 50
273
 51
359.99999999999994
  0
ARC
  8
_0-0_
  6
CONTINUOUS
 62
    7
 10
81.198701097571302
 20
58.580009762550503
 40
1
 50
0
 51
87
  0
ARC
  8
_0-0_
  6
CONTINUOUS
 62
    7
 10
81.898701097570665
 20
55.344289762550375
 40
0.2999999999999998
 50
0
 51
87
  0
ARC
  8
_0-0_
  6
CONTINUOUS
 62
    7
 10
81.898701097570665
 20
57.637739762550495
 40
0.2999999999999998
 50
273
 51
359.99999999999994
  0
ARC
  8
_0-0_
  6
CONTINUOUS
 62
    7
 10
26.922559492324353
 20
10.770126953722468
 40
1.5
 50
182.99999999999915
 51
270
  0
ARC
  8
_0-0_
  6
CONTINUOUS
 62
    7
 10
2.2370737458368239
 20
18.270126953722468
 40
1
 50
90
 51
180
  0
ARC
  8
_0-0_
  6
CONTINUOUS
 62
    7
 10
40.237073745836824
 20
18.270126953722468
 40
1
 50
0
 51
90
  0
ARC
  8
_0-0_
  6
CONTINUOUS
 62
    7
 10
33.337073745836733
 20
14.570126953722422
 40
0.2999999999999999
 50
270
 51
0
  0
ARC
  8
_0-0_
  6
CONTINUOUS
 62
    7
 10
9.1370737458366875
 20
14.570126953722422
 40
0.2999999999999999
 50
180
 51
270
  0
ARC
  8
_0-0_
  6
CONTINUOUS
 62
    7
 10
15.551587999349294
 20
10.770126953722468
 40
1.5
 50
270
 51
356.99999999999983
  0
ARC
  8
_0-0_
  6
CONTINUOUS
 62
    7
 10
11.922559492324353
 20
10.770126953722468
 40
1.5
 50
183.0000000000002
 51
270
  0
ARC
  8
_0-0_
  6
CONTINUOUS
 62
    7
 10
30.551587999349067
 20
10.770126953722468
 40
1.5
 50
270
 51
356.99999999999983
  0
ENDSEC
  0
EOF
