  0
SECTION
  2
HEADER
  9
$ACADVER
  1
AC1009
  9
$INSBASE
 10
0
 20
0
 30
0
  9
$EXTMIN
 10
0
 20
0
  9
$EXTMAX
 10
1189
 20
841
  9
$LIMMIN
 10
0
 20
0
  9
$LIMMAX
 10
1189
 20
841
  9
$LTSCALE
 40
1
  0
ENDSEC
  0
SECTION
  2
TABLES
  0
TABLE
  2
LTYPE
 70
     9
  0
LTYPE
  2
CONTINUOUS
 70
    64
  3
実線
 72
    65
 73
     0
 40
0.0
  0
LTYPE
  2
DASHED1
 70
    64
  3
--  --  --  --  --  --  --  --  
 72
    65
 73
     2
 40
2.5
 49
1.25
 49
-1.25
  0
LTYPE
  2
DASHED2
 70
    64
  3
----    ----    ----    ----    
 72
    65
 73
     2
 40
5.0
 49
2.5
 49
-2.5
  0
LTYPE
  2
DASHED3
 70
    64
  3
------  ------  ------  ------  
 72
    65
 73
     2
 40
5.0
 49
3.75
 49
-1.25
  0
LTYPE
  2
CENTER1
 70
    64
  3
----- - ----- - ----- - ----- - 
 72
    65
 73
     4
 40
10.0
 49
6.25
 49
-1.25
 49
1.25
 49
-1.25
  0
LTYPE
  2
CENTER2
 70
    64
  3
----------  --  ----------  --  
 72
    65
 73
     4
 40
20.0
 49
12.5
 49
-2.5
 49
2.5
 49
-2.5
  0
LTYPE
  2
PHANTOM1
 70
    64
  3
--- - - --- - - --- - - --- - - 
 72
    65
 73
     6
 40
10.0
 49
3.25
 49
-1.25
 49
1.25
 49
-1.25
 49
1.25
 49
-1.25
  0
LTYPE
  2
PHANTOM2
 70
    64
  3
--------  -  -  --------  -  -  
 72
    65
 73
     6
 40
20.0
 49
10.0
 49
-2.5
 49
1.25
 49
-2.5
 49
1.25
 49
-2.5
  0
LTYPE
  2
DOT
 70
    64
  3
-   -   -   -   -   -   -   -   
 72
    65
 73
     2
 40
2.5
 49
0.625
 49
-1.875
  0
LTYPE
  2
DUMMY
 70
    64
  3
ダミー
 72
    65
 73
     0
 40
0.0
  0
LTYPE
  2
RAND1
 70
    64
  3
ランダム線1
 72
    65
 73
     4
 40
10.0
 49
1.0
 49
-2.0
 49
3.0
 49
-4.0
  0
LTYPE
  2
RAND2
 70
    64
  3
ランダム線2
 72
    65
 73
     4
 40
14.0
 49
2.0
 49
-3.0
 49
4.0
 49
-5.0
  0
LTYPE
  2
RAND3
 70
    64
  3
ランダム線3
 72
    65
 73
     4
 40
18.0
 49
3.0
 49
-4.0
 49
5.0
 49
-6.0
  0
LTYPE
  2
RAND4
 70
    64
  3
ランダム線4
 72
    65
 73
     4
 40
22.0
 49
4.0
 49
-5.0
 49
6.0
 49
-7.0
  0
LTYPE
  2
RAND5
 70
    64
  3
ランダム線5
 72
    65
 73
     4
 40
26.0
 49
5.0
 49
-6.0
 49
7.0
 49
-8.0
  0
LTYPE
  2
LONG1
 70
    64
  3
----------  --  ----------  --  
 72
    65
 73
     4
 40
40.0
 49
32.5
 49
-2.5
 49
2.5
 49
-2.5
  0
LTYPE
  2
LONG2
 70
    64
  3
--------  -  -  --------  -  -  
 72
    65
 73
     6
 40
40.0
 49
30.0
 49
-2.5
 49
1.25
 49
-2.5
 49
1.25
 49
-2.5
  0
LTYPE
  2
LONG3
 70
    64
  3
+++++++++++++++..+++++++++++++++
 72
    65
 73
     2
 40
40.0
 49
37.5
 49
-2.5
  0
LTYPE
  2
LONG4
 70
    64
  3
+++++++++++++++..+++++++++++++++
 72
    65
 73
     2
 40
80.0
 49
75.0
 49
-5.0
  0
LTYPE
  2
LONG5
 70
    64
  3
----------  --  ----------  --  
 72
    65
 73
     4
 40
60.0
 49
37.5
 49
-7.5
 49
7.5
 49
-7.5
  0
LTYPE
  2
dashed
 70
   64
  3
-------   -------------   ------
 72
   65
 73
    2
 40
7.5
 49
6
 49
-1.5
  0
LTYPE
  2
dashed_spaced
 70
   64
  3
----        --------        ----
 72
   65
 73
    2
 40
12
 49
6
 49
-6
  0
LTYPE
  2
long_dashed_dotted
 70
   64
  3
------------- --- --------------
 72
   65
 73
    4
 40
15.25
 49
12
 49
-1.5
 49
0.25
 49
-1.5
  0
LTYPE
  2
long_dashed_double-dotted
 70
   64
  3
----------- --- --- ------------
 72
   65
 73
    6
 40
17
 49
12
 49
-1.5
 49
0.25
 49
-1.5
 49
0.25
 49
-1.5
  0
LTYPE
  2
long_dashed_triplicate-dotted
 70
   64
  3
--------- --- --- --- ----------
 72
   65
 73
    8
 40
18.75
 49
12
 49
-1.5
 49
0.25
 49
-1.5
 49
0.25
 49
-1.5
 49
0.25
 49
-1.5
  0
LTYPE
  2
dotted
 70
   64
  3
   -       -       -       -    
 72
   65
 73
    2
 40
1.75
 49
0.25
 49
-1.5
  0
LTYPE
  2
chain
 70
   64
  3
-------------- -- --------------
 72
   65
 73
    4
 40
18.5
 49
12
 49
-1.5
 49
3.5
 49
-1.5
  0
LTYPE
  2
chain_double_dash
 70
   64
  3
------------ -- -- -------------
 72
   65
 73
    6
 40
23.5
 49
12
 49
-1.5
 49
3.5
 49
-1.5
 49
3.5
 49
-1.5
  0
LTYPE
  2
dashed_dotted
 70
   64
  3
-----------     -     ----------
 72
   65
 73
    4
 40
9.25
 49
6
 49
-1.5
 49
0.25
 49
-1.5
  0
LTYPE
  2
double-dashed_dotted
 70
   64
  3
------   -----------   -   -----
 72
   65
 73
    6
 40
16.75
 49
6
 49
-1.5
 49
6
 49
-1.5
 49
0.25
 49
-1.5
  0
LTYPE
  2
dashed_double-dotted
 70
   64
  3
---------    -    -    ---------
 72
   65
 73
    6
 40
11
 49
6
 49
-1.5
 49
0.25
 49
-1.5
 49
0.25
 49
-1.5
  0
LTYPE
  2
double-dashed_double-dotted
 70
   64
  3
-----   ---------   -   -   ----
 72
   65
 73
    8
 40
18.5
 49
6
 49
-1.5
 49
6
 49
-1.5
 49
0.25
 49
-1.5
 49
0.25
 49
-1.5
  0
LTYPE
  2
dashed_triplicate-dotted
 70
   64
  3
-------    -    -    -    ------
 72
   65
 73
    8
 40
12.75
 49
6
 49
-1.5
 49
0.25
 49
-1.5
 49
0.25
 49
-1.5
 49
0.25
 49
-1.5
  0
LTYPE
  2
double-dashed_triplicate-dotted
 70
   64
  3
-----  ---------  -  -  -  -----
 72
   65
 73
   10
 40
20.25
 49
6
 49
-1.5
 49
6
 49
-1.5
 49
0.25
 49
-1.5
 49
0.25
 49
-1.5
 49
0.25
 49
-1.5
  0
LTYPE
  2
undefined
 70
   64
  3
--------------------------------
 72
   65
 73
    0
 40
0
  0
ENDTAB
  0
TABLE
  2
STYLE
  5
3
100
AcDbSymbolTable
 70
     1
  0
STYLE
  5
10
100
AcDbSymbolTableRecord
100
AcDbTextStyleTableRecord
  2
STANDARD
 70
     0
 40
0.0
 41
1.0
 50
0.0
 71
     0
 42
0.2
  3
txt
  4
bigfont.shx
  0
STYLE
  5
26
100
AcDbSymbolTableRecord
100
AcDbTextStyleTableRecord
  2
TATEGAKI
 70
    68
 40
0.0
 41
1.0
 50
0.0
 71
     0
 42
1.0
  3
txt
  4
bigfont.shx
  0
ENDTAB
  0
TABLE
  2
LAYER
 70
    4
  0
LAYER
  2
_0-0_
 70
   64
 62
    7
  6
CONTINUOUS
  0
LAYER
  2
_0-1_
 70
   64
 62
    7
  6
CONTINUOUS
  0
LAYER
  2
_0-f_
 70
   64
 62
    7
  6
CONTINUOUS
  0
LAYER
  2
ADD_LINE
 70
   64
 62
    7
  6
CONTINUOUS
  0
ENDTAB
  0
ENDSEC
  0
SECTION
  2
BLOCKS
  0
ENDSEC
  0
SECTION
  2
ENTITIES
  0
TEXT
  8
_0-f_
 62
    7
 10
1.6456762610137048
 20
1.3293381526815438
 40
4.2999999999999998
 41
0.744186046511628
 50
0
  1
E153 E153S
  0
LINE
  8
_0-0_
  6
CONTINUOUS
 62
    7
 10
26.890459862150578
 20
43.583638217064731
 11
26.370359216013526
 21
43.583638217064731
  0
LINE
  8
_0-0_
  6
CONTINUOUS
 62
    7
 10
26.372889953089611
 20
42.847977597024624
 11
26.903879358551762
 21
42.847977597024624
  0
LINE
  8
_0-0_
  6
CONTINUOUS
 62
    7
 10
24.978956148403881
 20
43.014299094914463
 11
24.144502473426087
 21
43.014299094914463
  0
LINE
  8
_0-0_
  6
CONTINUOUS
 62
    7
 10
24.144502473426087
 20
43.014299094914463
 11
24.144502473426087
 21
42.515749117764585
  0
LINE
  8
_0-0_
  6
CONTINUOUS
 62
    7
 10
24.144502473426087
 20
42.515749117764585
 11
25.066917179530606
 21
42.515749117764585
  0
LINE
  8
_0-0_
  6
CONTINUOUS
 62
    7
 10
25.066917179530606
 20
42.515749117764585
 11
25.066917179530606
 21
42.15179118098456
  0
LINE
  8
_0-0_
  6
CONTINUOUS
 62
    7
 10
25.066917179530606
 20
42.15179118098456
 11
23.637202387986122
 21
42.15179118098456
  0
LINE
  8
_0-0_
  6
CONTINUOUS
 62
    7
 10
23.637202387986122
 20
42.15179118098456
 11
23.637202387986122
 21
44.193352423584543
  0
LINE
  8
_0-0_
  6
CONTINUOUS
 62
    7
 10
23.637202387986122
 20
44.193352423584543
 11
25.066917179530606
 21
44.193352423584543
  0
LINE
  8
_0-0_
  6
CONTINUOUS
 62
    7
 10
25.066917179530606
 20
44.193352423584543
 11
25.066917179530606
 21
43.829394486833394
  0
LINE
  8
_0-0_
  6
CONTINUOUS
 62
    7
 10
25.066917179530606
 20
43.829394486833394
 11
24.144502473426087
 21
43.829394486833394
  0
LINE
  8
_0-0_
  6
CONTINUOUS
 62
    7
 10
24.144502473426087
 20
43.829394486833394
 11
24.144502473426087
 21
43.355950172894495
  0
LINE
  8
_0-0_
  6
CONTINUOUS
 62
    7
 10
24.144502473426087
 20
43.355950172894495
 11
24.978956148403881
 21
43.355950172894495
  0
LINE
  8
_0-0_
  6
CONTINUOUS
 62
    7
 10
24.978956148403881
 20
43.355950172894495
 11
24.978956148403881
 21
43.014299094914463
  0
LINE
  8
_0-0_
  6
CONTINUOUS
 62
    7
 10
23.244406081808052
 20
42.515749117764585
 11
23.244406081808052
 21
42.15179118098456
  0
LINE
  8
_0-0_
  6
CONTINUOUS
 62
    7
 10
23.244406081808052
 20
42.15179118098456
 11
21.815063305493709
 21
42.15179118098456
  0
LINE
  8
_0-0_
  6
CONTINUOUS
 62
    7
 10
21.815063305493709
 20
42.15179118098456
 11
21.815063305493709
 21
44.193352423584543
  0
LINE
  8
_0-0_
  6
CONTINUOUS
 62
    7
 10
21.815063305493709
 20
44.193352423584543
 11
22.32416883389385
 21
44.193352423584543
  0
LINE
  8
_0-0_
  6
CONTINUOUS
 62
    7
 10
22.32416883389385
 20
44.193352423584543
 11
22.32416883389385
 21
42.515749117764585
  0
LINE
  8
_0-0_
  6
CONTINUOUS
 62
    7
 10
22.32416883389385
 20
42.515749117764585
 11
23.244406081808052
 21
42.515749117764585
  0
LINE
  8
_0-0_
  6
CONTINUOUS
 62
    7
 10
29.580391150770424
 20
41.042179937939295
 11
2.1803911507705607
 21
41.042179937939295
  0
LINE
  8
_0-0_
  6
CONTINUOUS
 62
    7
 10
1.9009185259300239
 20
41.062707313098713
 11
1.2382057875914825
 21
40.399994574760171
  0
LINE
  8
_0-0_
  6
CONTINUOUS
 62
    7
 10
30.52257651394973
 20
40.399994574760171
 11
29.859863775610961
 21
41.062707313098713
  0
LINE
  8
_0-0_
  6
CONTINUOUS
 62
    7
 10
29.880391150770606
 20
41.342179937939022
 11
29.880391150770606
 21
53.742179937939113
  0
LINE
  8
_0-0_
  6
CONTINUOUS
 62
    7
 10
29.859863775610961
 20
54.02165256277965
 11
30.52257651394973
 21
54.684365301118419
  0
LINE
  8
_0-0_
  6
CONTINUOUS
 62
    7
 10
1.2382057875914825
 20
54.684365301118419
 11
1.9009185259300239
 21
54.02165256277965
  0
LINE
  8
_0-0_
  6
CONTINUOUS
 62
    7
 10
1.8803911507706061
 20
53.742179937939113
 11
1.8803911507706061
 21
41.342179937939022
  0
LINE
  8
_0-0_
  6
CONTINUOUS
 62
    7
 10
2.1803911507705607
 20
54.042179937939295
 11
29.580391150770424
 21
54.042179937939295
  0
ARC
  8
_0-0_
  6
CONTINUOUS
 62
    7
 10
29.580391150770424
 20
53.742179937939113
 40
0.2999999999999999
 50
0
 51
90.000000000000028
  0
ARC
  8
_0-0_
  6
CONTINUOUS
 62
    7
 10
29.580391150770424
 20
41.342179937939022
 40
0.2999999999999999
 50
270
 51
0
  0
ARC
  8
_0-0_
  6
CONTINUOUS
 62
    7
 10
2.1803911507705607
 20
53.742179937939113
 40
0.2999999999999999
 50
90
 51
180
  0
ARC
  8
_0-0_
  6
CONTINUOUS
 62
    7
 10
2.1803911507705607
 20
41.342179937939022
 40
0.2999999999999999
 50
180
 51
270
  0
ARC
  8
_0-0_
  6
CONTINUOUS
 62
    7
 10
27.838910646237196
 20
43.172571802284551
 40
2.3989863444973807
 50
164.21600247589294
 51
195.78399752410709
  0
ARC
  8
_0-0_
  6
CONTINUOUS
 62
    7
 10
32.07608124420392
 20
43.172571802280231
 40
6.0927389498109967
 50
176.78919008197266
 51
183.21080991802734
  0
ARC
  8
_0-0_
  6
CONTINUOUS
 62
    7
 10
26.071001126689112
 20
42.707418130091696
 40
0.5721789663386137
 50
199.11812031409383
 51
253.77089632225113
  0
ARC
  8
_0-0_
  6
CONTINUOUS
 62
    7
 10
26.182932331230973
 20
43.226915610687115
 40
1.102902967963006
 50
255.7307072235771
 51
284.2692927764229
  0
ARC
  8
_0-0_
  6
CONTINUOUS
 62
    7
 10
26.294863535772834
 20
42.707418130091696
 40
0.5721789663386137
 50
286.22910367774887
 51
340.8818796859062
  0
ARC
  8
_0-0_
  6
CONTINUOUS
 62
    7
 10
24.526954016224749
 20
43.172571802284551
 40
2.3989863444973807
 50
344.21600247589294
 51
352.22375855280194
  0
ARC
  8
_0-0_
  6
CONTINUOUS
 62
    7
 10
26.182932331230973
 20
42.639920657881135
 40
0.1658629864205163
 50
198.7809348325886
 51
341.21906516741143
  0
ARC
  8
_0-0_
  6
CONTINUOUS
 62
    7
 10
25.44672373795936
 20
42.831810083171263
 40
0.9263073175532966
 50
344.64474174215434
 51
1.000075600874925
  0
ARC
  8
_0-0_
  6
CONTINUOUS
 62
    7
 10
26.919140924502585
 20
42.831810083171263
 40
0.9263073175532966
 50
179.28077569259483
 51
195.35525825784563
  0
ARC
  8
_0-0_
  6
CONTINUOUS
 62
    7
 10
26.182932331230973
 20
43.705222946688195
 40
0.1658629864205163
 50
18.780934832588589
 51
161.21906516741137
  0
ARC
  8
_0-0_
  6
CONTINUOUS
 62
    7
 10
26.919140924502585
 20
43.513333521398067
 40
0.9263073175532966
 50
164.64474174215434
 51
180.71922430740514
  0
ARC
  8
_0-0_
  6
CONTINUOUS
 62
    7
 10
25.44672373795936
 20
43.513333521398067
 40
0.9263073175532966
 50
4.3528100028009122
 51
15.355258257845675
  0
ARC
  8
_0-0_
  6
CONTINUOUS
 62
    7
 10
26.294863535772834
 20
43.637725474477634
 40
0.5721789663386137
 50
19.118120314093819
 51
73.770896322251133
  0
ARC
  8
_0-0_
  6
CONTINUOUS
 62
    7
 10
24.526954016224749
 20
43.172571802284551
 40
2.3989863444973807
 50
9.8663227198208787
 51
15.783997524107056
  0
ARC
  8
_0-0_
  6
CONTINUOUS
 62
    7
 10
26.182932331230973
 20
43.118227993882215
 40
1.102902967963006
 50
75.730707223577113
 51
104.2692927764229
  0
ARC
  8
_0-0_
  6
CONTINUOUS
 62
    7
 10
26.071001126689112
 20
43.637725474477634
 40
0.5721789663386137
 50
106.22910367774887
 51
160.88187968590617
  0
ARC
  8
_0-0_
  6
CONTINUOUS
 62
    7
 10
29.628202946266697
 20
43.172571802284551
 40
2.3989863444973807
 50
164.21600247589294
 51
195.78399752410709
  0
ARC
  8
_0-0_
  6
CONTINUOUS
 62
    7
 10
33.865373544233421
 20
43.172571802280231
 40
6.0927389498109967
 50
176.78919008197266
 51
183.21080991802734
  0
ARC
  8
_0-0_
  6
CONTINUOUS
 62
    7
 10
22.079075718287527
 20
43.172571802280231
 40
6.0927389498109967
 50
356.78919008197266
 51
3.2108099180273384
  0
ARC
  8
_0-0_
  6
CONTINUOUS
 62
    7
 10
27.972224631260474
 20
42.639920657881135
 40
0.1658629864205163
 50
198.7809348325886
 51
341.21906516741143
  0
ARC
  8
_0-0_
  6
CONTINUOUS
 62
    7
 10
27.972224631260474
 20
43.226915610687115
 40
1.102902967963006
 50
255.7307072235771
 51
284.2692927764229
  0
ARC
  8
_0-0_
  6
CONTINUOUS
 62
    7
 10
28.084155835802335
 20
42.707418130091696
 40
0.5721789663386137
 50
286.22910367774887
 51
340.8818796859062
  0
ARC
  8
_0-0_
  6
CONTINUOUS
 62
    7
 10
27.860293426718613
 20
42.707418130091696
 40
0.5721789663386137
 50
199.11812031409383
 51
253.77089632225113
  0
ARC
  8
_0-0_
  6
CONTINUOUS
 62
    7
 10
26.316246316254251
 20
43.172571802284551
 40
2.3989863444973807
 50
344.21600247589294
 51
15.783997524107075
  0
ARC
  8
_0-0_
  6
CONTINUOUS
 62
    7
 10
27.236016037988861
 20
42.831810083171263
 40
0.9263073175532966
 50
344.64474174215434
 51
0.7192243074051015
  0
ARC
  8
_0-0_
  6
CONTINUOUS
 62
    7
 10
28.708433224532087
 20
42.831810083171263
 40
0.9263073175532966
 50
179.28077569259483
 51
195.35525825784563
  0
ARC
  8
_0-0_
  6
CONTINUOUS
 62
    7
 10
28.708433224532087
 20
43.513333521398067
 40
0.9263073175532966
 50
164.64474174215434
 51
180.71922430740514
  0
ARC
  8
_0-0_
  6
CONTINUOUS
 62
    7
 10
27.972224631260474
 20
43.705222946688195
 40
0.1658629864205163
 50
18.780934832588589
 51
161.21906516741137
  0
ARC
  8
_0-0_
  6
CONTINUOUS
 62
    7
 10
27.236016037988861
 20
43.513333521398067
 40
0.9263073175532966
 50
359.28077569259489
 51
15.355258257845644
  0
ARC
  8
_0-0_
  6
CONTINUOUS
 62
    7
 10
27.972224631260474
 20
43.118227993882215
 40
1.102902967963006
 50
75.730707223577113
 51
104.2692927764229
  0
ARC
  8
_0-0_
  6
CONTINUOUS
 62
    7
 10
27.860293426718613
 20
43.637725474477634
 40
0.5721789663386137
 50
106.22910367774887
 51
160.88187968590617
  0
ARC
  8
_0-0_
  6
CONTINUOUS
 62
    7
 10
28.084155835802335
 20
43.637725474477634
 40
0.5721789663386137
 50
19.118120314093819
 51
73.770896322251133
  0
LINE
  8
_0-0_
  6
CONTINUOUS
 62
    7
 10
29.280391150770697
 20
41.942179937939159
 11
29.280391150770697
 21
44.34217993793925
  0
LINE
  8
_0-0_
  6
CONTINUOUS
 62
    7
 10
28.980391150770515
 20
41.642179937939204
 11
21.580391150770652
 21
41.642179937939204
  0
LINE
  8
_0-0_
  6
CONTINUOUS
 62
    7
 10
21.280391150770697
 20
41.942179937939159
 11
21.280391150770697
 21
44.34217993793925
  0
LINE
  8
_0-0_
  6
CONTINUOUS
 62
    7
 10
21.580391150770652
 20
44.642179937939204
 11
28.980391150770515
 21
44.642179937939204
  0
LINE
  8
_0-0_
  6
CONTINUOUS
 62
    7
 10
1.8803911507706061
 20
40.042179937939295
 11
29.880391150770606
 21
40.042179937939295
  0
LINE
  8
_0-0_
  6
CONTINUOUS
 62
    7
 10
30.880391150770606
 20
54.042179937939295
 11
30.880391150770606
 21
41.042179937939295
  0
LINE
  8
_0-0_
  6
CONTINUOUS
 62
    7
 10
0.8803911507706061
 20
41.042179937939295
 11
0.8803911507706061
 21
54.042179937939295
  0
LINE
  8
_0-0_
  6
CONTINUOUS
 62
    7
 10
29.880391150770606
 20
55.042179937939295
 11
1.8803911507706061
 21
55.042179937939295
  0
ARC
  8
_0-0_
  6
CONTINUOUS
 62
    7
 10
29.880391150770606
 20
54.042179937939295
 40
1
 50
0
 51
90.000000000000028
  0
ARC
  8
_0-0_
  6
CONTINUOUS
 62
    7
 10
29.880391150770606
 20
41.042179937939295
 40
1
 50
270
 51
0
  0
ARC
  8
_0-0_
  6
CONTINUOUS
 62
    7
 10
1.8803911507706061
 20
54.042179937939295
 40
1
 50
90
 51
180
  0
ARC
  8
_0-0_
  6
CONTINUOUS
 62
    7
 10
1.8803911507706061
 20
41.042179937939295
 40
1
 50
180
 51
270
  0
ARC
  8
_0-0_
  6
CONTINUOUS
 62
    7
 10
21.580391150770652
 20
41.942179937939159
 40
0.2999999999999999
 50
180
 51
270
  0
ARC
  8
_0-0_
  6
CONTINUOUS
 62
    7
 10
21.580391150770652
 20
44.34217993793925
 40
0.2999999999999999
 50
90
 51
180
  0
ARC
  8
_0-0_
  6
CONTINUOUS
 62
    7
 10
28.980391150770515
 20
44.34217993793925
 40
0.2999999999999999
 50
0
 51
90
  0
ARC
  8
_0-0_
  6
CONTINUOUS
 62
    7
 10
28.980391150770515
 20
41.942179937939159
 40
0.2999999999999999
 50
270
 51
0
  0
LINE
  8
_0-0_
  6
CONTINUOUS
 62
    7
 10
3.325122777491174
 20
7.9272610678164597
 11
3.1303911507708335
 21
11.642961854689304
  0
LINE
  8
_0-0_
  6
CONTINUOUS
 62
    7
 10
5.6303911507706061
 20
11.642961854689304
 11
5.4356595240502656
 21
7.9272610678164597
  0
LINE
  8
_0-0_
  6
CONTINUOUS
 62
    7
 10
3.624711637917585
 20
7.6429618546893039
 11
5.1360706636239684
 21
7.6429618546893039
  0
LINE
  8
_0-0_
  6
CONTINUOUS
 62
    7
 10
26.130391150770606
 20
11.642961854689304
 11
26.325122777490719
 21
7.9272610678164597
  0
LINE
  8
_0-0_
  6
CONTINUOUS
 62
    7
 10
28.136070663623514
 20
7.6429618546893039
 11
26.62471163791713
 21
7.6429618546893039
  0
LINE
  8
_0-0_
  6
CONTINUOUS
 62
    7
 10
28.435659524049811
 20
7.9272610678164597
 11
28.630391150770379
 21
11.642961854689304
  0
LINE
  8
_0-0_
  6
CONTINUOUS
 62
    7
 10
30.880391150770606
 20
11.642961854689304
 11
0.8803911507706061
 21
11.642961854689304
  0
LINE
  8
_0-0_
  6
CONTINUOUS
 62
    7
 10
0.8803911507706061
 20
11.642961854689304
 11
0.8803911507706061
 21
13.642961854689304
  0
LINE
  8
_0-0_
  6
CONTINUOUS
 62
    7
 10
1.8803911507706061
 20
14.642961854689304
 11
29.880391150770606
 21
14.642961854689304
  0
LINE
  8
_0-0_
  6
CONTINUOUS
 62
    7
 10
30.880391150770606
 20
13.642961854689304
 11
30.880391150770606
 21
11.642961854689304
  0
ARC
  8
_0-0_
  6
CONTINUOUS
 62
    7
 10
1.8803911507706061
 20
13.642961854689304
 40
1
 50
90
 51
180
  0
ARC
  8
_0-0_
  6
CONTINUOUS
 62
    7
 10
29.880391150770606
 20
13.642961854689304
 40
1
 50
0
 51
90
  0
ARC
  8
_0-0_
  6
CONTINUOUS
 62
    7
 10
3.624711637917585
 20
7.9429618546893721
 40
0.2999999999999999
 50
183.00000000000244
 51
270
  0
ARC
  8
_0-0_
  6
CONTINUOUS
 62
    7
 10
5.1360706636239684
 20
7.9429618546893721
 40
0.2999999999999999
 50
270
 51
357.0000000000004
  0
ARC
  8
_0-0_
  6
CONTINUOUS
 62
    7
 10
26.62471163791713
 20
7.9429618546893721
 40
0.2999999999999999
 50
182.99999999999957
 51
270
  0
ARC
  8
_0-0_
  6
CONTINUOUS
 62
    7
 10
28.136070663623514
 20
7.9429618546893721
 40
0.2999999999999999
 50
270
 51
356.99999999999767
  0
LINE
  8
_0-0_
  6
CONTINUOUS
 62
    7
 10
53.880391150770606
 20
40.042179937939295
 11
51.880391150770606
 21
40.042179937939295
  0
LINE
  8
_0-0_
  6
CONTINUOUS
 62
    7
 10
50.880391150770606
 20
41.042179937939295
 11
50.880391150770606
 21
54.042179937939295
  0
LINE
  8
_0-0_
  6
CONTINUOUS
 62
    7
 10
57.880391150770606
 20
52.626415659880763
 11
57.880391150770606
 21
42.457944215997941
  0
LINE
  8
_0-0_
  6
CONTINUOUS
 62
    7
 10
53.880391150770606
 20
40.042179937939295
 11
53.880391150770606
 21
55.042179937939295
  0
LINE
  8
_0-0_
  6
CONTINUOUS
 62
    7
 10
53.880391150770606
 20
55.042179937939295
 11
51.880391150770606
 21
55.042179937939295
  0
ARC
  8
_0-0_
  6
CONTINUOUS
 62
    7
 10
51.880391150770606
 20
41.042179937939295
 40
1
 50
180
 51
270
  0
ARC
  8
_0-0_
  6
CONTINUOUS
 62
    7
 10
51.880391150770606
 20
54.042179937939295
 40
1
 50
90
 51
180
  0
ARC
  8
_0-0_
  6
CONTINUOUS
 62
    7
 10
56.880391150770606
 20
52.626415659880763
 40
1
 50
0
 51
86.000000000000114
  0
ARC
  8
_0-0_
  6
CONTINUOUS
 62
    7
 10
56.880391150770606
 20
42.457944215997941
 40
1
 50
274.00000000000006
 51
0
  0
LINE
  8
_0-0_
  6
CONTINUOUS
 62
    7
 10
56.945933782123689
 20
41.460380165738115
 11
53.880391150770606
 21
41.192179937939272
  0
LINE
  8
_0-0_
  6
CONTINUOUS
 62
    7
 10
56.945933782123689
 20
53.623979710140588
 11
53.880391150770606
 21
53.892179937939432
  0
LINE
  8
_0-1_
  6
CENTER1
 62
  152
 10
30.880391150770606
 20
47.542179937939295
 11
0.8803911507706061
 21
47.542179937939295
  0
LINE
  8
_0-1_
  6
CENTER1
 62
  152
 10
15.880391150770606
 20
55.042179937939295
 11
15.880391150770606
 21
40.042179937939295
  0
LINE
  8
_0-1_
  6
CENTER1
 62
  152
 10
15.880391150770606
 20
7.6429618546893039
 11
15.880391150770606
 21
14.642961854689304
  0
LINE
  8
_0-1_
  6
DASHED3
 62
  152
 10
3.1303911507708335
 20
11.642961854689304
 11
3.1041872611293684
 21
12.142961854689304
  0
LINE
  8
_0-1_
  6
DASHED3
 62
  152
 10
2.8803911507708335
 20
12.142961854689304
 11
2.8803911507708335
 21
11.642961854689304
  0
LINE
  8
_0-1_
  6
DASHED3
 62
  152
 10
2.8803911507708335
 20
12.142961854689304
 11
5.8803911507708335
 21
12.142961854689304
  0
LINE
  8
_0-1_
  6
DASHED3
 62
  152
 10
5.8803911507708335
 20
12.142961854689304
 11
5.8803911507708335
 21
11.642961854689304
  0
LINE
  8
_0-1_
  6
DASHED3
 62
  152
 10
5.6303911507706061
 20
11.642961854689304
 11
5.6565950404122987
 21
12.142961854689304
  0
LINE
  8
_0-1_
  6
DASHED3
 62
  152
 10
28.630391150770379
 20
11.642961854689304
 11
28.656595040411844
 21
12.142961854689304
  0
LINE
  8
_0-1_
  6
DASHED3
 62
  152
 10
28.880391150770379
 20
12.142961854689304
 11
25.880391150770379
 21
12.142961854689304
  0
LINE
  8
_0-1_
  6
DASHED3
 62
  152
 10
25.880391150770379
 20
12.142961854689304
 11
25.880391150770379
 21
11.642961854689304
  0
LINE
  8
_0-1_
  6
DASHED3
 62
  152
 10
26.130391150770606
 20
11.642961854689304
 11
26.104187261128914
 21
12.142961854689304
  0
LINE
  8
_0-1_
  6
DASHED3
 62
  152
 10
28.880391150770379
 20
11.642961854689304
 11
28.880391150770379
 21
12.142961854689304
  0
LINE
  8
_0-1_
  6
CENTER1
 62
  152
 10
50.880391150770606
 20
47.542179937939295
 11
57.880391150770606
 21
47.542179937939295
  0
LINE
  8
_0-1_
  6
DASHED3
 62
  152
 10
53.880391150770606
 20
41.192179937939272
 11
53.380391150770606
 21
41.192179937939272
  0
LINE
  8
_0-1_
  6
DASHED3
 62
  152
 10
53.380391150770606
 20
41.192179937939272
 11
53.380391150770606
 21
40.392179937939318
  0
LINE
  8
_0-1_
  6
DASHED3
 62
  152
 10
53.380391150770606
 20
40.392179937939318
 11
53.880391150770606
 21
40.392179937939318
  0
LINE
  8
_0-1_
  6
DASHED3
 62
  152
 10
53.880391150770606
 20
54.692179937939386
 11
53.380391150770606
 21
54.692179937939386
  0
LINE
  8
_0-1_
  6
DASHED3
 62
  152
 10
53.380391150770606
 20
54.692179937939386
 11
53.380391150770606
 21
53.892179937939432
  0
LINE
  8
_0-1_
  6
DASHED3
 62
  152
 10
53.380391150770606
 20
53.892179937939432
 11
53.880391150770606
 21
53.892179937939432
  0
ENDSEC
  0
EOF
