  0
SECTION
  2
HEADER
  9
$ACADVER
  1
AC1009
  9
$INSBASE
 10
0
 20
0
 30
0
  9
$EXTMIN
 10
0
 20
0
  9
$EXTMAX
 10
1189
 20
841
  9
$LIMMIN
 10
0
 20
0
  9
$LIMMAX
 10
1189
 20
841
  9
$LTSCALE
 40
1
  0
ENDSEC
  0
SECTION
  2
TABLES
  0
TABLE
  2
LTYPE
 70
     9
  0
LTYPE
  2
CONTINUOUS
 70
    64
  3
実線
 72
    65
 73
     0
 40
0.0
  0
LTYPE
  2
DASHED1
 70
    64
  3
--  --  --  --  --  --  --  --  
 72
    65
 73
     2
 40
2.5
 49
1.25
 49
-1.25
  0
LTYPE
  2
DASHED2
 70
    64
  3
----    ----    ----    ----    
 72
    65
 73
     2
 40
5.0
 49
2.5
 49
-2.5
  0
LTYPE
  2
DASHED3
 70
    64
  3
------  ------  ------  ------  
 72
    65
 73
     2
 40
5.0
 49
3.75
 49
-1.25
  0
LTYPE
  2
CENTER1
 70
    64
  3
----- - ----- - ----- - ----- - 
 72
    65
 73
     4
 40
10.0
 49
6.25
 49
-1.25
 49
1.25
 49
-1.25
  0
LTYPE
  2
CENTER2
 70
    64
  3
----------  --  ----------  --  
 72
    65
 73
     4
 40
20.0
 49
12.5
 49
-2.5
 49
2.5
 49
-2.5
  0
LTYPE
  2
PHANTOM1
 70
    64
  3
--- - - --- - - --- - - --- - - 
 72
    65
 73
     6
 40
10.0
 49
3.25
 49
-1.25
 49
1.25
 49
-1.25
 49
1.25
 49
-1.25
  0
LTYPE
  2
PHANTOM2
 70
    64
  3
--------  -  -  --------  -  -  
 72
    65
 73
     6
 40
20.0
 49
10.0
 49
-2.5
 49
1.25
 49
-2.5
 49
1.25
 49
-2.5
  0
LTYPE
  2
DOT
 70
    64
  3
-   -   -   -   -   -   -   -   
 72
    65
 73
     2
 40
2.5
 49
0.625
 49
-1.875
  0
LTYPE
  2
DUMMY
 70
    64
  3
ダミー
 72
    65
 73
     0
 40
0.0
  0
LTYPE
  2
RAND1
 70
    64
  3
ランダム線1
 72
    65
 73
     4
 40
10.0
 49
1.0
 49
-2.0
 49
3.0
 49
-4.0
  0
LTYPE
  2
RAND2
 70
    64
  3
ランダム線2
 72
    65
 73
     4
 40
14.0
 49
2.0
 49
-3.0
 49
4.0
 49
-5.0
  0
LTYPE
  2
RAND3
 70
    64
  3
ランダム線3
 72
    65
 73
     4
 40
18.0
 49
3.0
 49
-4.0
 49
5.0
 49
-6.0
  0
LTYPE
  2
RAND4
 70
    64
  3
ランダム線4
 72
    65
 73
     4
 40
22.0
 49
4.0
 49
-5.0
 49
6.0
 49
-7.0
  0
LTYPE
  2
RAND5
 70
    64
  3
ランダム線5
 72
    65
 73
     4
 40
26.0
 49
5.0
 49
-6.0
 49
7.0
 49
-8.0
  0
LTYPE
  2
LONG1
 70
    64
  3
----------  --  ----------  --  
 72
    65
 73
     4
 40
40.0
 49
32.5
 49
-2.5
 49
2.5
 49
-2.5
  0
LTYPE
  2
LONG2
 70
    64
  3
--------  -  -  --------  -  -  
 72
    65
 73
     6
 40
40.0
 49
30.0
 49
-2.5
 49
1.25
 49
-2.5
 49
1.25
 49
-2.5
  0
LTYPE
  2
LONG3
 70
    64
  3
+++++++++++++++..+++++++++++++++
 72
    65
 73
     2
 40
40.0
 49
37.5
 49
-2.5
  0
LTYPE
  2
LONG4
 70
    64
  3
+++++++++++++++..+++++++++++++++
 72
    65
 73
     2
 40
80.0
 49
75.0
 49
-5.0
  0
LTYPE
  2
LONG5
 70
    64
  3
----------  --  ----------  --  
 72
    65
 73
     4
 40
60.0
 49
37.5
 49
-7.5
 49
7.5
 49
-7.5
  0
LTYPE
  2
dashed
 70
   64
  3
-------   -------------   ------
 72
   65
 73
    2
 40
7.5
 49
6
 49
-1.5
  0
LTYPE
  2
dashed_spaced
 70
   64
  3
----        --------        ----
 72
   65
 73
    2
 40
12
 49
6
 49
-6
  0
LTYPE
  2
long_dashed_dotted
 70
   64
  3
------------- --- --------------
 72
   65
 73
    4
 40
15.25
 49
12
 49
-1.5
 49
0.25
 49
-1.5
  0
LTYPE
  2
long_dashed_double-dotted
 70
   64
  3
----------- --- --- ------------
 72
   65
 73
    6
 40
17
 49
12
 49
-1.5
 49
0.25
 49
-1.5
 49
0.25
 49
-1.5
  0
LTYPE
  2
long_dashed_triplicate-dotted
 70
   64
  3
--------- --- --- --- ----------
 72
   65
 73
    8
 40
18.75
 49
12
 49
-1.5
 49
0.25
 49
-1.5
 49
0.25
 49
-1.5
 49
0.25
 49
-1.5
  0
LTYPE
  2
dotted
 70
   64
  3
   -       -       -       -    
 72
   65
 73
    2
 40
1.75
 49
0.25
 49
-1.5
  0
LTYPE
  2
chain
 70
   64
  3
-------------- -- --------------
 72
   65
 73
    4
 40
18.5
 49
12
 49
-1.5
 49
3.5
 49
-1.5
  0
LTYPE
  2
chain_double_dash
 70
   64
  3
------------ -- -- -------------
 72
   65
 73
    6
 40
23.5
 49
12
 49
-1.5
 49
3.5
 49
-1.5
 49
3.5
 49
-1.5
  0
LTYPE
  2
dashed_dotted
 70
   64
  3
-----------     -     ----------
 72
   65
 73
    4
 40
9.25
 49
6
 49
-1.5
 49
0.25
 49
-1.5
  0
LTYPE
  2
double-dashed_dotted
 70
   64
  3
------   -----------   -   -----
 72
   65
 73
    6
 40
16.75
 49
6
 49
-1.5
 49
6
 49
-1.5
 49
0.25
 49
-1.5
  0
LTYPE
  2
dashed_double-dotted
 70
   64
  3
---------    -    -    ---------
 72
   65
 73
    6
 40
11
 49
6
 49
-1.5
 49
0.25
 49
-1.5
 49
0.25
 49
-1.5
  0
LTYPE
  2
double-dashed_double-dotted
 70
   64
  3
-----   ---------   -   -   ----
 72
   65
 73
    8
 40
18.5
 49
6
 49
-1.5
 49
6
 49
-1.5
 49
0.25
 49
-1.5
 49
0.25
 49
-1.5
  0
LTYPE
  2
dashed_triplicate-dotted
 70
   64
  3
-------    -    -    -    ------
 72
   65
 73
    8
 40
12.75
 49
6
 49
-1.5
 49
0.25
 49
-1.5
 49
0.25
 49
-1.5
 49
0.25
 49
-1.5
  0
LTYPE
  2
double-dashed_triplicate-dotted
 70
   64
  3
-----  ---------  -  -  -  -----
 72
   65
 73
   10
 40
20.25
 49
6
 49
-1.5
 49
6
 49
-1.5
 49
0.25
 49
-1.5
 49
0.25
 49
-1.5
 49
0.25
 49
-1.5
  0
LTYPE
  2
undefined
 70
   64
  3
--------------------------------
 72
   65
 73
    0
 40
0
  0
ENDTAB
  0
TABLE
  2
STYLE
  5
3
100
AcDbSymbolTable
 70
     1
  0
STYLE
  5
10
100
AcDbSymbolTableRecord
100
AcDbTextStyleTableRecord
  2
STANDARD
 70
     0
 40
0.0
 41
1.0
 50
0.0
 71
     0
 42
0.2
  3
txt
  4
bigfont.shx
  0
STYLE
  5
26
100
AcDbSymbolTableRecord
100
AcDbTextStyleTableRecord
  2
TATEGAKI
 70
    68
 40
0.0
 41
1.0
 50
0.0
 71
     0
 42
1.0
  3
txt
  4
bigfont.shx
  0
ENDTAB
  0
TABLE
  2
LAYER
 70
    4
  0
LAYER
  2
_0-0_
 70
   64
 62
    7
  6
CONTINUOUS
  0
LAYER
  2
_0-1_
 70
   64
 62
    7
  6
CONTINUOUS
  0
LAYER
  2
_0-f_
 70
   64
 62
    7
  6
CONTINUOUS
  0
LAYER
  2
ADD_LINE
 70
   64
 62
    7
  6
CONTINUOUS
  0
ENDTAB
  0
ENDSEC
  0
SECTION
  2
BLOCKS
  0
ENDSEC
  0
SECTION
  2
ENTITIES
  0
TEXT
  8
_0-f_
 62
    7
 10
1.7802525907694644
 20
2.0472616750934662
 40
4.2999999999999998
 41
0.744186046511628
 50
0
  1
E152  E152S
  0
LINE
  8
_0-0_
  6
CONTINUOUS
 62
    7
 10
24.004607757105987
 20
52.401769142565627
 11
16.604607757105896
 21
52.401769142565627
  0
LINE
  8
_0-0_
  6
CONTINUOUS
 62
    7
 10
16.304607757105714
 20
52.101769142565445
 11
16.304607757105714
 21
49.701769142565809
  0
LINE
  8
_0-0_
  6
CONTINUOUS
 62
    7
 10
16.604607757105896
 20
49.401769142565627
 11
24.004607757105987
 21
49.401769142565627
  0
LINE
  8
_0-0_
  6
CONTINUOUS
 62
    7
 10
24.304607757105714
 20
49.701769142565809
 11
24.304607757105714
 21
52.101769142565445
  0
LINE
  8
_0-0_
  6
CONTINUOUS
 62
    7
 10
21.914677757105892
 20
51.343229142565633
 11
21.394577757106163
 21
51.343229142565633
  0
LINE
  8
_0-0_
  6
CONTINUOUS
 62
    7
 10
21.397107757105914
 20
50.607569142565808
 11
21.928097757106116
 21
50.607569142565808
  0
LINE
  8
_0-0_
  6
CONTINUOUS
 62
    7
 10
20.003177757106187
 20
50.773889142565622
 11
19.168717757106151
 21
50.773889142565622
  0
LINE
  8
_0-0_
  6
CONTINUOUS
 62
    7
 10
19.168717757106151
 20
50.773889142565622
 11
19.168717757106151
 21
50.275339142565372
  0
LINE
  8
_0-0_
  6
CONTINUOUS
 62
    7
 10
19.168717757106151
 20
50.275339142565372
 11
20.091137757106026
 21
50.275339142565372
  0
LINE
  8
_0-0_
  6
CONTINUOUS
 62
    7
 10
20.091137757106026
 20
50.275339142565372
 11
20.091137757106026
 21
49.911379142565693
  0
LINE
  8
_0-0_
  6
CONTINUOUS
 62
    7
 10
20.091137757106026
 20
49.911379142565693
 11
18.661417757105937
 21
49.911379142565693
  0
LINE
  8
_0-0_
  6
CONTINUOUS
 62
    7
 10
18.661417757105937
 20
49.911379142565693
 11
18.661417757105937
 21
51.95293914256581
  0
LINE
  8
_0-0_
  6
CONTINUOUS
 62
    7
 10
18.661417757105937
 20
51.95293914256581
 11
20.091137757106026
 21
51.95293914256581
  0
LINE
  8
_0-0_
  6
CONTINUOUS
 62
    7
 10
20.091137757106026
 20
51.95293914256581
 11
20.091137757106026
 21
51.588979142565677
  0
LINE
  8
_0-0_
  6
CONTINUOUS
 62
    7
 10
20.091137757106026
 20
51.588979142565677
 11
19.168717757106151
 21
51.588979142565677
  0
LINE
  8
_0-0_
  6
CONTINUOUS
 62
    7
 10
19.168717757106151
 20
51.588979142565677
 11
19.168717757106151
 21
51.115539142565467
  0
LINE
  8
_0-0_
  6
CONTINUOUS
 62
    7
 10
19.168717757106151
 20
51.115539142565467
 11
20.003177757106187
 21
51.115539142565467
  0
LINE
  8
_0-0_
  6
CONTINUOUS
 62
    7
 10
20.003177757106187
 20
51.115539142565467
 11
20.003177757106187
 21
50.773889142565622
  0
LINE
  8
_0-0_
  6
CONTINUOUS
 62
    7
 10
18.26862775710606
 20
50.275339142565372
 11
17.348387757105684
 21
50.275339142565372
  0
LINE
  8
_0-0_
  6
CONTINUOUS
 62
    7
 10
17.348387757105684
 20
50.275339142565372
 11
17.348387757105684
 21
51.95293914256581
  0
LINE
  8
_0-0_
  6
CONTINUOUS
 62
    7
 10
17.348387757105684
 20
51.95293914256581
 11
16.839287757105922
 21
51.95293914256581
  0
LINE
  8
_0-0_
  6
CONTINUOUS
 62
    7
 10
16.839287757105922
 20
51.95293914256581
 11
16.839287757105922
 21
49.911379142565693
  0
LINE
  8
_0-0_
  6
CONTINUOUS
 62
    7
 10
16.839287757105922
 20
49.911379142565693
 11
18.26862775710606
 21
49.911379142565693
  0
LINE
  8
_0-0_
  6
CONTINUOUS
 62
    7
 10
18.26862775710606
 20
49.911379142565693
 11
18.26862775710606
 21
50.275339142565372
  0
ARC
  8
_0-0_
  6
CONTINUOUS
 62
    7
 10
22.863127757105758
 20
50.932159142565524
 40
2.3989862999999998
 50
164.21600000000004
 51
195.78399000000002
  0
ARC
  8
_0-0_
  6
CONTINUOUS
 62
    7
 10
27.100297757105636
 20
50.932159142565524
 40
6.0927388999999996
 50
176.78918999999999
 51
183.21080000000001
  0
ARC
  8
_0-0_
  6
CONTINUOUS
 62
    7
 10
21.095217757105729
 20
50.46700914256553
 40
0.5721789
 50
199.11812000000006
 51
253.77089000000001
  0
ARC
  8
_0-0_
  6
CONTINUOUS
 62
    7
 10
21.207147757106213
 20
50.986499142565663
 40
1.1029028999999999
 50
255.73070000000004
 51
284.26929000000007
  0
ARC
  8
_0-0_
  6
CONTINUOUS
 62
    7
 10
21.31908775710599
 20
50.46700914256553
 40
0.5721789
 50
286.22910000000002
 51
340.88186999999999
  0
ARC
  8
_0-0_
  6
CONTINUOUS
 62
    7
 10
19.551177757105961
 20
50.932159142565524
 40
2.3989862999999998
 50
344.21599999999995
 51
352.22374999999994
  0
ARC
  8
_0-0_
  6
CONTINUOUS
 62
    7
 10
21.207147757106213
 20
50.399509142565421
 40
0.1658629
 50
198.78093000000001
 51
341.21906000000001
  0
ARC
  8
_0-0_
  6
CONTINUOUS
 62
    7
 10
20.470947757105932
 20
50.591399142565479
 40
0.9263072999999999
 50
344.64474000000007
 51
1.0000756000000433
  0
ARC
  8
_0-0_
  6
CONTINUOUS
 62
    7
 10
21.943357757106241
 20
50.591399142565479
 40
0.9263072999999999
 50
179.28076999999999
 51
195.35525000000001
  0
ARC
  8
_0-0_
  6
CONTINUOUS
 62
    7
 10
21.207147757106213
 20
51.464809142565628
 40
0.1658629
 50
18.780933999999998
 51
161.21906000000001
  0
ARC
  8
_0-0_
  6
CONTINUOUS
 62
    7
 10
21.943357757106241
 20
51.27291914256557
 40
0.9263072999999999
 50
164.64474000000004
 51
180.71922000000004
  0
ARC
  8
_0-0_
  6
CONTINUOUS
 62
    7
 10
20.470947757105932
 20
51.27291914256557
 40
0.9263072999999999
 50
4.3528099999999998
 51
15.355258000000001
  0
ARC
  8
_0-0_
  6
CONTINUOUS
 62
    7
 10
21.31908775710599
 20
51.397309142565518
 40
0.5721789
 50
19.118120000000001
 51
73.770895999999965
  0
ARC
  8
_0-0_
  6
CONTINUOUS
 62
    7
 10
19.551177757105961
 20
50.932159142565524
 40
2.3989862999999998
 50
9.8663227000000013
 51
15.783997000000001
  0
ARC
  8
_0-0_
  6
CONTINUOUS
 62
    7
 10
21.207147757106213
 20
50.877819142565386
 40
1.1029028999999999
 50
75.730706999999995
 51
104.26929
  0
ARC
  8
_0-0_
  6
CONTINUOUS
 62
    7
 10
21.095217757105729
 20
51.397309142565518
 40
0.5721789
 50
106.2291
 51
160.88186999999999
  0
ARC
  8
_0-0_
  6
CONTINUOUS
 62
    7
 10
24.652427757106125
 20
50.932159142565524
 40
2.3989862999999998
 50
164.21600000000004
 51
195.78399000000002
  0
ARC
  8
_0-0_
  6
CONTINUOUS
 62
    7
 10
28.889597757106003
 20
50.932159142565524
 40
6.0927388999999996
 50
176.78918999999999
 51
183.21080000000001
  0
ARC
  8
_0-0_
  6
CONTINUOUS
 62
    7
 10
17.103297757106247
 20
50.932159142565524
 40
6.0927388999999996
 50
356.78919000000002
 51
3.2108098999999948
  0
ARC
  8
_0-0_
  6
CONTINUOUS
 62
    7
 10
22.99644775710567
 20
50.399509142565421
 40
0.1658629
 50
198.78093000000001
 51
341.21906000000001
  0
ARC
  8
_0-0_
  6
CONTINUOUS
 62
    7
 10
22.99644775710567
 20
50.986499142565663
 40
1.1029028999999999
 50
255.73070000000004
 51
284.26929000000007
  0
ARC
  8
_0-0_
  6
CONTINUOUS
 62
    7
 10
23.108377757106155
 20
50.46700914256553
 40
0.5721789
 50
286.22910000000002
 51
340.88186999999999
  0
ARC
  8
_0-0_
  6
CONTINUOUS
 62
    7
 10
22.884517757106096
 20
50.46700914256553
 40
0.5721789
 50
199.11812000000006
 51
253.77089000000001
  0
ARC
  8
_0-0_
  6
CONTINUOUS
 62
    7
 10
21.340467757106126
 20
50.932159142565524
 40
2.3989862999999998
 50
344.21599999999995
 51
15.783997000000026
  0
ARC
  8
_0-0_
  6
CONTINUOUS
 62
    7
 10
22.260237757105642
 20
50.591399142565479
 40
0.9263072999999999
 50
344.64474000000007
 51
0.719224299999991
  0
ARC
  8
_0-0_
  6
CONTINUOUS
 62
    7
 10
23.732657757105699
 20
50.591399142565479
 40
0.9263072999999999
 50
179.28076999999999
 51
195.35525000000001
  0
ARC
  8
_0-0_
  6
CONTINUOUS
 62
    7
 10
23.732657757105699
 20
51.27291914256557
 40
0.9263072999999999
 50
164.64474000000004
 51
180.71922000000004
  0
ARC
  8
_0-0_
  6
CONTINUOUS
 62
    7
 10
22.99644775710567
 20
51.464809142565628
 40
0.1658629
 50
18.780933999999998
 51
161.21906000000001
  0
ARC
  8
_0-0_
  6
CONTINUOUS
 62
    7
 10
22.260237757105642
 20
51.27291914256557
 40
0.9263072999999999
 50
359.28076999999996
 51
15.355257999999957
  0
ARC
  8
_0-0_
  6
CONTINUOUS
 62
    7
 10
22.99644775710567
 20
50.877819142565386
 40
1.1029028999999999
 50
75.730706999999995
 51
104.26929
  0
ARC
  8
_0-0_
  6
CONTINUOUS
 62
    7
 10
22.884517757106096
 20
51.397309142565518
 40
0.5721789
 50
106.2291
 51
160.88186999999999
  0
ARC
  8
_0-0_
  6
CONTINUOUS
 62
    7
 10
23.108377757106155
 20
51.397309142565518
 40
0.5721789
 50
19.118120000000001
 51
73.770895999999965
  0
ARC
  8
_0-0_
  6
CONTINUOUS
 62
    7
 10
16.604607757105896
 20
49.701769142565809
 40
0.2999999999999998
 50
180
 51
270
  0
ARC
  8
_0-0_
  6
CONTINUOUS
 62
    7
 10
16.604607757105896
 20
52.101769142565445
 40
0.2999999999999998
 50
90
 51
180
  0
ARC
  8
_0-0_
  6
CONTINUOUS
 62
    7
 10
24.004607757105987
 20
52.101769142565445
 40
0.2999999999999998
 50
0
 51
90
  0
ARC
  8
_0-0_
  6
CONTINUOUS
 62
    7
 10
24.004607757105987
 20
49.701769142565809
 40
0.2999999999999998
 50
270
 51
0
  0
LINE
  8
_0-0_
  6
CONTINUOUS
 62
    7
 10
25.904607757106078
 20
61.801769142565661
 11
25.904607757106078
 21
48.801769142565718
  0
LINE
  8
_0-0_
  6
CONTINUOUS
 62
    7
 10
24.904607757106078
 20
47.801769142565718
 11
1.904607757105623
 21
47.801769142565718
  0
LINE
  8
_0-0_
  6
CONTINUOUS
 62
    7
 10
0.9046077571060777
 20
48.801769142565718
 11
0.9046077571060777
 21
61.801769142565661
  0
LINE
  8
_0-0_
  6
CONTINUOUS
 62
    7
 10
1.904607757105623
 20
62.801769142565661
 11
24.904607757106078
 21
62.801769142565661
  0
LINE
  8
_0-0_
  6
CONTINUOUS
 62
    7
 10
15.652897757106075
 20
55.799159142565713
 11
14.638837757106103
 21
55.799159142565713
  0
LINE
  8
_0-0_
  6
CONTINUOUS
 62
    7
 10
14.638837757106103
 20
54.804359142565772
 11
15.652897757106075
 21
54.804359142565772
  0
LINE
  8
_0-0_
  6
CONTINUOUS
 62
    7
 10
13.901997757105619
 20
54.067519142565743
 11
13.901997757105619
 21
53.053439142565821
  0
LINE
  8
_0-0_
  6
CONTINUOUS
 62
    7
 10
12.907247757105779
 20
53.053439142565821
 11
12.907247757105779
 21
54.067519142565743
  0
LINE
  8
_0-0_
  6
CONTINUOUS
 62
    7
 10
12.170407757106204
 20
54.804359142565772
 11
11.156297757106131
 21
54.804359142565772
  0
LINE
  8
_0-0_
  6
CONTINUOUS
 62
    7
 10
11.156297757106131
 20
55.799159142565713
 11
12.170407757106204
 21
55.799159142565713
  0
LINE
  8
_0-0_
  6
CONTINUOUS
 62
    7
 10
12.907247757105779
 20
56.535999142565686
 11
12.907247757105779
 21
57.550039142565709
  0
LINE
  8
_0-0_
  6
CONTINUOUS
 62
    7
 10
13.901997757105619
 20
57.550039142565709
 11
13.901997757105619
 21
56.535999142565686
  0
ARC
  8
_0-0_
  6
CONTINUOUS
 62
    7
 10
1.904607757105623
 20
48.801769142565718
 40
1
 50
180
 51
270
  0
ARC
  8
_0-0_
  6
CONTINUOUS
 62
    7
 10
1.904607757105623
 20
61.801769142565661
 40
1
 50
90
 51
180
  0
ARC
  8
_0-0_
  6
CONTINUOUS
 62
    7
 10
24.904607757106078
 20
61.801769142565661
 40
1
 50
0
 51
90
  0
ARC
  8
_0-0_
  6
CONTINUOUS
 62
    7
 10
24.904607757106078
 20
48.801769142565718
 40
1
 50
270
 51
0
  0
CIRCLE
  8
_0-0_
  6
CONTINUOUS
 62
    7
 10
13.404607757106078
 20
55.301769142565718
 40
3.5499999999999998
  0
ARC
  8
_0-0_
  6
CONTINUOUS
 62
    7
 10
12.170407757106204
 20
54.067519142565743
 40
0.7368479999999999
 50
0
 51
90
  0
ARC
  8
_0-0_
  6
CONTINUOUS
 62
    7
 10
12.170407757106204
 20
56.535999142565686
 40
0.7368479999999999
 50
270
 51
0
  0
ARC
  8
_0-0_
  6
CONTINUOUS
 62
    7
 10
14.638837757106103
 20
56.535999142565686
 40
0.7368479999999999
 50
180
 51
270
  0
ARC
  8
_0-0_
  6
CONTINUOUS
 62
    7
 10
14.638837757106103
 20
54.067519142565743
 40
0.7368479999999999
 50
90
 51
180
  0
ARC
  8
_0-0_
  6
CONTINUOUS
 62
    7
 10
13.404597757105876
 20
55.301779142565465
 40
2.3026499999999999
 50
77.525720000000007
 51
102.47427
  0
ARC
  8
_0-0_
  6
CONTINUOUS
 62
    7
 10
13.404597757105876
 20
55.301779142565465
 40
2.3026499999999999
 50
167.52581000000001
 51
192.47417999999999
  0
ARC
  8
_0-0_
  6
CONTINUOUS
 62
    7
 10
13.404597757105876
 20
55.301779142565465
 40
2.3026499999999999
 50
257.52571999999998
 51
282.47426999999999
  0
ARC
  8
_0-0_
  6
CONTINUOUS
 62
    7
 10
13.404597757105876
 20
55.301779142565465
 40
2.3026499999999999
 50
347.52580999999998
 51
12.474179999999999
  0
LINE
  8
_0-0_
  6
CONTINUOUS
 62
    7
 10
65.559055722355197
 20
58.389389142565449
 11
61.506725722355213
 21
58.601769142565388
  0
LINE
  8
_0-0_
  6
CONTINUOUS
 62
    7
 10
61.506725722355213
 20
58.601769142565388
 11
61.506725722355213
 21
52.001769142565536
  0
LINE
  8
_0-0_
  6
CONTINUOUS
 62
    7
 10
61.506725722355213
 20
52.001769142565536
 11
59.506725722355213
 21
52.001769142565536
  0
LINE
  8
_0-0_
  6
CONTINUOUS
 62
    7
 10
61.506725722355213
 20
52.001769142565536
 11
65.559055722355197
 21
52.214139142565728
  0
LINE
  8
_0-0_
  6
CONTINUOUS
 62
    7
 10
66.506725722355213
 20
53.212769142565776
 11
66.506725722355213
 21
54.155039142565784
  0
LINE
  8
_0-0_
  6
CONTINUOUS
 62
    7
 10
66.222425722354956
 20
54.454629142565409
 11
62.075315722355526
 21
54.671969142565558
  0
LINE
  8
_0-0_
  6
CONTINUOUS
 62
    7
 10
62.075315722355526
 20
55.931569142565365
 11
66.222425722354956
 21
56.148909142565515
  0
LINE
  8
_0-0_
  6
CONTINUOUS
 62
    7
 10
66.506725722355213
 20
56.448499142565595
 11
66.506725722355213
 21
57.3907591425654
  0
LINE
  8
_0-0_
  6
CONTINUOUS
 62
    7
 10
61.506725722355213
 20
58.601769142565388
 11
59.506725722355213
 21
58.601769142565388
  0
LINE
  8
_0-0_
  6
CONTINUOUS
 62
    7
 10
59.506725722355213
 20
62.801769142565661
 11
59.506725722355213
 21
47.801769142565718
  0
LINE
  8
_0-0_
  6
CONTINUOUS
 62
    7
 10
59.506725722355213
 20
47.801769142565718
 11
57.506725722355213
 21
47.801769142565718
  0
LINE
  8
_0-0_
  6
CONTINUOUS
 62
    7
 10
56.506725722355213
 20
48.801769142565718
 11
56.506725722355213
 21
61.801769142565661
  0
LINE
  8
_0-0_
  6
CONTINUOUS
 62
    7
 10
57.506725722355213
 20
62.801769142565661
 11
59.506725722355213
 21
62.801769142565661
  0
ARC
  8
_0-0_
  6
CONTINUOUS
 62
    7
 10
65.506725722355213
 20
57.3907591425654
 40
1
 50
0
 51
87
  0
ARC
  8
_0-0_
  6
CONTINUOUS
 62
    7
 10
65.506725722355213
 20
53.212769142565776
 40
1
 50
273
 51
359.99999999999989
  0
ARC
  8
_0-0_
  6
CONTINUOUS
 62
    7
 10
66.206725722355486
 20
56.448499142565595
 40
0.2999999999999998
 50
273
 51
359.99999999999989
  0
ARC
  8
_0-0_
  6
CONTINUOUS
 62
    7
 10
66.206725722355486
 20
54.155039142565784
 40
0.2999999999999998
 50
0
 51
87
  0
ARC
  8
_0-0_
  6
CONTINUOUS
 62
    7
 10
57.506725722355213
 20
61.801769142565661
 40
1
 50
90
 51
180
  0
ARC
  8
_0-0_
  6
CONTINUOUS
 62
    7
 10
57.506725722355213
 20
48.801769142565718
 40
1
 50
180
 51
270
  0
ARC
  8
_0-0_
  6
CONTINUOUS
 62
    7
 10
62.106725722355122
 20
55.332389142565717
 40
0.5999999999999996
 50
92.999999999999986
 51
180
  0
ARC
  8
_0-0_
  6
CONTINUOUS
 62
    7
 10
62.106725722355122
 20
55.271149142565719
 40
0.5999999999999996
 50
180
 51
267
  0
LINE
  8
_0-0_
  6
CONTINUOUS
 62
    7
 10
15.219122010618321
 20
7.8127331071954131
 11
11.590093503593835
 21
7.8127331071954131
  0
LINE
  8
_0-0_
  6
CONTINUOUS
 62
    7
 10
10.09214920146178
 20
9.234229172830851
 11
9.9046077571060778
 21
12.812733107195413
  0
LINE
  8
_0-0_
  6
CONTINUOUS
 62
    7
 10
8.804607757105714
 20
12.812733107195413
 11
18.004607757105987
 21
12.812733107195413
  0
LINE
  8
_0-0_
  6
CONTINUOUS
 62
    7
 10
25.904607757106078
 20
16.812733107195413
 11
25.904607757106078
 21
14.812733107195413
  0
LINE
  8
_0-0_
  6
CONTINUOUS
 62
    7
 10
16.904607757106078
 20
12.812733107195413
 11
16.717066312750376
 21
9.234229172830851
  0
LINE
  8
_0-0_
  6
CONTINUOUS
 62
    7
 10
0.9046077571060777
 20
14.812733107195413
 11
0.9046077571060777
 21
16.812733107195413
  0
LINE
  8
_0-0_
  6
CONTINUOUS
 62
    7
 10
1.9046077571060778
 20
17.812733107195413
 11
24.904607757106078
 21
17.812733107195413
  0
ARC
  8
_0-0_
  6
CONTINUOUS
 62
    7
 10
18.004607757105987
 20
13.11273310719514
 40
0.2999999999999998
 50
270
 51
0
  0
ARC
  8
_0-0_
  6
CONTINUOUS
 62
    7
 10
8.804607757105714
 20
13.11273310719514
 40
0.2999999999999998
 50
180
 51
270
  0
ARC
  8
_0-0_
  6
CONTINUOUS
 62
    7
 10
15.219122010618321
 20
9.3127331071954131
 40
1.5
 50
270
 51
356.99999999999983
  0
ARC
  8
_0-0_
  6
CONTINUOUS
 62
    7
 10
11.590093503593835
 20
9.3127331071954131
 40
1.5
 50
183.0000000000002
 51
270
  0
ARC
  8
_0-0_
  6
CONTINUOUS
 62
    7
 10
24.904607757106078
 20
16.812733107195413
 40
1
 50
0
 51
90
  0
ARC
  8
_0-0_
  6
CONTINUOUS
 62
    7
 10
1.9046077571060778
 20
16.812733107195413
 40
1
 50
90
 51
180
  0
LINE
  8
_0-0_
  6
CONTINUOUS
 62
    7
 10
25.904607757106078
 20
14.812733107195413
 11
0.9046077571060777
 21
14.812733107195413
  0
LINE
  8
_0-0_
  6
CONTINUOUS
 62
    7
 10
18.304607757106169
 20
14.812733107195413
 11
18.304607757106169
 21
13.11273310719514
  0
LINE
  8
_0-0_
  6
CONTINUOUS
 62
    7
 10
8.5046077571059868
 20
14.812733107195413
 11
8.5046077571059868
 21
13.11273310719514
  0
LINE
  8
_0-1_
  6
CENTER2
 62
  152
 10
17.654597757105876
 20
55.301779142565465
 11
9.154607757105623
 21
55.301779142565465
  0
LINE
  8
_0-1_
  6
CENTER2
 62
  152
 10
13.404597757105876
 20
51.051809142565617
 11
13.404597757105876
 21
59.551799142565358
  0
LINE
  8
_0-1_
  6
CENTER1
 62
  152
 10
66.468165722355252
 20
55.301769142565718
 11
62.686005722355503
 21
55.301769142565718
  0
LINE
  8
_0-1_
  6
CENTER1
 62
  152
 10
61.82325572235527
 20
55.301769142565718
 11
56.506725722355213
 21
55.301769142565718
  0
LINE
  8
_0-1_
  6
CENTER2
 62
  152
 10
13.404597757106217
 20
18.617203148221847
 11
13.404597757106217
 21
6.4820159872764407
  0
ENDSEC
  0
EOF
