  0
SECTION
  2
HEADER
  9
$ACADVER
  1
AC1009
  9
$INSBASE
 10
0
 20
0
 30
0
  9
$EXTMIN
 10
0
 20
0
  9
$EXTMAX
 10
1189
 20
841
  9
$LIMMIN
 10
0
 20
0
  9
$LIMMAX
 10
1189
 20
841
  9
$LTSCALE
 40
1
  0
ENDSEC
  0
SECTION
  2
TABLES
  0
TABLE
  2
LTYPE
 70
     9
  0
LTYPE
  2
CONTINUOUS
 70
    64
  3
実線
 72
    65
 73
     0
 40
0.0
  0
LTYPE
  2
DASHED1
 70
    64
  3
--  --  --  --  --  --  --  --  
 72
    65
 73
     2
 40
2.5
 49
1.25
 49
-1.25
  0
LTYPE
  2
DASHED2
 70
    64
  3
----    ----    ----    ----    
 72
    65
 73
     2
 40
5.0
 49
2.5
 49
-2.5
  0
LTYPE
  2
DASHED3
 70
    64
  3
------  ------  ------  ------  
 72
    65
 73
     2
 40
5.0
 49
3.75
 49
-1.25
  0
LTYPE
  2
CENTER1
 70
    64
  3
----- - ----- - ----- - ----- - 
 72
    65
 73
     4
 40
10.0
 49
6.25
 49
-1.25
 49
1.25
 49
-1.25
  0
LTYPE
  2
CENTER2
 70
    64
  3
----------  --  ----------  --  
 72
    65
 73
     4
 40
20.0
 49
12.5
 49
-2.5
 49
2.5
 49
-2.5
  0
LTYPE
  2
PHANTOM1
 70
    64
  3
--- - - --- - - --- - - --- - - 
 72
    65
 73
     6
 40
10.0
 49
3.25
 49
-1.25
 49
1.25
 49
-1.25
 49
1.25
 49
-1.25
  0
LTYPE
  2
PHANTOM2
 70
    64
  3
--------  -  -  --------  -  -  
 72
    65
 73
     6
 40
20.0
 49
10.0
 49
-2.5
 49
1.25
 49
-2.5
 49
1.25
 49
-2.5
  0
LTYPE
  2
DOT
 70
    64
  3
-   -   -   -   -   -   -   -   
 72
    65
 73
     2
 40
2.5
 49
0.625
 49
-1.875
  0
LTYPE
  2
DUMMY
 70
    64
  3
ダミー
 72
    65
 73
     0
 40
0.0
  0
LTYPE
  2
RAND1
 70
    64
  3
ランダム線1
 72
    65
 73
     4
 40
10.0
 49
1.0
 49
-2.0
 49
3.0
 49
-4.0
  0
LTYPE
  2
RAND2
 70
    64
  3
ランダム線2
 72
    65
 73
     4
 40
14.0
 49
2.0
 49
-3.0
 49
4.0
 49
-5.0
  0
LTYPE
  2
RAND3
 70
    64
  3
ランダム線3
 72
    65
 73
     4
 40
18.0
 49
3.0
 49
-4.0
 49
5.0
 49
-6.0
  0
LTYPE
  2
RAND4
 70
    64
  3
ランダム線4
 72
    65
 73
     4
 40
22.0
 49
4.0
 49
-5.0
 49
6.0
 49
-7.0
  0
LTYPE
  2
RAND5
 70
    64
  3
ランダム線5
 72
    65
 73
     4
 40
26.0
 49
5.0
 49
-6.0
 49
7.0
 49
-8.0
  0
LTYPE
  2
LONG1
 70
    64
  3
----------  --  ----------  --  
 72
    65
 73
     4
 40
40.0
 49
32.5
 49
-2.5
 49
2.5
 49
-2.5
  0
LTYPE
  2
LONG2
 70
    64
  3
--------  -  -  --------  -  -  
 72
    65
 73
     6
 40
40.0
 49
30.0
 49
-2.5
 49
1.25
 49
-2.5
 49
1.25
 49
-2.5
  0
LTYPE
  2
LONG3
 70
    64
  3
+++++++++++++++..+++++++++++++++
 72
    65
 73
     2
 40
40.0
 49
37.5
 49
-2.5
  0
LTYPE
  2
LONG4
 70
    64
  3
+++++++++++++++..+++++++++++++++
 72
    65
 73
     2
 40
80.0
 49
75.0
 49
-5.0
  0
LTYPE
  2
LONG5
 70
    64
  3
----------  --  ----------  --  
 72
    65
 73
     4
 40
60.0
 49
37.5
 49
-7.5
 49
7.5
 49
-7.5
  0
LTYPE
  2
dashed
 70
   64
  3
-------   -------------   ------
 72
   65
 73
    2
 40
7.5
 49
6
 49
-1.5
  0
LTYPE
  2
dashed_spaced
 70
   64
  3
----        --------        ----
 72
   65
 73
    2
 40
12
 49
6
 49
-6
  0
LTYPE
  2
long_dashed_dotted
 70
   64
  3
------------- --- --------------
 72
   65
 73
    4
 40
15.25
 49
12
 49
-1.5
 49
0.25
 49
-1.5
  0
LTYPE
  2
long_dashed_double-dotted
 70
   64
  3
----------- --- --- ------------
 72
   65
 73
    6
 40
17
 49
12
 49
-1.5
 49
0.25
 49
-1.5
 49
0.25
 49
-1.5
  0
LTYPE
  2
long_dashed_triplicate-dotted
 70
   64
  3
--------- --- --- --- ----------
 72
   65
 73
    8
 40
18.75
 49
12
 49
-1.5
 49
0.25
 49
-1.5
 49
0.25
 49
-1.5
 49
0.25
 49
-1.5
  0
LTYPE
  2
dotted
 70
   64
  3
   -       -       -       -    
 72
   65
 73
    2
 40
1.75
 49
0.25
 49
-1.5
  0
LTYPE
  2
chain
 70
   64
  3
-------------- -- --------------
 72
   65
 73
    4
 40
18.5
 49
12
 49
-1.5
 49
3.5
 49
-1.5
  0
LTYPE
  2
chain_double_dash
 70
   64
  3
------------ -- -- -------------
 72
   65
 73
    6
 40
23.5
 49
12
 49
-1.5
 49
3.5
 49
-1.5
 49
3.5
 49
-1.5
  0
LTYPE
  2
dashed_dotted
 70
   64
  3
-----------     -     ----------
 72
   65
 73
    4
 40
9.25
 49
6
 49
-1.5
 49
0.25
 49
-1.5
  0
LTYPE
  2
double-dashed_dotted
 70
   64
  3
------   -----------   -   -----
 72
   65
 73
    6
 40
16.75
 49
6
 49
-1.5
 49
6
 49
-1.5
 49
0.25
 49
-1.5
  0
LTYPE
  2
dashed_double-dotted
 70
   64
  3
---------    -    -    ---------
 72
   65
 73
    6
 40
11
 49
6
 49
-1.5
 49
0.25
 49
-1.5
 49
0.25
 49
-1.5
  0
LTYPE
  2
double-dashed_double-dotted
 70
   64
  3
-----   ---------   -   -   ----
 72
   65
 73
    8
 40
18.5
 49
6
 49
-1.5
 49
6
 49
-1.5
 49
0.25
 49
-1.5
 49
0.25
 49
-1.5
  0
LTYPE
  2
dashed_triplicate-dotted
 70
   64
  3
-------    -    -    -    ------
 72
   65
 73
    8
 40
12.75
 49
6
 49
-1.5
 49
0.25
 49
-1.5
 49
0.25
 49
-1.5
 49
0.25
 49
-1.5
  0
LTYPE
  2
double-dashed_triplicate-dotted
 70
   64
  3
-----  ---------  -  -  -  -----
 72
   65
 73
   10
 40
20.25
 49
6
 49
-1.5
 49
6
 49
-1.5
 49
0.25
 49
-1.5
 49
0.25
 49
-1.5
 49
0.25
 49
-1.5
  0
LTYPE
  2
undefined
 70
   64
  3
--------------------------------
 72
   65
 73
    0
 40
0
  0
ENDTAB
  0
TABLE
  2
STYLE
  5
3
100
AcDbSymbolTable
 70
     1
  0
STYLE
  5
10
100
AcDbSymbolTableRecord
100
AcDbTextStyleTableRecord
  2
STANDARD
 70
     0
 40
0.0
 41
1.0
 50
0.0
 71
     0
 42
0.2
  3
txt
  4
bigfont.shx
  0
STYLE
  5
26
100
AcDbSymbolTableRecord
100
AcDbTextStyleTableRecord
  2
TATEGAKI
 70
    68
 40
0.0
 41
1.0
 50
0.0
 71
     0
 42
1.0
  3
txt
  4
bigfont.shx
  0
ENDTAB
  0
TABLE
  2
LAYER
 70
    4
  0
LAYER
  2
_0-0_
 70
   64
 62
    7
  6
CONTINUOUS
  0
LAYER
  2
_0-1_
 70
   64
 62
    7
  6
CONTINUOUS
  0
LAYER
  2
_0-f_
 70
   64
 62
    7
  6
CONTINUOUS
  0
LAYER
  2
ADD_LINE
 70
   64
 62
    7
  6
CONTINUOUS
  0
ENDTAB
  0
ENDSEC
  0
SECTION
  2
BLOCKS
  0
ENDSEC
  0
SECTION
  2
ENTITIES
  0
LINE
  8
_0-0_
  6
CONTINUOUS
 62
  152
 10
6.7124689732205525
 20
86.741155686053617
 11
7.3751817115595486
 21
86.078442947714848
  0
LINE
  8
_0-0_
  6
CONTINUOUS
 62
  152
 10
7.654654336399858
 20
86.098970322874493
 11
20.054654336399949
 21
86.098970322874493
  0
LINE
  8
_0-0_
  6
CONTINUOUS
 62
  152
 10
20.334126961240258
 20
86.078442947714848
 11
20.9968396995788
 21
86.741155686053617
  0
LINE
  8
_0-0_
  6
CONTINUOUS
 62
    7
 10
21.354654336399676
 20
86.098970322874493
 11
21.354654336399676
 21
68.098970322874493
  0
LINE
  8
_0-0_
  6
CONTINUOUS
 62
  152
 10
20.9968396995788
 20
67.456784959695369
 11
20.334126961240258
 21
68.119497698033911
  0
LINE
  8
_0-0_
  6
CONTINUOUS
 62
  152
 10
20.054654336399949
 20
68.098970322874493
 11
7.654654336399858
 21
68.098970322874493
  0
LINE
  8
_0-0_
  6
CONTINUOUS
 62
  152
 10
7.3751817115595486
 20
68.119497698033911
 11
6.7124689732205525
 21
67.456784959695369
  0
LINE
  8
_0-0_
  6
CONTINUOUS
 62
    7
 10
6.3546543363996761
 20
68.098970322874493
 11
6.3546543363996761
 21
86.098970322874493
  0
LINE
  8
_0-0_
  6
CONTINUOUS
 62
  152
 10
7.3546543363996761
 20
85.798970322874311
 11
7.3546543363996761
 21
68.398970322874447
  0
LINE
  8
_0-0_
  6
CONTINUOUS
 62
    7
 10
7.3546543363996761
 20
67.098970322874493
 11
20.354654336399676
 21
67.098970322874493
  0
LINE
  8
_0-0_
  6
CONTINUOUS
 62
  152
 10
20.354654336399676
 20
68.398970322874447
 11
20.354654336399676
 21
85.798970322874311
  0
LINE
  8
_0-0_
  6
CONTINUOUS
 62
    7
 10
20.354654336399676
 20
87.098970322874493
 11
7.3546543363996761
 21
87.098970322874493
  0
LINE
  8
_0-1_
  6
CENTER1
 62
  152
 10
13.854654336399676
 20
87.098970322874493
 11
13.854654336399676
 21
67.098970322874493
  0
LINE
  8
_0-0_
  6
CONTINUOUS
 62
  152
 10
13.711465573615556
 20
69.608581565919849
 11
13.711465573615556
 21
71.650142808519831
  0
LINE
  8
_0-0_
  6
CONTINUOUS
 62
  152
 10
13.711465573615556
 20
71.650142808519831
 11
15.141180365160039
 21
71.650142808519831
  0
LINE
  8
_0-0_
  6
CONTINUOUS
 62
  152
 10
15.141180365160039
 20
71.650142808519831
 11
15.141180365160039
 21
71.286184871768683
  0
LINE
  8
_0-0_
  6
CONTINUOUS
 62
  152
 10
15.141180365160039
 20
71.286184871768683
 11
14.218765659055521
 21
71.286184871768683
  0
LINE
  8
_0-0_
  6
CONTINUOUS
 62
  152
 10
14.218765659055521
 20
71.286184871768683
 11
14.218765659055521
 21
70.812740557829784
  0
LINE
  8
_0-0_
  6
CONTINUOUS
 62
  152
 10
14.218765659055521
 20
70.812740557829784
 11
15.05321933403286
 21
70.812740557829784
  0
LINE
  8
_0-0_
  6
CONTINUOUS
 62
  152
 10
15.05321933403286
 20
70.812740557829784
 11
15.05321933403286
 21
70.471089479849752
  0
LINE
  8
_0-0_
  6
CONTINUOUS
 62
  152
 10
15.05321933403286
 20
70.471089479849752
 11
14.218765659055521
 21
70.471089479849752
  0
LINE
  8
_0-0_
  6
CONTINUOUS
 62
  152
 10
14.218765659055521
 20
70.471089479849752
 11
14.218765659055521
 21
69.972539502699874
  0
LINE
  8
_0-0_
  6
CONTINUOUS
 62
  152
 10
14.218765659055521
 20
69.972539502699874
 11
15.141180365160039
 21
69.972539502699874
  0
LINE
  8
_0-0_
  6
CONTINUOUS
 62
  152
 10
15.141180365160039
 20
69.972539502699874
 11
15.141180365160039
 21
69.608581565919849
  0
LINE
  8
_0-0_
  6
CONTINUOUS
 62
  152
 10
15.141180365160039
 20
69.608581565919849
 11
13.711465573615556
 21
69.608581565919849
  0
LINE
  8
_0-0_
  6
CONTINUOUS
 62
  152
 10
13.318669267437258
 20
69.608581565919849
 11
11.889326491123143
 21
69.608581565919849
  0
LINE
  8
_0-0_
  6
CONTINUOUS
 62
  152
 10
11.889326491123143
 20
69.608581565919849
 11
11.889326491123143
 21
71.650142808519831
  0
LINE
  8
_0-0_
  6
CONTINUOUS
 62
  152
 10
11.889326491123143
 20
71.650142808519831
 11
12.398432019522829
 21
71.650142808519831
  0
LINE
  8
_0-0_
  6
CONTINUOUS
 62
  152
 10
12.398432019522829
 20
71.650142808519831
 11
12.398432019522829
 21
69.972539502699874
  0
LINE
  8
_0-0_
  6
CONTINUOUS
 62
  152
 10
12.398432019522829
 20
69.972539502699874
 11
13.318669267437258
 21
69.972539502699874
  0
LINE
  8
_0-0_
  6
CONTINUOUS
 62
  152
 10
13.318669267437258
 20
69.972539502699874
 11
13.318669267437258
 21
69.608581565919849
  0
LINE
  8
_0-0_
  6
CONTINUOUS
 62
    7
 10
11.654654336399858
 20
69.098970322874493
 11
19.054654336399949
 21
69.098970322874493
  0
LINE
  8
_0-0_
  6
CONTINUOUS
 62
    7
 10
19.354654336399676
 20
69.398970322874447
 11
19.354654336399676
 21
71.798970322874311
  0
LINE
  8
_0-0_
  6
CONTINUOUS
 62
    7
 10
19.054654336399949
 20
72.098970322874493
 11
11.654654336399858
 21
72.098970322874493
  0
LINE
  8
_0-0_
  6
CONTINUOUS
 62
    7
 10
11.354654336399676
 20
71.798970322874311
 11
11.354654336399676
 21
69.398970322874447
  0
LINE
  8
_0-0_
  6
CONTINUOUS
 62
  152
 10
16.447153138718591
 20
70.304767981959913
 11
16.978142544181196
 21
70.304767981959913
  0
LINE
  8
_0-0_
  6
CONTINUOUS
 62
  152
 10
16.964723047779557
 20
71.040428601999793
 11
16.444622401642505
 21
71.040428601999793
  0
LINE
  8
_0-0_
  6
CONTINUOUS
 62
    7
 10
14.35203433639947
 20
77.350670322874748
 11
14.35203433639947
 21
78.364730322874721
  0
LINE
  8
_0-0_
  6
CONTINUOUS
 62
    7
 10
13.357234336399529
 20
78.364730322874721
 11
13.357234336399529
 21
77.350670322874748
  0
LINE
  8
_0-0_
  6
CONTINUOUS
 62
    7
 10
12.620394336399954
 20
79.10157032287475
 11
11.606314336400033
 21
79.10157032287475
  0
LINE
  8
_0-0_
  6
CONTINUOUS
 62
    7
 10
11.606314336400033
 20
80.09632032287459
 11
12.620394336399954
 21
80.09632032287459
  0
LINE
  8
_0-0_
  6
CONTINUOUS
 62
    7
 10
13.357234336399529
 20
80.833160322874619
 11
13.357234336399529
 21
81.847270322874692
  0
LINE
  8
_0-0_
  6
CONTINUOUS
 62
    7
 10
14.35203433639947
 20
81.847270322874692
 11
14.35203433639947
 21
80.833160322874619
  0
LINE
  8
_0-0_
  6
CONTINUOUS
 62
    7
 10
15.088874336399954
 20
80.09632032287459
 11
16.102914336399976
 21
80.09632032287459
  0
LINE
  8
_0-0_
  6
CONTINUOUS
 62
    7
 10
16.102914336399976
 20
79.10157032287475
 11
15.088874336399954
 21
79.10157032287475
  0
LINE
  8
_0-1_
  6
CENTER1
 62
  152
 10
21.354654336399676
 20
79.598970322874493
 11
6.3546543363996761
 21
79.598970322874493
  0
LINE
  8
_0-0_
  6
CONTINUOUS
 62
    7
 10
6.3546543363996761
 20
49.02178526272229
 11
6.3546543363996761
 21
47.02178526272229
  0
LINE
  8
_0-0_
  6
CONTINUOUS
 62
    7
 10
6.3546543363996761
 20
47.02178526272229
 11
21.354654336399676
 21
47.02178526272229
  0
LINE
  8
_0-0_
  6
CONTINUOUS
 62
    7
 10
21.354654336399676
 20
47.02178526272229
 11
21.354654336399676
 21
49.02178526272229
  0
LINE
  8
_0-0_
  6
CONTINUOUS
 62
    7
 10
20.354654336399676
 20
50.02178526272229
 11
7.3546543363996761
 21
50.02178526272229
  0
LINE
  8
_0-0_
  6
CONTINUOUS
 62
    7
 10
7.6546543364000854
 20
47.02178526272229
 11
7.7445704045542243
 21
45.306084475849389
  0
LINE
  8
_0-0_
  6
CONTINUOUS
 62
    7
 10
8.0441592649806353
 20
45.02178526272229
 11
19.665149407819172
 21
45.02178526272229
  0
LINE
  8
_0-0_
  6
CONTINUOUS
 62
    7
 10
19.964738268245583
 20
45.306084475849389
 11
20.054654336399722
 21
47.02178526272229
  0
LINE
  8
_0-0_
  6
CONTINUOUS
 62
    7
 10
18.554654336399722
 20
47.02178526272229
 11
18.554654336399722
 21
45.02178526272229
  0
LINE
  8
_0-0_
  6
CONTINUOUS
 62
    7
 10
17.354654336399676
 20
45.02178526272229
 11
17.167112892043974
 21
41.443281328357727
  0
LINE
  8
_0-0_
  6
CONTINUOUS
 62
    7
 10
15.669168589911919
 20
40.02178526272229
 11
12.040140082887433
 21
40.02178526272229
  0
LINE
  8
_0-1_
  6
CENTER1
 62
  152
 10
13.854654336399676
 20
40.02178526272229
 11
13.854654336399676
 21
50.02178526272229
  0
LINE
  8
_0-0_
  6
CONTINUOUS
 62
    7
 10
15.956578125399801
 20
47.02178526272229
 11
15.956578125399801
 21
45.02178526272229
  0
LINE
  8
_0-0_
  6
CONTINUOUS
 62
    7
 10
11.752730547399551
 20
45.02178526272229
 11
11.752730547399551
 21
47.02178526272229
  0
LINE
  8
_0-0_
  6
CONTINUOUS
 62
    7
 10
9.1546543363996307
 20
47.02178526272229
 11
9.1546543363996307
 21
45.02178526272229
  0
LINE
  8
_0-0_
  6
CONTINUOUS
 62
    7
 10
10.354654336399676
 20
45.02178526272229
 11
10.542195780755378
 21
41.443281328357727
  0
LINE
  8
_0-0_
  6
CONTINUOUS
 62
    7
 10
7.3546543363996761
 20
26.761409486129139
 11
20.354654336399676
 21
26.761409486129139
  0
LINE
  8
_0-0_
  6
CONTINUOUS
 62
    7
 10
19.954654336399699
 20
25.361409486129105
 11
7.7546543363996534
 21
25.361409486129105
  0
LINE
  8
_0-0_
  6
CONTINUOUS
 62
    7
 10
7.7546543363996534
 20
25.361409486129105
 11
7.7546543363996534
 21
19.761409486129082
  0
LINE
  8
_0-0_
  6
CONTINUOUS
 62
    7
 10
7.7546543363996534
 20
19.761409486129082
 11
7.1546543363996307
 21
19.761409486129082
  0
LINE
  8
_0-0_
  6
CONTINUOUS
 62
    7
 10
7.1546543363996307
 20
19.761409486129082
 11
7.1546543363996307
 21
8.1614094861291164
  0
LINE
  8
_0-0_
  6
CONTINUOUS
 62
    7
 10
7.1546543363996307
 20
8.1614094861291164
 11
20.554654336399722
 21
8.1614094861291164
  0
LINE
  8
_0-0_
  6
CONTINUOUS
 62
    7
 10
20.554654336399722
 20
8.1614094861291164
 11
20.554654336399722
 21
19.761409486129082
  0
LINE
  8
_0-0_
  6
CONTINUOUS
 62
    7
 10
20.554654336399722
 20
19.761409486129082
 11
19.954654336399699
 21
19.761409486129082
  0
LINE
  8
_0-0_
  6
CONTINUOUS
 62
    7
 10
19.954654336399699
 20
19.761409486129082
 11
19.954654336399699
 21
25.361409486129105
  0
LINE
  8
_0-0_
  6
CONTINUOUS
 62
    7
 10
21.354654336399676
 20
25.761409486129139
 11
21.354654336399676
 21
7.7614094861291392
  0
LINE
  8
_0-0_
  6
CONTINUOUS
 62
    7
 10
20.354654336399676
 20
6.7614094861291392
 11
7.3546543363996761
 21
6.7614094861291392
  0
LINE
  8
_0-0_
  6
CONTINUOUS
 62
    7
 10
6.3546543363996761
 20
7.7614094861291392
 11
6.3546543363996761
 21
25.761409486129139
  0
LINE
  8
_0-0_
  6
CONTINUOUS
 62
    7
 10
7.6546543363996307
 20
18.661409486129116
 11
7.6546543363996307
 21
17.728335698296632
  0
LINE
  8
_0-0_
  6
CONTINUOUS
 62
    7
 10
7.6948467152642479
 20
17.578335698296598
 11
8.1144619575350134
 21
16.851540779053494
  0
LINE
  8
_0-0_
  6
CONTINUOUS
 62
    7
 10
8.1546543363996307
 20
16.70154077905346
 11
8.1546543363996307
 21
11.821278193204307
  0
LINE
  8
_0-0_
  6
CONTINUOUS
 62
    7
 10
8.1144619575350134
 20
11.67127819320433
 11
7.6948467152642479
 21
10.944483273961168
  0
LINE
  8
_0-0_
  6
CONTINUOUS
 62
    7
 10
7.6546543363996307
 20
10.794483273961134
 11
7.6546543363996307
 21
9.8614094861287072
  0
LINE
  8
_0-0_
  6
CONTINUOUS
 62
    7
 10
8.1546543363996307
 20
9.3614094861287072
 11
9.0742695786702825
 21
9.3614094861287072
  0
LINE
  8
_0-0_
  6
CONTINUOUS
 62
    7
 10
9.2242695786702598
 20
9.4016018649933812
 11
11.683115305482261
 21
10.821217107264033
  0
LINE
  8
_0-0_
  6
CONTINUOUS
 62
    7
 10
10.654654336399858
 20
10.861409486128707
 11
17.054654336399494
 21
10.861409486128707
  0
LINE
  8
_0-0_
  6
CONTINUOUS
 62
    7
 10
17.354654336399676
 20
11.161409486128662
 11
17.354654336399676
 21
13.361409486128821
  0
LINE
  8
_0-0_
  6
CONTINUOUS
 62
    7
 10
17.054654336399494
 20
13.661409486128775
 11
10.654654336399858
 21
13.661409486128775
  0
LINE
  8
_0-0_
  6
CONTINUOUS
 62
    7
 10
10.354654336399676
 20
13.361409486128821
 11
10.354654336399676
 21
11.161409486128662
  0
LINE
  8
_0-0_
  6
CONTINUOUS
 62
    7
 10
10.354654336399676
 20
15.161409486129003
 11
10.354654336399676
 21
17.361409486129105
  0
LINE
  8
_0-0_
  6
CONTINUOUS
 62
    7
 10
10.654654336399858
 20
17.66140948612906
 11
17.054654336399494
 21
17.66140948612906
  0
LINE
  8
_0-0_
  6
CONTINUOUS
 62
    7
 10
17.354654336399676
 20
17.361409486129105
 11
17.354654336399676
 21
15.161409486129003
  0
LINE
  8
_0-0_
  6
CONTINUOUS
 62
    7
 10
17.054654336399494
 20
14.861409486129048
 11
10.654654336399858
 21
14.861409486129048
  0
LINE
  8
_0-0_
  6
CONTINUOUS
 62
    7
 10
11.683115305482261
 20
17.701601864993734
 11
9.2242695786703734
 21
19.121217107264442
  0
LINE
  8
_0-0_
  6
CONTINUOUS
 62
    7
 10
9.0742695786702825
 20
19.161409486129116
 11
8.1546543363996307
 21
19.161409486129116
  0
LINE
  8
_0-1_
  6
CENTER1
 62
  152
 10
6.3546543363996761
 20
14.261409486128912
 11
21.354654336399676
 21
14.261409486128912
  0
LINE
  8
_0-0_
  6
CONTINUOUS
 62
    7
 10
19.554654336399722
 20
16.70154077905346
 11
19.554654336399722
 21
11.821278193204307
  0
LINE
  8
_0-0_
  6
CONTINUOUS
 62
    7
 10
19.594846715264339
 20
11.67127819320433
 11
20.014461957535104
 21
10.944483273961168
  0
LINE
  8
_0-0_
  6
CONTINUOUS
 62
    7
 10
20.054654336399722
 20
10.794483273961134
 11
20.054654336399722
 21
9.8614094861287072
  0
LINE
  8
_0-0_
  6
CONTINUOUS
 62
    7
 10
19.554654336399722
 20
9.3614094861287072
 11
18.63503909412907
 21
9.3614094861287072
  0
LINE
  8
_0-0_
  6
CONTINUOUS
 62
    7
 10
18.485039094128979
 20
9.4016018649933812
 11
16.026193367317092
 21
10.821217107264033
  0
LINE
  8
_0-1_
  6
CENTER1
 62
  152
 10
13.854654336399676
 20
6.7614094861291392
 11
13.854654336399676
 21
26.761409486129139
  0
LINE
  8
_0-0_
  6
CONTINUOUS
 62
    7
 10
16.026193367317092
 20
17.701601864993734
 11
18.554654336399722
 21
19.161409486129116
  0
LINE
  8
_0-0_
  6
CONTINUOUS
 62
    7
 10
18.63503909412907
 20
19.161409486129116
 11
19.554654336399722
 21
19.161409486129116
  0
LINE
  8
_0-0_
  6
CONTINUOUS
 62
    7
 10
20.054654336399722
 20
18.661409486129116
 11
20.054654336399722
 21
17.728335698296632
  0
LINE
  8
_0-0_
  6
CONTINUOUS
 62
    7
 10
20.014461957535104
 20
17.578335698296598
 11
19.594846715264339
 21
16.851540779053494
  0
LINE
  8
_0-0_
  6
CONTINUOUS
 62
    7
 10
49.452165177012716
 20
67.098970322874436
 11
51.452165177012716
 21
67.098970322874436
  0
LINE
  8
_0-0_
  6
CONTINUOUS
 62
    7
 10
51.452165177012716
 20
67.098970322874436
 11
51.452165177012716
 21
87.098970322874209
  0
LINE
  8
_0-0_
  6
CONTINUOUS
 62
    7
 10
51.452165177012716
 20
87.098970322874209
 11
49.452165177012716
 21
87.098970322874209
  0
LINE
  8
_0-0_
  6
CONTINUOUS
 62
    7
 10
48.452165177012716
 20
86.098970322874209
 11
48.452165177012716
 21
68.098970322874436
  0
LINE
  8
_0-0_
  6
CONTINUOUS
 62
    7
 10
51.452165177012716
 20
74.698970322874459
 11
53.167865963885561
 21
74.788886391028655
  0
LINE
  8
_0-0_
  6
CONTINUOUS
 62
    7
 10
53.452165177012716
 20
75.088475251455009
 11
53.452165177012716
 21
84.109465394293863
  0
LINE
  8
_0-0_
  6
CONTINUOUS
 62
    7
 10
53.167865963885561
 20
84.409054254720218
 11
51.452165177012716
 21
84.498970322874413
  0
LINE
  8
_0-0_
  6
CONTINUOUS
 62
    7
 10
51.452165177012716
 20
83.065896534874639
 11
53.452165177012716
 21
83.065896534874639
  0
LINE
  8
_0-0_
  6
CONTINUOUS
 62
    7
 10
53.452165177012716
 20
82.998970322874186
 11
57.50450113325553
 21
82.786596394498986
  0
LINE
  8
_0-0_
  6
CONTINUOUS
 62
    7
 10
58.452165177012716
 20
81.787966859744586
 11
58.452165177012716
 21
80.7456985893038
  0
LINE
  8
_0-0_
  6
CONTINUOUS
 62
    7
 10
58.167865963885674
 20
80.446109728877389
 11
53.452165177012716
 21
80.198970322874231
  0
LINE
  8
_0-0_
  6
CONTINUOUS
 62
    7
 10
53.452165177012716
 20
78.998970322874754
 11
58.167865963885674
 21
78.751830916871029
  0
LINE
  8
_0-0_
  6
CONTINUOUS
 62
    7
 10
58.452165177012716
 20
78.452242056444618
 11
58.452165177012716
 21
77.409973786004741
  0
LINE
  8
_0-0_
  6
CONTINUOUS
 62
    7
 10
57.504501133255758
 20
76.411344251249886
 11
53.452165177012716
 21
76.198970322874231
  0
LINE
  8
_0-0_
  6
CONTINUOUS
 62
    7
 10
53.452165177012716
 20
76.132044110874233
 11
51.452165177012716
 21
76.132044110874233
  0
LINE
  8
_0-0_
  6
CONTINUOUS
 62
    7
 10
51.452165177012716
 20
77.15883902987423
 11
53.452165177012716
 21
77.15883902987423
  0
LINE
  8
_0-0_
  6
CONTINUOUS
 62
    7
 10
53.452165177012716
 20
82.039101615874642
 11
51.452165177012716
 21
82.039101615874642
  0
LINE
  8
_0-1_
  6
CENTER1
 62
  152
 10
46.775102237719125
 20
79.598970322874436
 11
60.843544629180087
 21
79.598970322874436
  0
ARC
  8
_0-0_
  6
CONTINUOUS
 62
  152
 10
17.913173831866175
 20
70.62936218721984
 40
2.3989863444973807
 50
164.21600247589294
 51
195.78399752410706
  0
ARC
  8
_0-0_
  6
CONTINUOUS
 62
  152
 10
22.150344429832899
 20
70.62936218721552
 40
6.0927389498109967
 50
176.78919008197266
 51
183.21080991802734
  0
ARC
  8
_0-0_
  6
CONTINUOUS
 62
  152
 10
16.145264312318091
 20
70.164208515026758
 40
0.5721789663386138
 50
199.11812031409383
 51
253.77089632225113
  0
ARC
  8
_0-0_
  6
CONTINUOUS
 62
  152
 10
16.257195516860179
 20
70.683705995622404
 40
1.102902967963006
 50
255.7307072235771
 51
284.2692927764229
  0
ARC
  8
_0-0_
  6
CONTINUOUS
 62
  152
 10
16.369126721402267
 20
70.164208515026758
 40
0.5721789663386138
 50
286.22910367774887
 51
340.8818796859062
  0
ARC
  8
_0-0_
  6
CONTINUOUS
 62
  152
 10
14.601217201854183
 20
70.62936218721984
 40
2.3989863444973807
 50
344.21600247589294
 51
352.22375855280194
  0
ARC
  8
_0-0_
  6
CONTINUOUS
 62
  152
 10
16.257195516860179
 20
70.096711042816196
 40
0.1658629864205163
 50
198.7809348325886
 51
341.21906516741143
  0
ARC
  8
_0-0_
  6
CONTINUOUS
 62
  152
 10
15.520986923588339
 20
70.288600468106324
 40
0.9263073175532966
 50
344.64474174215434
 51
1.0000756008749376
  0
ARC
  8
_0-0_
  6
CONTINUOUS
 62
  152
 10
16.993404110131564
 20
70.288600468106324
 40
0.9263073175532966
 50
179.28077569259486
 51
195.35525825784566
  0
ARC
  8
_0-0_
  6
CONTINUOUS
 62
  152
 10
16.257195516860179
 20
71.162013331623257
 40
0.1658629864205163
 50
18.780934832588589
 51
161.2190651674114
  0
ARC
  8
_0-0_
  6
CONTINUOUS
 62
  152
 10
16.993404110131564
 20
70.970123906333356
 40
0.9263073175532966
 50
164.64474174215434
 51
180.71922430740514
  0
ARC
  8
_0-0_
  6
CONTINUOUS
 62
  152
 10
15.520986923588339
 20
70.970123906333356
 40
0.9263073175532966
 50
4.3528100028009122
 51
15.355258257845675
  0
ARC
  8
_0-0_
  6
CONTINUOUS
 62
  152
 10
16.369126721402267
 20
71.094515859412923
 40
0.5721789663386138
 50
19.118120314093822
 51
73.770896322251133
  0
ARC
  8
_0-0_
  6
CONTINUOUS
 62
  152
 10
14.601217201854183
 20
70.62936218721984
 40
2.3989863444973807
 50
9.8663227198208787
 51
15.783997524107056
  0
ARC
  8
_0-0_
  6
CONTINUOUS
 62
  152
 10
16.257195516860179
 20
70.575018378817276
 40
1.102902967963006
 50
75.730707223577113
 51
104.2692927764229
  0
ARC
  8
_0-0_
  6
CONTINUOUS
 62
  152
 10
16.145264312318091
 20
71.094515859412923
 40
0.5721789663386138
 50
106.22910367774887
 51
160.88187968590617
  0
ARC
  8
_0-0_
  6
CONTINUOUS
 62
  152
 10
19.702466131895676
 20
70.62936218721984
 40
2.3989863444973807
 50
164.21600247589294
 51
195.78399752410706
  0
ARC
  8
_0-0_
  6
CONTINUOUS
 62
  152
 10
23.9396367298624
 20
70.62936218721552
 40
6.0927389498109967
 50
176.78919008197266
 51
183.21080991802734
  0
ARC
  8
_0-0_
  6
CONTINUOUS
 62
  152
 10
12.153338903916506
 20
70.62936218721552
 40
6.0927389498109967
 50
356.78919008197266
 51
3.2108099180273357
  0
ARC
  8
_0-0_
  6
CONTINUOUS
 62
  152
 10
18.04648781688968
 20
70.096711042816196
 40
0.1658629864205163
 50
198.7809348325886
 51
341.21906516741143
  0
ARC
  8
_0-0_
  6
CONTINUOUS
 62
  152
 10
18.04648781688968
 20
70.683705995622404
 40
1.102902967963006
 50
255.7307072235771
 51
284.2692927764229
  0
ARC
  8
_0-0_
  6
CONTINUOUS
 62
  152
 10
18.158419021431314
 20
70.164208515026758
 40
0.5721789663386138
 50
286.22910367774887
 51
340.8818796859062
  0
ARC
  8
_0-0_
  6
CONTINUOUS
 62
  152
 10
17.934556612347592
 20
70.164208515026758
 40
0.5721789663386138
 50
199.11812031409383
 51
253.77089632225113
  0
ARC
  8
_0-0_
  6
CONTINUOUS
 62
  152
 10
16.39050950188323
 20
70.62936218721984
 40
2.3989863444973807
 50
344.21600247589294
 51
15.783997524107056
  0
ARC
  8
_0-0_
  6
CONTINUOUS
 62
  152
 10
17.310279223618295
 20
70.288600468106324
 40
0.9263073175532966
 50
344.64474174215434
 51
0.7192243074051302
  0
ARC
  8
_0-0_
  6
CONTINUOUS
 62
  152
 10
18.782696410161066
 20
70.288600468106324
 40
0.9263073175532966
 50
179.28077569259486
 51
195.35525825784566
  0
ARC
  8
_0-0_
  6
CONTINUOUS
 62
  152
 10
18.782696410161066
 20
70.970123906333356
 40
0.9263073175532966
 50
164.64474174215434
 51
180.71922430740514
  0
ARC
  8
_0-0_
  6
CONTINUOUS
 62
  152
 10
18.04648781688968
 20
71.162013331623257
 40
0.1658629864205163
 50
18.780934832588589
 51
161.2190651674114
  0
ARC
  8
_0-0_
  6
CONTINUOUS
 62
  152
 10
17.310279223618295
 20
70.970123906333356
 40
0.9263073175532966
 50
359.28077569259489
 51
15.355258257845675
  0
ARC
  8
_0-0_
  6
CONTINUOUS
 62
  152
 10
18.04648781688968
 20
70.575018378817276
 40
1.102902967963006
 50
75.730707223577113
 51
104.2692927764229
  0
ARC
  8
_0-0_
  6
CONTINUOUS
 62
  152
 10
17.934556612347592
 20
71.094515859412923
 40
0.5721789663386138
 50
106.22910367774887
 51
160.88187968590617
  0
ARC
  8
_0-0_
  6
CONTINUOUS
 62
  152
 10
18.158419021431314
 20
71.094515859412923
 40
0.5721789663386138
 50
19.118120314093822
 51
73.770896322251133
  0
ARC
  8
_0-0_
  6
CONTINUOUS
 62
    7
 10
11.654654336399858
 20
71.798970322874311
 40
0.3
 50
90
 51
180
  0
ARC
  8
_0-0_
  6
CONTINUOUS
 62
    7
 10
11.654654336399858
 20
69.398970322874447
 40
0.3
 50
180
 51
270
  0
ARC
  8
_0-0_
  6
CONTINUOUS
 62
    7
 10
19.054654336399949
 20
71.798970322874311
 40
0.3
 50
0
 51
90
  0
ARC
  8
_0-0_
  6
CONTINUOUS
 62
    7
 10
19.054654336399949
 20
69.398970322874447
 40
0.3
 50
270
 51
0
  0
CIRCLE
  8
_0-0_
  6
CONTINUOUS
 62
    7
 10
13.854654336399676
 20
79.598970322874493
 40
3.5499999999999994
  0
ARC
  8
_0-0_
  6
CONTINUOUS
 62
  152
 10
20.054654336399949
 20
68.398970322874447
 40
0.3
 50
270
 51
0
  0
ARC
  8
_0-0_
  6
CONTINUOUS
 62
    7
 10
20.354654336399676
 20
68.098970322874493
 40
1
 50
270
 51
0
  0
ARC
  8
_0-0_
  6
CONTINUOUS
 62
  152
 10
20.054654336399949
 20
85.798970322874311
 40
0.3
 50
0
 51
90.000000000000014
  0
ARC
  8
_0-0_
  6
CONTINUOUS
 62
    7
 10
20.354654336399676
 20
86.098970322874493
 40
1
 50
0
 51
90.000000000000014
  0
ARC
  8
_0-0_
  6
CONTINUOUS
 62
  152
 10
7.654654336399858
 20
68.398970322874447
 40
0.3
 50
180
 51
270
  0
ARC
  8
_0-0_
  6
CONTINUOUS
 62
    7
 10
7.3546543363996761
 20
68.098970322874493
 40
1
 50
180
 51
270
  0
ARC
  8
_0-0_
  6
CONTINUOUS
 62
  152
 10
7.654654336399858
 20
85.798970322874311
 40
0.3
 50
90
 51
180
  0
ARC
  8
_0-0_
  6
CONTINUOUS
 62
    7
 10
7.3546543363996761
 20
86.098970322874493
 40
1
 50
90
 51
180
  0
ARC
  8
_0-0_
  6
CONTINUOUS
 62
    7
 10
13.854654336399676
 20
14.261409486129139
 40
1.5
 50
156.42182152180428
 51
203.57817847821062
  0
ARC
  8
_0-0_
  6
CONTINUOUS
 62
    7
 10
13.854654336399676
 20
14.261409486129139
 40
1.5
 50
336.42182152178935
 51
23.578178478195714
  0
ARC
  8
_0-0_
  6
CONTINUOUS
 62
    7
 10
7.3546543363996761
 20
25.761409486129139
 40
1
 50
90
 51
180
  0
ARC
  8
_0-0_
  6
CONTINUOUS
 62
    7
 10
7.3546543363996761
 20
7.7614094861291392
 40
1
 50
180
 51
270
  0
ARC
  8
_0-0_
  6
CONTINUOUS
 62
    7
 10
20.354654336399676
 20
25.761409486129139
 40
1
 50
0
 51
90.000000000000014
  0
ARC
  8
_0-0_
  6
CONTINUOUS
 62
    7
 10
20.354654336399676
 20
7.7614094861291392
 40
1
 50
270
 51
0
  0
ARC
  8
_0-0_
  6
CONTINUOUS
 62
    7
 10
8.1546543363996307
 20
18.661409486129116
 40
0.5
 50
90
 51
180
  0
ARC
  8
_0-0_
  6
CONTINUOUS
 62
    7
 10
11.833115305482352
 20
17.961409486129071
 40
0.3
 50
240.00000000000009
 51
270
  0
ARC
  8
_0-0_
  6
CONTINUOUS
 62
    7
 10
10.654654336399858
 20
17.361409486129105
 40
0.3
 50
90
 51
180
  0
ARC
  8
_0-0_
  6
CONTINUOUS
 62
    7
 10
8.1546543363996307
 20
9.8614094861287072
 40
0.5
 50
180
 51
270
  0
ARC
  8
_0-0_
  6
CONTINUOUS
 62
    7
 10
11.833115305482352
 20
10.561409486128696
 40
0.3
 50
90
 51
119.99999999999991
  0
ARC
  8
_0-0_
  6
CONTINUOUS
 62
    7
 10
10.654654336399858
 20
11.161409486128662
 40
0.3
 50
180
 51
270
  0
ARC
  8
_0-0_
  6
CONTINUOUS
 62
    7
 10
19.554654336399722
 20
18.661409486129116
 40
0.5
 50
0
 51
90
  0
ARC
  8
_0-0_
  6
CONTINUOUS
 62
    7
 10
18.63503909412907
 20
18.861409486129105
 40
0.3
 50
90.000000000000057
 51
120.00000000000017
  0
ARC
  8
_0-0_
  6
CONTINUOUS
 62
    7
 10
17.054654336399494
 20
17.361409486129105
 40
0.3
 50
0
 51
90
  0
ARC
  8
_0-0_
  6
CONTINUOUS
 62
    7
 10
19.554654336399722
 20
9.8614094861287072
 40
0.5
 50
270
 51
0
  0
ARC
  8
_0-0_
  6
CONTINUOUS
 62
    7
 10
15.876193367317001
 20
10.561409486128696
 40
0.3
 50
60.000000000000085
 51
90
  0
ARC
  8
_0-0_
  6
CONTINUOUS
 62
    7
 10
17.054654336399494
 20
11.161409486128662
 40
0.3
 50
270
 51
0
  0
ARC
  8
_0-0_
  6
CONTINUOUS
 62
    7
 10
7.8546543363995625
 20
16.70154077905346
 40
0.3
 50
0
 51
29.999999999999407
  0
ARC
  8
_0-0_
  6
CONTINUOUS
 62
    7
 10
7.8546543363995625
 20
11.821278193204307
 40
0.3
 50
330.00000000000063
 51
0.0000000000000508
  0
ARC
  8
_0-0_
  6
CONTINUOUS
 62
    7
 10
19.854654336399676
 20
11.821278193204307
 40
0.3
 50
180
 51
209.9999999999994
  0
ARC
  8
_0-0_
  6
CONTINUOUS
 62
    7
 10
19.854654336399676
 20
16.70154077905346
 40
0.3
 50
150.0000000000006
 51
180
  0
ARC
  8
_0-0_
  6
CONTINUOUS
 62
    7
 10
17.054654336399494
 20
15.161409486129003
 40
0.3
 50
270
 51
0
  0
ARC
  8
_0-0_
  6
CONTINUOUS
 62
    7
 10
17.054654336399494
 20
13.361409486128821
 40
0.3
 50
0
 51
90
  0
ARC
  8
_0-0_
  6
CONTINUOUS
 62
    7
 10
10.654654336399858
 20
13.361409486128821
 40
0.3
 50
90
 51
180
  0
ARC
  8
_0-0_
  6
CONTINUOUS
 62
    7
 10
10.654654336399858
 20
15.161409486129003
 40
0.3
 50
180
 51
270
  0
ARC
  8
_0-0_
  6
CONTINUOUS
 62
    7
 10
13.854654336399676
 20
79.598970322874493
 40
2.3026499999999999
 50
257.52580999999998
 51
282.47417999999999
  0
ARC
  8
_0-0_
  6
CONTINUOUS
 62
    7
 10
13.854654336399676
 20
79.598970322874493
 40
2.3026499999999999
 50
167.52571999999995
 51
192.47426999999996
  0
ARC
  8
_0-0_
  6
CONTINUOUS
 62
    7
 10
13.854654336399676
 20
79.598970322874493
 40
2.3026499999999999
 50
77.525817000000018
 51
102.47418000000003
  0
ARC
  8
_0-0_
  6
CONTINUOUS
 62
    7
 10
13.854654336399676
 20
79.598970322874493
 40
2.3026499999999999
 50
347.52571999999998
 51
12.474273000000045
  0
ARC
  8
_0-0_
  6
CONTINUOUS
 62
    7
 10
12.620394336399954
 20
78.364730322874721
 40
0.7368479999999999
 50
0
 51
90
  0
ARC
  8
_0-0_
  6
CONTINUOUS
 62
    7
 10
15.088874336399954
 20
78.364730322874721
 40
0.7368479999999999
 50
90
 51
180
  0
ARC
  8
_0-0_
  6
CONTINUOUS
 62
    7
 10
15.088874336399954
 20
80.833160322874619
 40
0.7368479999999999
 50
180
 51
270
  0
ARC
  8
_0-0_
  6
CONTINUOUS
 62
    7
 10
12.620394336399954
 20
80.833160322874619
 40
0.7368479999999999
 50
270
 51
0
  0
ARC
  8
_0-0_
  6
CONTINUOUS
 62
    7
 10
15.669168589911919
 20
41.52178526272229
 40
1.5
 50
270
 51
356.99999999999983
  0
ARC
  8
_0-0_
  6
CONTINUOUS
 62
    7
 10
12.040140082887433
 20
41.52178526272229
 40
1.5
 50
183.00000000000017
 51
270
  0
ARC
  8
_0-0_
  6
CONTINUOUS
 62
    7
 10
20.354654336399676
 20
49.02178526272229
 40
1
 50
0
 51
90
  0
ARC
  8
_0-0_
  6
CONTINUOUS
 62
    7
 10
7.3546543363996761
 20
49.02178526272229
 40
1
 50
90
 51
180
  0
ARC
  8
_0-0_
  6
CONTINUOUS
 62
    7
 10
19.665149407819172
 20
45.321785262722301
 40
0.3
 50
270
 51
357.00000000000023
  0
ARC
  8
_0-0_
  6
CONTINUOUS
 62
    7
 10
8.0441592649806353
 20
45.321785262722301
 40
0.3
 50
182.99999999999977
 51
270
  0
ARC
  8
_0-0_
  6
CONTINUOUS
 62
    7
 10
49.452165177012716
 20
68.098970322874436
 40
1
 50
180
 51
270
  0
ARC
  8
_0-0_
  6
CONTINUOUS
 62
    7
 10
58.152165177012762
 20
80.7456985893038
 40
0.3
 50
272.99999999999665
 51
0.0000000000000127
  0
ARC
  8
_0-0_
  6
CONTINUOUS
 62
    7
 10
58.152165177012762
 20
78.452242056444618
 40
0.3
 50
0
 51
86.999999999997954
  0
ARC
  8
_0-0_
  6
CONTINUOUS
 62
    7
 10
49.452165177012716
 20
86.098970322874209
 40
1
 50
90
 51
180
  0
ARC
  8
_0-0_
  6
CONTINUOUS
 62
    7
 10
57.452165177012716
 20
81.787966859744586
 40
1
 50
0
 51
87.000000000004874
  0
ARC
  8
_0-0_
  6
CONTINUOUS
 62
    7
 10
57.452165177012716
 20
77.409973786004741
 40
1
 50
273.00000000000159
 51
0.0000000000000254
  0
ARC
  8
_0-0_
  6
CONTINUOUS
 62
    7
 10
53.152165177012648
 20
84.109465394293863
 40
0.3
 50
0
 51
87.000000000000242
  0
ARC
  8
_0-0_
  6
CONTINUOUS
 62
    7
 10
53.152165177012648
 20
75.088475251455009
 40
0.3
 50
272.99999999999977
 51
0
  0
ARC
  8
_0-0_
  6
CONTINUOUS
 62
    7
 10
15.876193367317001
 20
17.961409486129071
 40
0.3
 50
270
 51
299.99999999999568
  0
ARC
  8
_0-0_
  6
CONTINUOUS
 62
    7
 10
19.754654336399653
 20
17.728335698296632
 40
0.3
 50
329.99999999999488
 51
0
  0
ARC
  8
_0-0_
  6
CONTINUOUS
 62
    7
 10
7.9546543363996989
 20
17.728335698296632
 40
0.3
 50
180
 51
210.00000000000512
  0
ARC
  8
_0-0_
  6
CONTINUOUS
 62
    7
 10
9.0742695786702825
 20
18.861409486129105
 40
0.3
 50
59.999999999994905
 51
89.999999999999943
  0
ARC
  8
_0-0_
  6
CONTINUOUS
 62
    7
 10
7.9546543363996989
 20
10.794483273961134
 40
0.3
 50
149.99999999999491
 51
180
  0
ARC
  8
_0-0_
  6
CONTINUOUS
 62
    7
 10
9.0742695786702825
 20
9.6614094861287185
 40
0.3
 50
270.00000000000006
 51
299.99999999999568
  0
ARC
  8
_0-0_
  6
CONTINUOUS
 62
    7
 10
18.63503909412907
 20
9.6614094861287185
 40
0.3
 50
239.99999999999494
 51
270
  0
ARC
  8
_0-0_
  6
CONTINUOUS
 62
    7
 10
19.754654336399653
 20
10.794483273961134
 40
0.3
 50
0
 51
30.000000000005098
  0
TEXT
  8
_0-f_
 62
    7
 10
3.5159314126304935
 20
1.1786418439050408
 40
4.2999999999999998
 41
0.744186046511628
 50
0
  1
E12M
  0
ENDSEC
  0
EOF
