  0
SECTION
  2
HEADER
  9
$ACADVER
  1
AC1009
  9
$INSBASE
 10
0
 20
0
 30
0
  9
$EXTMIN
 10
0
 20
0
  9
$EXTMAX
 10
1189
 20
841
  9
$LIMMIN
 10
0
 20
0
  9
$LIMMAX
 10
1189
 20
841
  9
$LTSCALE
 40
1
  0
ENDSEC
  0
SECTION
  2
TABLES
  0
TABLE
  2
LTYPE
 70
     9
  0
LTYPE
  2
CONTINUOUS
 70
    64
  3
実線
 72
    65
 73
     0
 40
0.0
  0
LTYPE
  2
DASHED1
 70
    64
  3
--  --  --  --  --  --  --  --  
 72
    65
 73
     2
 40
2.5
 49
1.25
 49
-1.25
  0
LTYPE
  2
DASHED2
 70
    64
  3
----    ----    ----    ----    
 72
    65
 73
     2
 40
5.0
 49
2.5
 49
-2.5
  0
LTYPE
  2
DASHED3
 70
    64
  3
------  ------  ------  ------  
 72
    65
 73
     2
 40
5.0
 49
3.75
 49
-1.25
  0
LTYPE
  2
CENTER1
 70
    64
  3
----- - ----- - ----- - ----- - 
 72
    65
 73
     4
 40
10.0
 49
6.25
 49
-1.25
 49
1.25
 49
-1.25
  0
LTYPE
  2
CENTER2
 70
    64
  3
----------  --  ----------  --  
 72
    65
 73
     4
 40
20.0
 49
12.5
 49
-2.5
 49
2.5
 49
-2.5
  0
LTYPE
  2
PHANTOM1
 70
    64
  3
--- - - --- - - --- - - --- - - 
 72
    65
 73
     6
 40
10.0
 49
3.25
 49
-1.25
 49
1.25
 49
-1.25
 49
1.25
 49
-1.25
  0
LTYPE
  2
PHANTOM2
 70
    64
  3
--------  -  -  --------  -  -  
 72
    65
 73
     6
 40
20.0
 49
10.0
 49
-2.5
 49
1.25
 49
-2.5
 49
1.25
 49
-2.5
  0
LTYPE
  2
DOT
 70
    64
  3
-   -   -   -   -   -   -   -   
 72
    65
 73
     2
 40
2.5
 49
0.625
 49
-1.875
  0
LTYPE
  2
DUMMY
 70
    64
  3
ダミー
 72
    65
 73
     0
 40
0.0
  0
LTYPE
  2
RAND1
 70
    64
  3
ランダム線1
 72
    65
 73
     4
 40
10.0
 49
1.0
 49
-2.0
 49
3.0
 49
-4.0
  0
LTYPE
  2
RAND2
 70
    64
  3
ランダム線2
 72
    65
 73
     4
 40
14.0
 49
2.0
 49
-3.0
 49
4.0
 49
-5.0
  0
LTYPE
  2
RAND3
 70
    64
  3
ランダム線3
 72
    65
 73
     4
 40
18.0
 49
3.0
 49
-4.0
 49
5.0
 49
-6.0
  0
LTYPE
  2
RAND4
 70
    64
  3
ランダム線4
 72
    65
 73
     4
 40
22.0
 49
4.0
 49
-5.0
 49
6.0
 49
-7.0
  0
LTYPE
  2
RAND5
 70
    64
  3
ランダム線5
 72
    65
 73
     4
 40
26.0
 49
5.0
 49
-6.0
 49
7.0
 49
-8.0
  0
LTYPE
  2
LONG1
 70
    64
  3
----------  --  ----------  --  
 72
    65
 73
     4
 40
40.0
 49
32.5
 49
-2.5
 49
2.5
 49
-2.5
  0
LTYPE
  2
LONG2
 70
    64
  3
--------  -  -  --------  -  -  
 72
    65
 73
     6
 40
40.0
 49
30.0
 49
-2.5
 49
1.25
 49
-2.5
 49
1.25
 49
-2.5
  0
LTYPE
  2
LONG3
 70
    64
  3
+++++++++++++++..+++++++++++++++
 72
    65
 73
     2
 40
40.0
 49
37.5
 49
-2.5
  0
LTYPE
  2
LONG4
 70
    64
  3
+++++++++++++++..+++++++++++++++
 72
    65
 73
     2
 40
80.0
 49
75.0
 49
-5.0
  0
LTYPE
  2
LONG5
 70
    64
  3
----------  --  ----------  --  
 72
    65
 73
     4
 40
60.0
 49
37.5
 49
-7.5
 49
7.5
 49
-7.5
  0
LTYPE
  2
dashed
 70
   64
  3
-------   -------------   ------
 72
   65
 73
    2
 40
7.5
 49
6
 49
-1.5
  0
LTYPE
  2
dashed_spaced
 70
   64
  3
----        --------        ----
 72
   65
 73
    2
 40
12
 49
6
 49
-6
  0
LTYPE
  2
long_dashed_dotted
 70
   64
  3
------------- --- --------------
 72
   65
 73
    4
 40
15.25
 49
12
 49
-1.5
 49
0.25
 49
-1.5
  0
LTYPE
  2
long_dashed_double-dotted
 70
   64
  3
----------- --- --- ------------
 72
   65
 73
    6
 40
17
 49
12
 49
-1.5
 49
0.25
 49
-1.5
 49
0.25
 49
-1.5
  0
LTYPE
  2
long_dashed_triplicate-dotted
 70
   64
  3
--------- --- --- --- ----------
 72
   65
 73
    8
 40
18.75
 49
12
 49
-1.5
 49
0.25
 49
-1.5
 49
0.25
 49
-1.5
 49
0.25
 49
-1.5
  0
LTYPE
  2
dotted
 70
   64
  3
   -       -       -       -    
 72
   65
 73
    2
 40
1.75
 49
0.25
 49
-1.5
  0
LTYPE
  2
chain
 70
   64
  3
-------------- -- --------------
 72
   65
 73
    4
 40
18.5
 49
12
 49
-1.5
 49
3.5
 49
-1.5
  0
LTYPE
  2
chain_double_dash
 70
   64
  3
------------ -- -- -------------
 72
   65
 73
    6
 40
23.5
 49
12
 49
-1.5
 49
3.5
 49
-1.5
 49
3.5
 49
-1.5
  0
LTYPE
  2
dashed_dotted
 70
   64
  3
-----------     -     ----------
 72
   65
 73
    4
 40
9.25
 49
6
 49
-1.5
 49
0.25
 49
-1.5
  0
LTYPE
  2
double-dashed_dotted
 70
   64
  3
------   -----------   -   -----
 72
   65
 73
    6
 40
16.75
 49
6
 49
-1.5
 49
6
 49
-1.5
 49
0.25
 49
-1.5
  0
LTYPE
  2
dashed_double-dotted
 70
   64
  3
---------    -    -    ---------
 72
   65
 73
    6
 40
11
 49
6
 49
-1.5
 49
0.25
 49
-1.5
 49
0.25
 49
-1.5
  0
LTYPE
  2
double-dashed_double-dotted
 70
   64
  3
-----   ---------   -   -   ----
 72
   65
 73
    8
 40
18.5
 49
6
 49
-1.5
 49
6
 49
-1.5
 49
0.25
 49
-1.5
 49
0.25
 49
-1.5
  0
LTYPE
  2
dashed_triplicate-dotted
 70
   64
  3
-------    -    -    -    ------
 72
   65
 73
    8
 40
12.75
 49
6
 49
-1.5
 49
0.25
 49
-1.5
 49
0.25
 49
-1.5
 49
0.25
 49
-1.5
  0
LTYPE
  2
double-dashed_triplicate-dotted
 70
   64
  3
-----  ---------  -  -  -  -----
 72
   65
 73
   10
 40
20.25
 49
6
 49
-1.5
 49
6
 49
-1.5
 49
0.25
 49
-1.5
 49
0.25
 49
-1.5
 49
0.25
 49
-1.5
  0
LTYPE
  2
undefined
 70
   64
  3
--------------------------------
 72
   65
 73
    0
 40
0
  0
ENDTAB
  0
TABLE
  2
STYLE
  5
3
100
AcDbSymbolTable
 70
     1
  0
STYLE
  5
10
100
AcDbSymbolTableRecord
100
AcDbTextStyleTableRecord
  2
STANDARD
 70
     0
 40
0.0
 41
1.0
 50
0.0
 71
     0
 42
0.2
  3
txt
  4
bigfont.shx
  0
STYLE
  5
26
100
AcDbSymbolTableRecord
100
AcDbTextStyleTableRecord
  2
TATEGAKI
 70
    68
 40
0.0
 41
1.0
 50
0.0
 71
     0
 42
1.0
  3
txt
  4
bigfont.shx
  0
ENDTAB
  0
TABLE
  2
LAYER
 70
    4
  0
LAYER
  2
_0-0_
 70
   64
 62
    7
  6
CONTINUOUS
  0
LAYER
  2
_0-1_
 70
   64
 62
    7
  6
CONTINUOUS
  0
LAYER
  2
_0-f_
 70
   64
 62
    7
  6
CONTINUOUS
  0
LAYER
  2
ADD_LINE
 70
   64
 62
    7
  6
CONTINUOUS
  0
ENDTAB
  0
ENDSEC
  0
SECTION
  2
BLOCKS
  0
ENDSEC
  0
SECTION
  2
ENTITIES
  0
TEXT
  8
_0-f_
 62
    7
 10
1.2435951451716392
 20
0.8950319565173572
 40
4.2999999999999998
 41
0.744186046511628
 50
0
  1
DP40
  0
ARC
  8
_0-0_
  6
CONTINUOUS
 62
    7
 10
15.905631953577995
 20
44.417319700478686
 40
0.2999999999999999
 50
180
 51
239.99999999999994
  0
ARC
  8
_0-0_
  6
CONTINUOUS
 62
    7
 10
20.775489067268609
 20
52.217319700478868
 40
0.2999999999999999
 50
90.000000000000028
 51
149.03624346792611
  0
ARC
  8
_0-0_
  6
CONTINUOUS
 62
    7
 10
21.142385431190178
 20
52.217319700478868
 40
0.2999999999999999
 50
335.85445803957771
 51
89.999999999999986
  0
ARC
  8
_0-0_
  6
CONTINUOUS
 62
    7
 10
26.432324607975715
 20
43.354150574411335
 40
0.2999999999999999
 50
11.309932474019792
 51
139.39870535499455
  0
ARC
  8
_0-0_
  6
CONTINUOUS
 62
    7
 10
23.467651476836636
 20
40.817319700478322
 40
0.2999999999999999
 50
270
 51
319.39870535499483
  0
ARC
  8
_0-0_
  6
CONTINUOUS
 62
    7
 10
26.591271061102361
 20
42.559418308777651
 40
0.2999999999999999
 50
333.43494882292202
 51
11.309932474019757
  0
ARC
  8
_0-0_
  6
CONTINUOUS
 62
    7
 10
23.720221756952924
 20
36.817319700478322
 40
0.2999999999999999
 50
270
 51
333.43494882292202
  0
ARC
  8
_0-0_
  6
CONTINUOUS
 62
    7
 10
22.885631953578013
 20
36.817319700478322
 40
0.2999999999999999
 50
208.07248693585066
 51
270
  0
ARC
  8
_0-0_
  6
CONTINUOUS
 62
    7
 10
14.77893929917991
 20
43.354150574411335
 40
0.2999999999999999
 50
40.601294645005417
 51
168.6900675259802
  0
ARC
  8
_0-0_
  6
CONTINUOUS
 62
    7
 10
17.74361243031899
 20
40.817319700478322
 40
0.2999999999999999
 50
220.60129464500517
 51
270
  0
ARC
  8
_0-0_
  6
CONTINUOUS
 62
    7
 10
14.619992846053265
 20
42.559418308777651
 40
0.2999999999999999
 50
168.6900675259802
 51
206.565051177078
  0
ARC
  8
_0-0_
  6
CONTINUOUS
 62
    7
 10
21.725631953578159
 20
37.717319700478868
 40
0.2999999999999999
 50
28.072486935851568
 51
90.000000000000014
  0
ARC
  8
_0-0_
  6
CONTINUOUS
 62
    7
 10
22.905631953577995
 20
40.817319700478322
 40
0.2999999999999999
 50
180
 51
270
  0
ARC
  8
_0-0_
  6
CONTINUOUS
 62
    7
 10
17.491042150203157
 20
36.817319700478322
 40
0.2999999999999999
 50
206.565051177078
 51
270
  0
ARC
  8
_0-0_
  6
CONTINUOUS
 62
    7
 10
18.325631953578068
 20
36.817319700478322
 40
0.2999999999999999
 50
270
 51
331.92751306414937
  0
ARC
  8
_0-0_
  6
CONTINUOUS
 62
    7
 10
19.485631953577922
 20
37.717319700478868
 40
0.2999999999999999
 50
90
 51
151.92751306414846
  0
ARC
  8
_0-0_
  6
CONTINUOUS
 62
    7
 10
18.305631953578086
 20
40.817319700478322
 40
0.2999999999999999
 50
270
 51
0
  0
ARC
  8
_0-0_
  6
CONTINUOUS
 62
    7
 10
25.305631953578086
 20
46.217319700478868
 40
0.2999999999999999
 50
0
 51
89.999999999999972
  0
ARC
  8
_0-0_
  6
CONTINUOUS
 62
    7
 10
15.905631953577995
 20
46.217319700478868
 40
0.2999999999999999
 50
90
 51
180
  0
ARC
  8
_0-0_
  6
CONTINUOUS
 62
    7
 10
25.305631953578086
 20
44.417319700478686
 40
0.2999999999999999
 50
270
 51
0
  0
ARC
  8
_0-0_
  6
CONTINUOUS
 62
    7
 10
23.605631953577813
 20
43.117319700478504
 40
1.0000000000000004
 50
90.000000000000028
 51
180.00000000000003
  0
ARC
  8
_0-0_
  6
CONTINUOUS
 62
    7
 10
22.178995149638013
 20
46.317319700478322
 40
0.2999999999999999
 50
270
 51
289.99999999999983
  0
ARC
  8
_0-0_
  6
CONTINUOUS
 62
    7
 10
23.658530047790464
 20
46.217319700478868
 40
0.2999999999999999
 50
89.999999999999986
 51
109.99999999999982
  0
ARC
  8
_0-0_
  6
CONTINUOUS
 62
    7
 10
19.305631953578086
 20
46.317319700478322
 40
0.2999999999999999
 50
180
 51
270
  0
ARC
  8
_0-0_
  6
CONTINUOUS
 62
    7
 10
16.835774839887108
 20
46.817319700478322
 40
0.2999999999999999
 50
270
 51
329.03624346792617
  0
LINE
  8
_0-0_
  6
CONTINUOUS
 62
    7
 10
19.005631953577904
 20
46.717319700478868
 11
21.416138228544696
 21
52.094602929250698
  0
LINE
  8
_0-0_
  6
CONTINUOUS
 62
    7
 10
19.005631953577904
 20
46.317319700478322
 11
19.005631953577904
 21
46.717319700478868
  0
LINE
  8
_0-0_
  6
CONTINUOUS
 62
    7
 10
22.178995149638013
 20
46.017319700478595
 11
19.305631953578086
 21
46.017319700478595
  0
LINE
  8
_0-0_
  6
CONTINUOUS
 62
    7
 10
23.605631953577813
 20
46.517319700478595
 11
22.281601192635662
 21
46.035411914242843
  0
LINE
  8
_0-0_
  6
CONTINUOUS
 62
    7
 10
25.305631953578086
 20
46.517319700478595
 11
23.605631953577813
 21
46.517319700478595
  0
LINE
  8
_0-0_
  6
CONTINUOUS
 62
    7
 10
25.605631953577813
 20
44.417319700478686
 11
25.605631953577813
 21
46.217319700478868
  0
LINE
  8
_0-0_
  6
CONTINUOUS
 62
    7
 10
23.605631953577813
 20
44.117319700478504
 11
25.305631953578086
 21
44.117319700478504
  0
LINE
  8
_0-0_
  6
CONTINUOUS
 62
    7
 10
22.605631953577813
 20
40.817319700478322
 11
22.605631953577813
 21
43.117319700478504
  0
LINE
  8
_0-0_
  6
CONTINUOUS
 62
    7
 10
23.475662349837876
 20
40.517319700478595
 11
22.905631953577995
 21
40.517319700478595
  0
LINE
  8
_0-0_
  6
CONTINUOUS
 62
    7
 10
26.204547627266038
 20
43.549387986448266
 11
23.695428457546313
 21
40.622082288441845
  0
LINE
  8
_0-0_
  6
CONTINUOUS
 62
    7
 10
26.885445263809743
 20
42.618253149318946
 11
26.726498810683097
 21
43.41298541495263
  0
LINE
  8
_0-0_
  6
CONTINUOUS
 62
    7
 10
23.988549914252872
 20
36.683155621828803
 11
26.859599218402764
 21
42.425254230127678
  0
LINE
  8
_0-0_
  6
CONTINUOUS
 62
    7
 10
22.885631953578013
 20
36.517319700478595
 11
23.720221756952924
 21
36.517319700478595
  0
LINE
  8
_0-0_
  6
CONTINUOUS
 62
    7
 10
21.990337835930859
 20
37.858496171066975
 11
22.620926071224858
 21
36.676143229890215
  0
LINE
  8
_0-0_
  6
CONTINUOUS
 62
    7
 10
19.485631953577922
 20
38.017319700478595
 11
21.725631953578159
 21
38.017319700478595
  0
LINE
  8
_0-0_
  6
CONTINUOUS
 62
    7
 10
18.590337835930768
 20
36.676143229890215
 11
19.220926071225222
 21
37.858496171066975
  0
LINE
  8
_0-0_
  6
CONTINUOUS
 62
    7
 10
17.491042150203157
 20
36.517319700478595
 11
18.325631953578068
 21
36.517319700478595
  0
LINE
  8
_0-0_
  6
CONTINUOUS
 62
    7
 10
14.351664688753317
 20
42.425254230127678
 11
17.222713992902754
 21
36.683155621828803
  0
LINE
  8
_0-0_
  6
CONTINUOUS
 62
    7
 10
14.484765096472984
 20
43.41298541495263
 11
14.325818643345883
 21
42.618253149318946
  0
LINE
  8
_0-0_
  6
CONTINUOUS
 62
    7
 10
17.515835449609312
 20
40.622082288441845
 11
15.006716279889588
 21
43.549387986448266
  0
LINE
  8
_0-0_
  6
CONTINUOUS
 62
    7
 10
18.305631953578086
 20
40.517319700478595
 11
17.74361243031899
 21
40.517319700478595
  0
LINE
  8
_0-0_
  6
CONTINUOUS
 62
    7
 10
18.605631953577813
 20
42.512063812152803
 11
18.605631953577813
 21
40.817319700478322
  0
LINE
  8
_0-0_
  6
CONTINUOUS
 62
    7
 10
15.755631953577904
 20
44.157512079343462
 11
18.605631953577813
 21
42.512063812152803
  0
LINE
  8
_0-0_
  6
CONTINUOUS
 62
    7
 10
15.605631953577813
 20
46.217319700478868
 11
15.605631953577813
 21
44.417319700478686
  0
LINE
  8
_0-0_
  6
CONTINUOUS
 62
    7
 10
16.835774839887108
 20
46.517319700478595
 11
15.905631953577995
 21
46.517319700478595
  0
LINE
  8
_0-0_
  6
CONTINUOUS
 62
    7
 10
20.518241189554828
 20
52.371668427106954
 11
17.093022717600888
 21
46.662970973850236
  0
LINE
  8
_0-0_
  6
CONTINUOUS
 62
    7
 10
21.142385431190178
 20
52.517319700478595
 11
20.775489067268609
 21
52.517319700478595
  0
ARC
  8
_0-1_
  6
PHANTOM1
 62
  152
 10
19.105631953753345
 20
51.017319700478595
 40
1.5
 50
270
 51
0
  0
LINE
  8
_0-1_
  6
PHANTOM1
 62
  152
 10
20.605631953753345
 20
51.017319700478595
 11
20.605631953753345
 21
88.017319700478595
  0
LINE
  8
_0-1_
  6
PHANTOM1
 62
  152
 10
19.105631953753345
 20
49.517319700478595
 11
2.1056319537533454
 21
49.517319700478595
  0
ARC
  8
_0-1_
  6
PHANTOM1
 62
  152
 10
2.1056319537533454
 20
51.017319700478595
 40
1.5
 50
180
 51
270
  0
LINE
  8
_0-1_
  6
PHANTOM1
 62
  152
 10
0.6056319537533454
 20
51.017319700478595
 11
0.6056319537533454
 21
88.017319700478595
  0
ARC
  8
_0-1_
  6
PHANTOM1
 62
  152
 10
19.105631953753345
 20
88.017319700478595
 40
1.5
 50
0
 51
90
  0
LINE
  8
_0-1_
  6
PHANTOM1
 62
  152
 10
19.105631953753345
 20
89.517319700478595
 11
2.1056319537533454
 21
89.517319700478595
  0
ARC
  8
_0-1_
  6
PHANTOM1
 62
  152
 10
2.1056319537533454
 20
88.017319700478595
 40
1.5
 50
90
 51
180
  0
LINE
  8
_0-1_
  6
PHANTOM1
 62
  152
 10
0.6056319537533454
 20
46.517319700478595
 11
0.6056319537533454
 21
6.5173197004785948
  0
LINE
  8
_0-1_
  6
PHANTOM1
 62
  152
 10
40.605631953753345
 20
46.517319700478595
 11
0.6056319537533454
 21
46.517319700478595
  0
LINE
  8
_0-1_
  6
PHANTOM1
 62
  152
 10
40.605631953753345
 20
6.5173197004785948
 11
40.605631953753345
 21
46.517319700478595
  0
LINE
  8
_0-1_
  6
PHANTOM1
 62
  152
 10
0.6056319537533454
 20
6.5173197004785948
 11
40.605631953753345
 21
6.5173197004785948
  0
LINE
  8
_0-1_
  6
CENTER2
 62
  152
 10
15.968875340991872
 20
26.517319700478595
 11
25.968875340991872
 21
26.517319700478595
  0
LINE
  8
_0-1_
  6
CENTER2
 62
  152
 10
20.605631953753345
 20
31.606458556191967
 11
20.605631953753345
 21
21.289502120969075
  0
ENDSEC
  0
EOF
