  0
SECTION
  2
HEADER
  9
$ACADVER
  1
AC1009
  9
$INSBASE
 10
0
 20
0
 30
0
  9
$EXTMIN
 10
0
 20
0
  9
$EXTMAX
 10
1189
 20
841
  9
$LIMMIN
 10
0
 20
0
  9
$LIMMAX
 10
1189
 20
841
  9
$LTSCALE
 40
1
  0
ENDSEC
  0
SECTION
  2
TABLES
  0
TABLE
  2
LTYPE
 70
     9
  0
LTYPE
  2
CONTINUOUS
 70
    64
  3
実線
 72
    65
 73
     0
 40
0.0
  0
LTYPE
  2
DASHED1
 70
    64
  3
--  --  --  --  --  --  --  --  
 72
    65
 73
     2
 40
2.5
 49
1.25
 49
-1.25
  0
LTYPE
  2
DASHED2
 70
    64
  3
----    ----    ----    ----    
 72
    65
 73
     2
 40
5.0
 49
2.5
 49
-2.5
  0
LTYPE
  2
DASHED3
 70
    64
  3
------  ------  ------  ------  
 72
    65
 73
     2
 40
5.0
 49
3.75
 49
-1.25
  0
LTYPE
  2
CENTER1
 70
    64
  3
----- - ----- - ----- - ----- - 
 72
    65
 73
     4
 40
10.0
 49
6.25
 49
-1.25
 49
1.25
 49
-1.25
  0
LTYPE
  2
CENTER2
 70
    64
  3
----------  --  ----------  --  
 72
    65
 73
     4
 40
20.0
 49
12.5
 49
-2.5
 49
2.5
 49
-2.5
  0
LTYPE
  2
PHANTOM1
 70
    64
  3
--- - - --- - - --- - - --- - - 
 72
    65
 73
     6
 40
10.0
 49
3.25
 49
-1.25
 49
1.25
 49
-1.25
 49
1.25
 49
-1.25
  0
LTYPE
  2
PHANTOM2
 70
    64
  3
--------  -  -  --------  -  -  
 72
    65
 73
     6
 40
20.0
 49
10.0
 49
-2.5
 49
1.25
 49
-2.5
 49
1.25
 49
-2.5
  0
LTYPE
  2
DOT
 70
    64
  3
-   -   -   -   -   -   -   -   
 72
    65
 73
     2
 40
2.5
 49
0.625
 49
-1.875
  0
LTYPE
  2
DUMMY
 70
    64
  3
ダミー
 72
    65
 73
     0
 40
0.0
  0
LTYPE
  2
RAND1
 70
    64
  3
ランダム線1
 72
    65
 73
     4
 40
10.0
 49
1.0
 49
-2.0
 49
3.0
 49
-4.0
  0
LTYPE
  2
RAND2
 70
    64
  3
ランダム線2
 72
    65
 73
     4
 40
14.0
 49
2.0
 49
-3.0
 49
4.0
 49
-5.0
  0
LTYPE
  2
RAND3
 70
    64
  3
ランダム線3
 72
    65
 73
     4
 40
18.0
 49
3.0
 49
-4.0
 49
5.0
 49
-6.0
  0
LTYPE
  2
RAND4
 70
    64
  3
ランダム線4
 72
    65
 73
     4
 40
22.0
 49
4.0
 49
-5.0
 49
6.0
 49
-7.0
  0
LTYPE
  2
RAND5
 70
    64
  3
ランダム線5
 72
    65
 73
     4
 40
26.0
 49
5.0
 49
-6.0
 49
7.0
 49
-8.0
  0
LTYPE
  2
LONG1
 70
    64
  3
----------  --  ----------  --  
 72
    65
 73
     4
 40
40.0
 49
32.5
 49
-2.5
 49
2.5
 49
-2.5
  0
LTYPE
  2
LONG2
 70
    64
  3
--------  -  -  --------  -  -  
 72
    65
 73
     6
 40
40.0
 49
30.0
 49
-2.5
 49
1.25
 49
-2.5
 49
1.25
 49
-2.5
  0
LTYPE
  2
LONG3
 70
    64
  3
+++++++++++++++..+++++++++++++++
 72
    65
 73
     2
 40
40.0
 49
37.5
 49
-2.5
  0
LTYPE
  2
LONG4
 70
    64
  3
+++++++++++++++..+++++++++++++++
 72
    65
 73
     2
 40
80.0
 49
75.0
 49
-5.0
  0
LTYPE
  2
LONG5
 70
    64
  3
----------  --  ----------  --  
 72
    65
 73
     4
 40
60.0
 49
37.5
 49
-7.5
 49
7.5
 49
-7.5
  0
LTYPE
  2
dashed
 70
   64
  3
-------   -------------   ------
 72
   65
 73
    2
 40
7.5
 49
6
 49
-1.5
  0
LTYPE
  2
dashed_spaced
 70
   64
  3
----        --------        ----
 72
   65
 73
    2
 40
12
 49
6
 49
-6
  0
LTYPE
  2
long_dashed_dotted
 70
   64
  3
------------- --- --------------
 72
   65
 73
    4
 40
15.25
 49
12
 49
-1.5
 49
0.25
 49
-1.5
  0
LTYPE
  2
long_dashed_double-dotted
 70
   64
  3
----------- --- --- ------------
 72
   65
 73
    6
 40
17
 49
12
 49
-1.5
 49
0.25
 49
-1.5
 49
0.25
 49
-1.5
  0
LTYPE
  2
long_dashed_triplicate-dotted
 70
   64
  3
--------- --- --- --- ----------
 72
   65
 73
    8
 40
18.75
 49
12
 49
-1.5
 49
0.25
 49
-1.5
 49
0.25
 49
-1.5
 49
0.25
 49
-1.5
  0
LTYPE
  2
dotted
 70
   64
  3
   -       -       -       -    
 72
   65
 73
    2
 40
1.75
 49
0.25
 49
-1.5
  0
LTYPE
  2
chain
 70
   64
  3
-------------- -- --------------
 72
   65
 73
    4
 40
18.5
 49
12
 49
-1.5
 49
3.5
 49
-1.5
  0
LTYPE
  2
chain_double_dash
 70
   64
  3
------------ -- -- -------------
 72
   65
 73
    6
 40
23.5
 49
12
 49
-1.5
 49
3.5
 49
-1.5
 49
3.5
 49
-1.5
  0
LTYPE
  2
dashed_dotted
 70
   64
  3
-----------     -     ----------
 72
   65
 73
    4
 40
9.25
 49
6
 49
-1.5
 49
0.25
 49
-1.5
  0
LTYPE
  2
double-dashed_dotted
 70
   64
  3
------   -----------   -   -----
 72
   65
 73
    6
 40
16.75
 49
6
 49
-1.5
 49
6
 49
-1.5
 49
0.25
 49
-1.5
  0
LTYPE
  2
dashed_double-dotted
 70
   64
  3
---------    -    -    ---------
 72
   65
 73
    6
 40
11
 49
6
 49
-1.5
 49
0.25
 49
-1.5
 49
0.25
 49
-1.5
  0
LTYPE
  2
double-dashed_double-dotted
 70
   64
  3
-----   ---------   -   -   ----
 72
   65
 73
    8
 40
18.5
 49
6
 49
-1.5
 49
6
 49
-1.5
 49
0.25
 49
-1.5
 49
0.25
 49
-1.5
  0
LTYPE
  2
dashed_triplicate-dotted
 70
   64
  3
-------    -    -    -    ------
 72
   65
 73
    8
 40
12.75
 49
6
 49
-1.5
 49
0.25
 49
-1.5
 49
0.25
 49
-1.5
 49
0.25
 49
-1.5
  0
LTYPE
  2
double-dashed_triplicate-dotted
 70
   64
  3
-----  ---------  -  -  -  -----
 72
   65
 73
   10
 40
20.25
 49
6
 49
-1.5
 49
6
 49
-1.5
 49
0.25
 49
-1.5
 49
0.25
 49
-1.5
 49
0.25
 49
-1.5
  0
LTYPE
  2
undefined
 70
   64
  3
--------------------------------
 72
   65
 73
    0
 40
0
  0
ENDTAB
  0
TABLE
  2
STYLE
  5
3
100
AcDbSymbolTable
 70
     1
  0
STYLE
  5
10
100
AcDbSymbolTableRecord
100
AcDbTextStyleTableRecord
  2
STANDARD
 70
     0
 40
0.0
 41
1.0
 50
0.0
 71
     0
 42
0.2
  3
txt
  4
bigfont.shx
  0
STYLE
  5
26
100
AcDbSymbolTableRecord
100
AcDbTextStyleTableRecord
  2
TATEGAKI
 70
    68
 40
0.0
 41
1.0
 50
0.0
 71
     0
 42
1.0
  3
txt
  4
bigfont.shx
  0
ENDTAB
  0
TABLE
  2
LAYER
 70
    4
  0
LAYER
  2
_0-0_
 70
   64
 62
    7
  6
CONTINUOUS
  0
LAYER
  2
_0-1_
 70
   64
 62
    7
  6
CONTINUOUS
  0
LAYER
  2
_0-f_
 70
   64
 62
    7
  6
CONTINUOUS
  0
LAYER
  2
ADD_LINE
 70
   64
 62
    7
  6
CONTINUOUS
  0
ENDTAB
  0
ENDSEC
  0
SECTION
  2
BLOCKS
  0
ENDSEC
  0
SECTION
  2
ENTITIES
  0
TEXT
  8
_0-f_
 62
    7
 10
0.8310164652855291
 20
0.5720487651035455
 40
4.2999999999999998
 41
0.744186046511628
 50
0
  1
DP25
  0
LINE
  8
_0-0_
  6
CONTINUOUS
 62
    7
 10
15.564793425927064
 20
25.711525364776094
 11
17.356651854631536
 21
28.815115203262167
  0
LINE
  8
_0-0_
  6
CONTINUOUS
 62
    7
 10
17.383446773874539
 20
28.8615253647759
 11
17.383446773874539
 21
29.161525364775912
  0
LINE
  8
_0-0_
  6
CONTINUOUS
 62
    7
 10
17.183446773874266
 20
29.3615253647759
 11
16.856240820727862
 21
29.3615253647759
  0
LINE
  8
_0-0_
  6
CONTINUOUS
 62
    7
 10
16.727683298790225
 20
29.314734253399706
 11
15.766632015623827
 21
28.508316476152288
  0
LINE
  8
_0-0_
  6
CONTINUOUS
 62
    7
 10
15.638074493686645
 20
28.461525364776094
 11
15.383446773874539
 21
28.461525364776094
  0
LINE
  8
_0-0_
  6
CONTINUOUS
 62
    7
 10
15.183446773874266
 20
28.661525364776082
 11
15.183446773874266
 21
28.961525364775923
  0
LINE
  8
_0-0_
  6
CONTINUOUS
 62
    7
 10
16.183446773874266
 20
29.961525364775923
 11
16.483446773874903
 21
29.961525364775923
  0
LINE
  8
_0-0_
  6
CONTINUOUS
 62
    7
 10
16.683446773874266
 20
30.161525364775912
 11
16.683446773874266
 21
30.861525364775957
  0
LINE
  8
_0-0_
  6
CONTINUOUS
 62
    7
 10
16.383446773874084
 20
31.161525364775912
 11
15.683446773874266
 21
31.161525364775912
  0
LINE
  8
_0-0_
  6
CONTINUOUS
 62
    7
 10
15.683446773874266
 20
31.161525364775912
 11
14.620252329726782
 21
30.876643272069373
  0
LINE
  8
_0-0_
  6
CONTINUOUS
 62
    7
 10
14.289819727870736
 20
31.327972216456828
 11
17.021145250018208
 21
35.601807970707341
  0
LINE
  8
_0-0_
  6
CONTINUOUS
 62
    7
 10
16.994042014038541
 20
35.850930124611807
 11
16.824868130111781
 21
36.020104008538624
  0
LINE
  8
_0-0_
  6
CONTINUOUS
 62
    7
 10
16.542025417637205
 20
36.020104008538624
 11
11.683446773874266
 21
31.161525364775912
  0
LINE
  8
_0-0_
  6
CONTINUOUS
 62
    7
 10
11.559182705162357
 20
31.161525364775912
 11
9.9834467738739932
 21
31.161525364775912
  0
LINE
  8
_0-0_
  6
CONTINUOUS
 62
    7
 10
9.683446773874266
 20
30.861525364775957
 11
9.683446773874266
 21
30.161525364775912
  0
LINE
  8
_0-0_
  6
CONTINUOUS
 62
    7
 10
9.8834467738740841
 20
29.961525364775923
 11
10.183446773874266
 21
29.961525364775923
  0
LINE
  8
_0-0_
  6
CONTINUOUS
 62
    7
 10
9.5834467738743569
 20
29.3615253647759
 11
10.656025007209109
 21
28.461525364776094
  0
LINE
  8
_0-0_
  6
CONTINUOUS
 62
    7
 10
10.656025007209109
 20
28.461525364776094
 11
10.983446773874448
 21
28.461525364776094
  0
LINE
  8
_0-0_
  6
CONTINUOUS
 62
    7
 10
11.183446773874266
 20
28.661525364776082
 11
11.183446773874266
 21
28.961525364775923
  0
LINE
  8
_0-0_
  6
CONTINUOUS
 62
    7
 10
9.5106527270211245
 20
29.3615253647759
 11
9.183446773874266
 21
29.3615253647759
  0
LINE
  8
_0-0_
  6
CONTINUOUS
 62
    7
 10
8.9834467738744479
 20
29.161525364775912
 11
8.9834467738744479
 21
28.8615253647759
  0
LINE
  8
_0-0_
  6
CONTINUOUS
 62
    7
 10
9.0102416931174503
 20
28.815115203262167
 11
10.802100121821468
 21
25.711525364776094
  0
LINE
  8
_0-0_
  6
CONTINUOUS
 62
    7
 10
12.183446773874266
 20
25.447382521921782
 11
12.183446773874266
 21
24.961525364776094
  0
LINE
  8
_0-0_
  6
CONTINUOUS
 62
    7
 10
12.183446773874266
 20
24.961525364776094
 11
12.101138227498495
 21
24.961525364776094
  0
LINE
  8
_0-0_
  6
CONTINUOUS
 62
    7
 10
14.183446773874266
 20
24.961525364776094
 11
14.183446773874266
 21
25.447382521921782
  0
LINE
  8
_0-0_
  6
CONTINUOUS
 62
    7
 10
13.483446773874448
 20
27.161525364776082
 11
12.883446773874539
 21
27.161525364776082
  0
ARC
  8
_0-0_
  6
CONTINUOUS
 62
    7
 10
9.9834467738739932
 20
30.861525364775957
 40
0.2999999999999999
 50
90
 51
180
  0
ARC
  8
_0-0_
  6
CONTINUOUS
 62
    7
 10
14.542606616196053
 20
31.16642101995609
 40
0.2999999999999999
 50
147.41814319227163
 51
285.00000000000006
  0
ARC
  8
_0-0_
  6
CONTINUOUS
 62
    7
 10
11.559182705162357
 20
31.461525364775923
 40
0.2999999999999999
 50
270
 51
315
  0
ARC
  8
_0-0_
  6
CONTINUOUS
 62
    7
 10
16.683446773874266
 20
35.878682652301336
 40
0.2
 50
45
 51
135
  0
ARC
  8
_0-0_
  6
CONTINUOUS
 62
    7
 10
16.852620657801026
 20
35.709508768374519
 40
0.2
 50
327.41814319227137
 51
45.000000000000036
  0
ARC
  8
_0-0_
  6
CONTINUOUS
 62
    7
 10
16.383446773874084
 20
30.861525364775957
 40
0.2999999999999999
 50
0
 51
90
  0
ARC
  8
_0-0_
  6
CONTINUOUS
 62
    7
 10
9.183446773874266
 20
29.161525364775912
 40
0.2
 50
90
 51
180
  0
ARC
  8
_0-0_
  6
CONTINUOUS
 62
    7
 10
12.101138227498495
 20
26.461525364776094
 40
1.5
 50
210.00000000000003
 51
270
  0
ARC
  8
_0-0_
  6
CONTINUOUS
 62
    7
 10
14.265755320250491
 20
26.461525364776094
 40
1.5
 50
270
 51
330
  0
ARC
  8
_0-0_
  6
CONTINUOUS
 62
    7
 10
12.883446773874539
 20
26.161525364776082
 40
1
 50
90
 51
225.57299599919432
  0
ARC
  8
_0-0_
  6
CONTINUOUS
 62
    7
 10
13.483446773874448
 20
26.161525364776082
 40
1
 50
314.42700400080565
 51
89.999999999999943
  0
ARC
  8
_0-0_
  6
CONTINUOUS
 62
    7
 10
9.183446773874266
 20
28.915115203262133
 40
0.2
 50
180
 51
210.00000000000051
  0
ARC
  8
_0-0_
  6
CONTINUOUS
 62
    7
 10
9.5106527270211245
 20
29.161525364775912
 40
0.2
 50
49.999999999999943
 51
90
  0
ARC
  8
_0-0_
  6
CONTINUOUS
 62
    7
 10
10.728819054062342
 20
28.661525364776082
 40
0.2
 50
230.00000000000014
 51
270
  0
ARC
  8
_0-0_
  6
CONTINUOUS
 62
    7
 10
10.983446773874448
 20
28.661525364776082
 40
0.2
 50
270
 51
0
  0
ARC
  8
_0-0_
  6
CONTINUOUS
 62
    7
 10
17.183446773874266
 20
29.161525364775912
 40
0.2
 50
0
 51
90
  0
ARC
  8
_0-0_
  6
CONTINUOUS
 62
    7
 10
17.183446773874266
 20
28.915115203262133
 40
0.2
 50
329.99999999999955
 51
0.0000000000000381
  0
ARC
  8
_0-0_
  6
CONTINUOUS
 62
    7
 10
16.856240820727862
 20
29.161525364775912
 40
0.2
 50
90
 51
130.00000000000006
  0
ARC
  8
_0-0_
  6
CONTINUOUS
 62
    7
 10
15.638074493686645
 20
28.661525364776082
 40
0.2
 50
270
 51
309.99999999999983
  0
ARC
  8
_0-0_
  6
CONTINUOUS
 62
    7
 10
15.383446773874539
 20
28.661525364776082
 40
0.2
 50
180
 51
270
  0
ARC
  8
_0-0_
  6
CONTINUOUS
 62
    7
 10
9.8834467738740841
 20
30.161525364775912
 40
0.2
 50
180
 51
270
  0
ARC
  8
_0-0_
  6
CONTINUOUS
 62
    7
 10
16.483446773874903
 20
30.161525364775912
 40
0.2
 50
270
 51
0
  0
ARC
  8
_0-0_
  6
CONTINUOUS
 62
    7
 10
10.183446773874266
 20
28.961525364775923
 40
1
 50
0
 51
90
  0
ARC
  8
_0-0_
  6
CONTINUOUS
 62
    7
 10
16.183446773874266
 20
28.961525364775923
 40
1
 50
90
 51
180
  0
LINE
  8
_0-1_
  6
CENTER1
 62
  152
 10
0.6834467738743796
 20
31.161525364775912
 11
25.68344677387438
 21
31.161525364775912
  0
LINE
  8
_0-1_
  6
CENTER1
 62
  152
 10
25.68344677387438
 20
31.161525364775912
 11
25.68344677387438
 21
6.1615253647759118
  0
LINE
  8
_0-1_
  6
CENTER1
 62
  152
 10
25.68344677387438
 20
6.1615253647759118
 11
0.6834467738743796
 21
6.1615253647759118
  0
LINE
  8
_0-1_
  6
CENTER1
 62
  152
 10
0.6834467738743796
 20
6.1615253647759118
 11
0.6834467738743796
 21
31.161525364775912
  0
ARC
  8
_0-1_
  6
CENTER1
 62
  152
 10
1.6834467738743797
 20
34.661525364775912
 40
1
 50
180
 51
270
  0
LINE
  8
_0-1_
  6
CENTER1
 62
  152
 10
14.68344677387438
 20
33.661525364775912
 11
1.6834467738743797
 21
33.661525364775912
  0
ARC
  8
_0-1_
  6
CENTER1
 62
  152
 10
14.68344677387438
 20
34.661525364775912
 40
1
 50
270
 51
0
  0
LINE
  8
_0-1_
  6
CENTER1
 62
  152
 10
15.68344677387438
 20
57.661525364775912
 11
15.68344677387438
 21
34.661525364775912
  0
ARC
  8
_0-1_
  6
CENTER1
 62
  152
 10
14.68344677387438
 20
57.661525364775912
 40
1
 50
0
 51
90.000000000000028
  0
LINE
  8
_0-1_
  6
CENTER1
 62
  152
 10
1.6834467738743797
 20
58.661525364775912
 11
14.68344677387438
 21
58.661525364775912
  0
LINE
  8
_0-1_
  6
CENTER1
 62
  152
 10
0.6834467738743796
 20
57.661525364775912
 11
0.6834467738743796
 21
34.661525364775912
  0
ARC
  8
_0-1_
  6
CENTER1
 62
  152
 10
1.6834467738743797
 20
57.661525364775912
 40
1
 50
90
 51
180
  0
ENDSEC
  0
EOF
