  0
SECTION
  2
HEADER
  9
$ACADVER
  1
AC1009
  9
$INSBASE
 10
0
 20
0
 30
0
  9
$EXTMIN
 10
0
 20
0
  9
$EXTMAX
 10
1189
 20
841
  9
$LIMMIN
 10
0
 20
0
  9
$LIMMAX
 10
1189
 20
841
  9
$LTSCALE
 40
1
  0
ENDSEC
  0
SECTION
  2
TABLES
  0
TABLE
  2
LTYPE
 70
     9
  0
LTYPE
  2
CONTINUOUS
 70
    64
  3
実線
 72
    65
 73
     0
 40
0.0
  0
LTYPE
  2
DASHED1
 70
    64
  3
--  --  --  --  --  --  --  --  
 72
    65
 73
     2
 40
2.5
 49
1.25
 49
-1.25
  0
LTYPE
  2
DASHED2
 70
    64
  3
----    ----    ----    ----    
 72
    65
 73
     2
 40
5.0
 49
2.5
 49
-2.5
  0
LTYPE
  2
DASHED3
 70
    64
  3
------  ------  ------  ------  
 72
    65
 73
     2
 40
5.0
 49
3.75
 49
-1.25
  0
LTYPE
  2
CENTER1
 70
    64
  3
----- - ----- - ----- - ----- - 
 72
    65
 73
     4
 40
10.0
 49
6.25
 49
-1.25
 49
1.25
 49
-1.25
  0
LTYPE
  2
CENTER2
 70
    64
  3
----------  --  ----------  --  
 72
    65
 73
     4
 40
20.0
 49
12.5
 49
-2.5
 49
2.5
 49
-2.5
  0
LTYPE
  2
PHANTOM1
 70
    64
  3
--- - - --- - - --- - - --- - - 
 72
    65
 73
     6
 40
10.0
 49
3.25
 49
-1.25
 49
1.25
 49
-1.25
 49
1.25
 49
-1.25
  0
LTYPE
  2
PHANTOM2
 70
    64
  3
--------  -  -  --------  -  -  
 72
    65
 73
     6
 40
20.0
 49
10.0
 49
-2.5
 49
1.25
 49
-2.5
 49
1.25
 49
-2.5
  0
LTYPE
  2
DOT
 70
    64
  3
-   -   -   -   -   -   -   -   
 72
    65
 73
     2
 40
2.5
 49
0.625
 49
-1.875
  0
LTYPE
  2
DUMMY
 70
    64
  3
ダミー
 72
    65
 73
     0
 40
0.0
  0
LTYPE
  2
RAND1
 70
    64
  3
ランダム線1
 72
    65
 73
     4
 40
10.0
 49
1.0
 49
-2.0
 49
3.0
 49
-4.0
  0
LTYPE
  2
RAND2
 70
    64
  3
ランダム線2
 72
    65
 73
     4
 40
14.0
 49
2.0
 49
-3.0
 49
4.0
 49
-5.0
  0
LTYPE
  2
RAND3
 70
    64
  3
ランダム線3
 72
    65
 73
     4
 40
18.0
 49
3.0
 49
-4.0
 49
5.0
 49
-6.0
  0
LTYPE
  2
RAND4
 70
    64
  3
ランダム線4
 72
    65
 73
     4
 40
22.0
 49
4.0
 49
-5.0
 49
6.0
 49
-7.0
  0
LTYPE
  2
RAND5
 70
    64
  3
ランダム線5
 72
    65
 73
     4
 40
26.0
 49
5.0
 49
-6.0
 49
7.0
 49
-8.0
  0
LTYPE
  2
LONG1
 70
    64
  3
----------  --  ----------  --  
 72
    65
 73
     4
 40
40.0
 49
32.5
 49
-2.5
 49
2.5
 49
-2.5
  0
LTYPE
  2
LONG2
 70
    64
  3
--------  -  -  --------  -  -  
 72
    65
 73
     6
 40
40.0
 49
30.0
 49
-2.5
 49
1.25
 49
-2.5
 49
1.25
 49
-2.5
  0
LTYPE
  2
LONG3
 70
    64
  3
+++++++++++++++..+++++++++++++++
 72
    65
 73
     2
 40
40.0
 49
37.5
 49
-2.5
  0
LTYPE
  2
LONG4
 70
    64
  3
+++++++++++++++..+++++++++++++++
 72
    65
 73
     2
 40
80.0
 49
75.0
 49
-5.0
  0
LTYPE
  2
LONG5
 70
    64
  3
----------  --  ----------  --  
 72
    65
 73
     4
 40
60.0
 49
37.5
 49
-7.5
 49
7.5
 49
-7.5
  0
LTYPE
  2
dashed
 70
   64
  3
-------   -------------   ------
 72
   65
 73
    2
 40
7.5
 49
6
 49
-1.5
  0
LTYPE
  2
dashed_spaced
 70
   64
  3
----        --------        ----
 72
   65
 73
    2
 40
12
 49
6
 49
-6
  0
LTYPE
  2
long_dashed_dotted
 70
   64
  3
------------- --- --------------
 72
   65
 73
    4
 40
15.25
 49
12
 49
-1.5
 49
0.25
 49
-1.5
  0
LTYPE
  2
long_dashed_double-dotted
 70
   64
  3
----------- --- --- ------------
 72
   65
 73
    6
 40
17
 49
12
 49
-1.5
 49
0.25
 49
-1.5
 49
0.25
 49
-1.5
  0
LTYPE
  2
long_dashed_triplicate-dotted
 70
   64
  3
--------- --- --- --- ----------
 72
   65
 73
    8
 40
18.75
 49
12
 49
-1.5
 49
0.25
 49
-1.5
 49
0.25
 49
-1.5
 49
0.25
 49
-1.5
  0
LTYPE
  2
dotted
 70
   64
  3
   -       -       -       -    
 72
   65
 73
    2
 40
1.75
 49
0.25
 49
-1.5
  0
LTYPE
  2
chain
 70
   64
  3
-------------- -- --------------
 72
   65
 73
    4
 40
18.5
 49
12
 49
-1.5
 49
3.5
 49
-1.5
  0
LTYPE
  2
chain_double_dash
 70
   64
  3
------------ -- -- -------------
 72
   65
 73
    6
 40
23.5
 49
12
 49
-1.5
 49
3.5
 49
-1.5
 49
3.5
 49
-1.5
  0
LTYPE
  2
dashed_dotted
 70
   64
  3
-----------     -     ----------
 72
   65
 73
    4
 40
9.25
 49
6
 49
-1.5
 49
0.25
 49
-1.5
  0
LTYPE
  2
double-dashed_dotted
 70
   64
  3
------   -----------   -   -----
 72
   65
 73
    6
 40
16.75
 49
6
 49
-1.5
 49
6
 49
-1.5
 49
0.25
 49
-1.5
  0
LTYPE
  2
dashed_double-dotted
 70
   64
  3
---------    -    -    ---------
 72
   65
 73
    6
 40
11
 49
6
 49
-1.5
 49
0.25
 49
-1.5
 49
0.25
 49
-1.5
  0
LTYPE
  2
double-dashed_double-dotted
 70
   64
  3
-----   ---------   -   -   ----
 72
   65
 73
    8
 40
18.5
 49
6
 49
-1.5
 49
6
 49
-1.5
 49
0.25
 49
-1.5
 49
0.25
 49
-1.5
  0
LTYPE
  2
dashed_triplicate-dotted
 70
   64
  3
-------    -    -    -    ------
 72
   65
 73
    8
 40
12.75
 49
6
 49
-1.5
 49
0.25
 49
-1.5
 49
0.25
 49
-1.5
 49
0.25
 49
-1.5
  0
LTYPE
  2
double-dashed_triplicate-dotted
 70
   64
  3
-----  ---------  -  -  -  -----
 72
   65
 73
   10
 40
20.25
 49
6
 49
-1.5
 49
6
 49
-1.5
 49
0.25
 49
-1.5
 49
0.25
 49
-1.5
 49
0.25
 49
-1.5
  0
LTYPE
  2
undefined
 70
   64
  3
--------------------------------
 72
   65
 73
    0
 40
0
  0
LTYPE
  2
_
 70
   64
  3
                                
 72
   65
 73
    0
 40
0
  0
LTYPE
  2
__18
 70
   64
  3
                                
 72
   65
 73
    0
 40
0
  0
LTYPE
  2
__19
 70
   64
  3
                                
 72
   65
 73
    0
 40
0
  0
LTYPE
  2
__20
 70
   64
  3
                                
 72
   65
 73
    0
 40
0
  0
LTYPE
  2
__21
 70
   64
  3
                                
 72
   65
 73
    0
 40
0
  0
LTYPE
  2
__22
 70
   64
  3
                                
 72
   65
 73
    0
 40
0
  0
LTYPE
  2
__23
 70
   64
  3
                                
 72
   65
 73
    0
 40
0
  0
LTYPE
  2
__24
 70
   64
  3
                                
 72
   65
 73
    0
 40
0
  0
LTYPE
  2
__25
 70
   64
  3
                                
 72
   65
 73
    0
 40
0
  0
LTYPE
  2
__26
 70
   64
  3
                                
 72
   65
 73
    0
 40
0
  0
LTYPE
  2
__27
 70
   64
  3
                                
 72
   65
 73
    0
 40
0
  0
LTYPE
  2
__28
 70
   64
  3
                                
 72
   65
 73
    0
 40
0
  0
LTYPE
  2
__29
 70
   64
  3
                                
 72
   65
 73
    0
 40
0
  0
LTYPE
  2
__30
 70
   64
  3
                                
 72
   65
 73
    0
 40
0
  0
LTYPE
  2
__31
 70
   64
  3
                                
 72
   65
 73
    0
 40
0
  0
LTYPE
  2
__32
 70
   64
  3
                                
 72
   65
 73
    0
 40
0
  0
ENDTAB
  0
TABLE
  2
STYLE
  5
3
100
AcDbSymbolTable
 70
     1
  0
STYLE
  5
10
100
AcDbSymbolTableRecord
100
AcDbTextStyleTableRecord
  2
STANDARD
 70
     0
 40
0.0
 41
1.0
 50
0.0
 71
     0
 42
0.2
  3
txt
  4
bigfont.shx
  0
STYLE
  5
26
100
AcDbSymbolTableRecord
100
AcDbTextStyleTableRecord
  2
TATEGAKI
 70
    68
 40
0.0
 41
1.0
 50
0.0
 71
     0
 42
1.0
  3
txt
  4
bigfont.shx
  0
ENDTAB
  0
TABLE
  2
LAYER
 70
    4
  0
LAYER
  2
_0-0_
 70
   64
 62
    7
  6
CONTINUOUS
  0
LAYER
  2
_0-1_
 70
   64
 62
    7
  6
CONTINUOUS
  0
LAYER
  2
_0-9_
 70
   64
 62
    7
  6
CONTINUOUS
  0
LAYER
  2
ADD_LINE
 70
   64
 62
    7
  6
CONTINUOUS
  0
ENDTAB
  0
ENDSEC
  0
SECTION
  2
BLOCKS
  0
ENDSEC
  0
SECTION
  2
ENTITIES
  0
LINE
  8
_0-1_
  6
CENTER2
 62
    7
 10
15.046551804665683
 20
84.822516643563176
 11
15.046551804665683
 21
74.822516643563176
  0
LINE
  8
_0-1_
  6
CENTER2
 62
    7
 10
20.046551804665683
 20
79.822516643563176
 11
10.046551804665683
 21
79.822516643563176
  0
LINE
  8
_0-1_
  6
PHANTOM1
 62
    7
 10
26.213933935824571
 20
16.913817573618019
 11
26.213933935824571
 21
4.0138179550877453
  0
LINE
  8
_0-1_
  6
PHANTOM1
 62
    7
 10
26.213933935824571
 20
28.113818336557472
 11
26.213933935824571
 21
41.013817955087745
  0
LINE
  8
_0-1_
  6
PHANTOM1
 62
    7
 10
40.613933554354844
 20
42.513817955087745
 11
27.713933935824571
 21
42.513817955087745
  0
LINE
  8
_0-1_
  6
PHANTOM1
 62
    7
 10
51.813934317294297
 20
42.513817955087745
 11
64.713933935824571
 21
42.513817955087745
  0
LINE
  8
_0-1_
  6
PHANTOM1
 62
    7
 10
66.213933935824571
 20
28.113818336557472
 11
66.213933935824571
 21
41.013817955087745
  0
LINE
  8
_0-1_
  6
PHANTOM1
 62
    7
 10
66.213933935824571
 20
16.913817573618019
 11
66.213933935824571
 21
4.0138179550877453
  0
LINE
  8
_0-1_
  6
PHANTOM1
 62
    7
 10
51.813934317294297
 20
2.5138179550877453
 11
64.713933935824571
 21
2.5138179550877453
  0
LINE
  8
_0-1_
  6
PHANTOM1
 62
    7
 10
40.613933554354844
 20
2.5138179550877453
 11
27.713933935824571
 21
2.5138179550877453
  0
LINE
  8
_0-1_
  6
PHANTOM1
 62
    7
 10
28.495899906817613
 20
17.413817573618019
 11
26.713933935824571
 21
17.413817573618019
  0
LINE
  8
_0-1_
  6
PHANTOM1
 62
    7
 10
28.719506731692491
 20
17.361031700204933
 11
29.537540665332017
 21
16.952014137338722
  0
LINE
  8
_0-1_
  6
PHANTOM1
 62
    7
 10
28.495899906817613
 20
27.613818336557472
 11
26.713933935824571
 21
27.613818336557472
  0
LINE
  8
_0-1_
  6
PHANTOM1
 62
    7
 10
28.719506731692491
 20
27.666604209970558
 11
29.537540665332017
 21
28.075621772836769
  0
LINE
  8
_0-1_
  6
PHANTOM1
 62
    7
 10
29.813933840457139
 20
30.013817955087745
 11
29.813933840457139
 21
28.522834945749366
  0
LINE
  8
_0-1_
  6
PHANTOM1
 62
    7
 10
29.813933840457139
 20
15.013817955087745
 11
29.813933840457139
 21
16.504800010751808
  0
LINE
  8
_0-1_
  6
PHANTOM1
 62
    7
 10
41.113933554354844
 20
40.231851984094703
 11
41.113933554354844
 21
42.013817955087745
  0
LINE
  8
_0-1_
  6
PHANTOM1
 62
    7
 10
41.061147680941758
 20
40.008245159219825
 11
40.652130118075547
 21
39.190211225580299
  0
LINE
  8
_0-1_
  6
PHANTOM1
 62
    7
 10
38.713933935824571
 20
38.913818050455177
 11
40.20491694516295
 21
38.913818050455177
  0
LINE
  8
_0-1_
  6
PHANTOM1
 62
    7
 10
53.713933935824571
 20
38.913818050455177
 11
52.222951880160508
 21
38.913818050455177
  0
LINE
  8
_0-1_
  6
PHANTOM1
 62
    7
 10
51.366720190707383
 20
40.008245159219825
 11
51.775737753573594
 21
39.190211225580299
  0
LINE
  8
_0-1_
  6
PHANTOM1
 62
    7
 10
51.313934317294297
 20
40.231851984094703
 11
51.313934317294297
 21
42.013817955087745
  0
LINE
  8
_0-1_
  6
PHANTOM1
 62
    7
 10
63.931966772738633
 20
17.413817573618019
 11
65.713933935824571
 21
17.413817573618019
  0
LINE
  8
_0-1_
  6
PHANTOM1
 62
    7
 10
63.708360663119493
 20
17.361031700204933
 11
62.890325537387071
 21
16.952014137338722
  0
LINE
  8
_0-1_
  6
PHANTOM1
 62
    7
 10
62.613935461703477
 20
15.013817955087745
 11
62.613935461703477
 21
16.504800010751808
  0
LINE
  8
_0-1_
  6
PHANTOM1
 62
    7
 10
62.613935461703477
 20
30.013817955087745
 11
62.613935461703477
 21
28.522834945749366
  0
LINE
  8
_0-1_
  6
PHANTOM1
 62
    7
 10
63.708360663119493
 20
27.666604209970558
 11
62.890325537387071
 21
28.075621772836769
  0
LINE
  8
_0-1_
  6
PHANTOM1
 62
    7
 10
63.931966772738633
 20
27.613818336557472
 11
65.713933935824571
 21
27.613818336557472
  0
LINE
  8
_0-1_
  6
PHANTOM1
 62
    7
 10
41.113933554354844
 20
4.7957851181736828
 11
41.113933554354844
 21
3.0138179550877453
  0
LINE
  8
_0-1_
  6
PHANTOM1
 62
    7
 10
41.061147680941758
 20
5.0193912277928234
 11
40.652130118075547
 21
5.8374263535252453
  0
LINE
  8
_0-1_
  6
PHANTOM1
 62
    7
 10
38.713933935824571
 20
6.1138164292088391
 11
40.20491694516295
 21
6.1138164292088391
  0
LINE
  8
_0-1_
  6
PHANTOM1
 62
    7
 10
53.713933935824571
 20
6.1138164292088391
 11
52.222951880160508
 21
6.1138164292088391
  0
LINE
  8
_0-1_
  6
PHANTOM1
 62
    7
 10
51.366720190707383
 20
5.0193912277928234
 11
51.775737753573594
 21
5.8374263535252453
  0
LINE
  8
_0-1_
  6
PHANTOM1
 62
    7
 10
51.313934317294297
 20
4.7957851181736828
 11
51.313934317294297
 21
3.0138179550877453
  0
LINE
  8
_0-1_
  6
PHANTOM1
 62
    7
 10
38.213933935824571
 20
10.806710411142433
 11
38.213933935824571
 21
6.6138164292088391
  0
LINE
  8
_0-1_
  6
PHANTOM1
 62
    7
 10
39.567487707797227
 20
12.367371727060402
 11
38.360380163851914
 21
11.160264183115089
  0
LINE
  8
_0-1_
  6
PHANTOM1
 62
    7
 10
52.506826391879258
 20
12.513817955087745
 11
39.921040526095567
 21
12.513817955087745
  0
LINE
  8
_0-1_
  6
PHANTOM1
 62
    7
 10
54.067487707797227
 20
11.160264183115089
 11
52.860380163851914
 21
12.367371727060402
  0
LINE
  8
_0-1_
  6
PHANTOM1
 62
    7
 10
54.213933935824571
 20
10.806710411142433
 11
54.213933935824571
 21
6.6138164292088391
  0
LINE
  8
_0-1_
  6
PHANTOM1
 62
    7
 10
57.921041479769883
 20
14.513817955087745
 11
62.113935461703477
 21
14.513817955087745
  0
LINE
  8
_0-1_
  6
PHANTOM1
 62
    7
 10
56.360380163851914
 20
15.867371727060402
 11
57.567487707797227
 21
14.660264183115089
  0
LINE
  8
_0-1_
  6
PHANTOM1
 62
    7
 10
57.567487707797227
 20
30.367371727060402
 11
56.360380163851914
 21
29.160264183115089
  0
LINE
  8
_0-1_
  6
PHANTOM1
 62
    7
 10
57.921041479769883
 20
30.513817955087745
 11
62.113935461703477
 21
30.513817955087745
  0
LINE
  8
_0-1_
  6
PHANTOM1
 62
    7
 10
54.213933935824571
 20
34.220924545358741
 11
54.213933935824571
 21
38.413818050455177
  0
LINE
  8
_0-1_
  6
PHANTOM1
 62
    7
 10
52.860380163851914
 20
32.660264183115089
 11
54.067487707797227
 21
33.867371727060402
  0
LINE
  8
_0-1_
  6
PHANTOM1
 62
    7
 10
39.921040526095567
 20
32.513817955087745
 11
52.506826391879258
 21
32.513817955087745
  0
LINE
  8
_0-1_
  6
PHANTOM1
 62
    7
 10
38.360380163851914
 20
33.867371727060402
 11
39.567487707797227
 21
32.660264183115089
  0
LINE
  8
_0-1_
  6
PHANTOM1
 62
    7
 10
38.213933935824571
 20
34.220924545358741
 11
38.213933935824571
 21
38.413818050455177
  0
LINE
  8
_0-1_
  6
PHANTOM1
 62
    7
 10
34.506827345553575
 20
14.513817955087745
 11
30.313933840457139
 21
14.513817955087745
  0
LINE
  8
_0-1_
  6
PHANTOM1
 62
    7
 10
36.067487707797227
 20
15.867371727060402
 11
34.860380163851914
 21
14.660264183115089
  0
LINE
  8
_0-1_
  6
PHANTOM1
 62
    7
 10
34.860380163851914
 20
30.367371727060402
 11
36.067487707797227
 21
29.160264183115089
  0
LINE
  8
_0-1_
  6
PHANTOM1
 62
    7
 10
34.506827345553575
 20
30.513817955087745
 11
30.313933840457139
 21
30.513817955087745
  0
ARC
  8
_0-1_
  6
PHANTOM1
 62
    7
 10
40.20491694516295
 20
39.413818050455177
 40
0.5
 50
270
 51
333.4349365234375
  0
ARC
  8
_0-1_
  6
PHANTOM1
 62
    7
 10
52.222951880160508
 20
39.413818050455177
 40
0.5
 50
206.56504821777344
 51
270
  0
ARC
  8
_0-1_
  6
PHANTOM1
 62
    7
 10
52.222951880160508
 20
5.6138164292088391
 40
0.5
 50
90
 51
153.43493652343753
  0
ARC
  8
_0-1_
  6
PHANTOM1
 62
    7
 10
40.20491694516295
 20
5.6138164292088391
 40
0.5
 50
26.56504821777343
 51
90
  0
ARC
  8
_0-1_
  6
PHANTOM1
 62
    7
 10
63.113935461703477
 20
28.522834945749366
 40
0.5
 50
180
 51
243.43493652343753
  0
ARC
  8
_0-1_
  6
PHANTOM1
 62
    7
 10
63.113935461703477
 20
16.504800010751808
 40
0.5
 50
116.56504821777345
 51
180.00000000000003
  0
ARC
  8
_0-1_
  6
PHANTOM1
 62
    7
 10
29.313933840457139
 20
16.504800010751808
 40
0.5
 50
0
 51
63.434936523437493
  0
ARC
  8
_0-1_
  6
PHANTOM1
 62
    7
 10
29.313933840457139
 20
28.522834945749366
 40
0.5
 50
296.56504821777344
 51
0
  0
ARC
  8
_0-1_
  6
PHANTOM1
 62
    7
 10
27.713933935824571
 20
4.0138179550877453
 40
1.5
 50
180
 51
270
  0
ARC
  8
_0-1_
  6
PHANTOM1
 62
    7
 10
27.713933935824571
 20
41.013817955087745
 40
1.5
 50
90
 51
180
  0
ARC
  8
_0-1_
  6
PHANTOM1
 62
    7
 10
64.713933935824571
 20
41.013817955087745
 40
1.5
 50
0
 51
90
  0
ARC
  8
_0-1_
  6
PHANTOM1
 62
    7
 10
64.713933935824571
 20
4.0138179550877453
 40
1.5
 50
270
 51
0
  0
ARC
  8
_0-1_
  6
PHANTOM1
 62
    7
 10
26.713933935824571
 20
16.913817573618019
 40
0.5
 50
90
 51
180
  0
ARC
  8
_0-1_
  6
PHANTOM1
 62
    7
 10
26.713933935824571
 20
28.113818336557472
 40
0.5
 50
180
 51
270
  0
ARC
  8
_0-1_
  6
PHANTOM1
 62
    7
 10
40.613933554354844
 20
42.013817955087745
 40
0.5
 50
0
 51
90
  0
ARC
  8
_0-1_
  6
PHANTOM1
 62
    7
 10
51.813934317294297
 20
42.013817955087745
 40
0.5
 50
90
 51
180
  0
ARC
  8
_0-1_
  6
PHANTOM1
 62
    7
 10
65.713933935824571
 20
28.113818336557472
 40
0.5
 50
270
 51
0
  0
ARC
  8
_0-1_
  6
PHANTOM1
 62
    7
 10
65.713933935824571
 20
16.913817573618019
 40
0.5
 50
0
 51
90
  0
ARC
  8
_0-1_
  6
PHANTOM1
 62
    7
 10
51.813934317294297
 20
3.0138179550877453
 40
0.5
 50
180
 51
270
  0
ARC
  8
_0-1_
  6
PHANTOM1
 62
    7
 10
40.613933554354844
 20
3.0138179550877453
 40
0.5
 50
270
 51
359.99998474121094
  0
ARC
  8
_0-1_
  6
PHANTOM1
 62
    7
 10
28.495899906817613
 20
16.913817573618019
 40
0.5
 50
63.434936523437521
 51
90.000000000000028
  0
ARC
  8
_0-1_
  6
PHANTOM1
 62
    7
 10
28.495899906817613
 20
28.113818336557472
 40
0.5
 50
270
 51
296.56504821777344
  0
ARC
  8
_0-1_
  6
PHANTOM1
 62
    7
 10
30.313933840457139
 20
30.013817955087745
 40
0.5
 50
90
 51
180
  0
ARC
  8
_0-1_
  6
PHANTOM1
 62
    7
 10
30.313933840457139
 20
15.013817955087745
 40
0.5
 50
180
 51
270
  0
ARC
  8
_0-1_
  6
PHANTOM1
 62
    7
 10
40.613933554354844
 20
40.231851984094703
 40
0.5
 50
333.4349365234375
 51
0.000000000000019
  0
ARC
  8
_0-1_
  6
PHANTOM1
 62
    7
 10
38.713933935824571
 20
38.413818050455177
 40
0.5
 50
90
 51
180
  0
ARC
  8
_0-1_
  6
PHANTOM1
 62
    7
 10
53.713933935824571
 20
38.413818050455177
 40
0.5
 50
0
 51
90
  0
ARC
  8
_0-1_
  6
PHANTOM1
 62
    7
 10
51.813934317294297
 20
40.231851984094703
 40
0.5
 50
180
 51
206.56504821777344
  0
ARC
  8
_0-1_
  6
PHANTOM1
 62
    7
 10
63.931966772738633
 20
16.913817573618019
 40
0.5
 50
90
 51
116.56504821777344
  0
ARC
  8
_0-1_
  6
PHANTOM1
 62
    7
 10
62.113935461703477
 20
15.013817955087745
 40
0.5
 50
270
 51
0
  0
ARC
  8
_0-1_
  6
PHANTOM1
 62
    7
 10
62.113935461703477
 20
30.013817955087745
 40
0.5
 50
0
 51
90
  0
ARC
  8
_0-1_
  6
PHANTOM1
 62
    7
 10
63.931966772738633
 20
28.113818336557472
 40
0.5
 50
243.43493652343753
 51
270
  0
ARC
  8
_0-1_
  6
PHANTOM1
 62
    7
 10
40.613933554354844
 20
4.7957851181736828
 40
0.5
 50
359.99998474121088
 51
26.565048217773398
  0
ARC
  8
_0-1_
  6
PHANTOM1
 62
    7
 10
38.713933935824571
 20
6.6138164292088391
 40
0.5
 50
180
 51
270
  0
ARC
  8
_0-1_
  6
PHANTOM1
 62
    7
 10
53.713933935824571
 20
6.6138164292088391
 40
0.5
 50
270
 51
0
  0
ARC
  8
_0-1_
  6
PHANTOM1
 62
    7
 10
51.813934317294297
 20
4.7957851181736828
 40
0.5
 50
153.43493652343753
 51
180.00000000000003
  0
ARC
  8
_0-1_
  6
PHANTOM1
 62
    7
 10
38.713933935824571
 20
10.806710411142433
 40
0.5
 50
135
 51
180
  0
ARC
  8
_0-1_
  6
PHANTOM1
 62
    7
 10
39.921040526095567
 20
12.013817955087745
 40
0.5
 50
90
 51
135
  0
ARC
  8
_0-1_
  6
PHANTOM1
 62
    7
 10
52.506826391879258
 20
12.013817955087745
 40
0.5
 50
45.00000000000005
 51
90.000000000000057
  0
ARC
  8
_0-1_
  6
PHANTOM1
 62
    7
 10
53.713933935824571
 20
10.806710411142433
 40
0.5
 50
0
 51
45
  0
ARC
  8
_0-1_
  6
PHANTOM1
 62
    7
 10
57.921041479769883
 20
15.013817955087745
 40
0.5
 50
225
 51
270
  0
ARC
  8
_0-1_
  6
PHANTOM1
 62
    7
 10
56.713933935824571
 20
16.220925499033058
 40
0.5
 50
180
 51
224.99998474121097
  0
ARC
  8
_0-1_
  6
PHANTOM1
 62
    7
 10
56.713933935824571
 20
28.806711364816749
 40
0.5
 50
135
 51
180
  0
ARC
  8
_0-1_
  6
PHANTOM1
 62
    7
 10
57.921041479769883
 20
30.013817955087745
 40
0.5
 50
90
 51
135
  0
ARC
  8
_0-1_
  6
PHANTOM1
 62
    7
 10
53.713933935824571
 20
34.220924545358741
 40
0.5
 50
315
 51
0
  0
ARC
  8
_0-1_
  6
PHANTOM1
 62
    7
 10
52.506826391879258
 20
33.013817955087745
 40
0.5
 50
270
 51
315
  0
ARC
  8
_0-1_
  6
PHANTOM1
 62
    7
 10
39.921040526095567
 20
33.013817955087745
 40
0.5
 50
225
 51
270
  0
ARC
  8
_0-1_
  6
PHANTOM1
 62
    7
 10
38.713933935824571
 20
34.220924545358741
 40
0.5
 50
180
 51
225
  0
ARC
  8
_0-1_
  6
PHANTOM1
 62
    7
 10
34.506827345553575
 20
15.013817955087745
 40
0.5
 50
270
 51
315
  0
ARC
  8
_0-1_
  6
PHANTOM1
 62
    7
 10
35.713933935824571
 20
16.220925499033058
 40
0.5
 50
315
 51
0
  0
ARC
  8
_0-1_
  6
PHANTOM1
 62
    7
 10
35.713933935824571
 20
28.806711364816749
 40
0.5
 50
0
 51
45
  0
ARC
  8
_0-1_
  6
PHANTOM1
 62
    7
 10
34.506827345553575
 20
30.013817955087745
 40
0.5
 50
45.00000000000005
 51
90.000000000000057
  0
LINE
  8
_0-1_
  6
PHANTOM1
 62
    7
 10
56.213933935824571
 20
16.220925499033058
 11
56.213933935824571
 21
28.806711364816749
  0
LINE
  8
_0-1_
  6
PHANTOM1
 62
    7
 10
36.213933935824571
 20
16.220925499033058
 11
36.213933935824571
 21
28.806711364816749
  0
LINE
  8
_0-1_
  6
PHANTOM1
 62
    7
 10
42.692333163519379
 20
22.513818435087728
 11
50.65490204625462
 21
22.513818435087728
  0
LINE
  8
_0-1_
  6
PHANTOM1
 62
    7
 10
46.213933455824645
 20
26.584729019616191
 11
46.213933455824645
 21
18.906537596978637
  0
LINE
  8
_0-0_
  6
CONTINUOUS
 62
    7
 10
10.046551804665683
 20
97.722516643257222
 11
10.046551804665683
 21
99.122516643257313
  0
LINE
  8
_0-0_
  6
CONTINUOUS
 62
    7
 10
10.346551804665864
 20
99.422516643257495
 11
19.746551804665728
 21
99.422516643257495
  0
LINE
  8
_0-0_
  6
CONTINUOUS
 62
    7
 10
20.046551804665683
 20
99.122516643257313
 11
20.046551804665683
 21
97.722516643257222
  0
LINE
  8
_0-0_
  6
CONTINUOUS
 62
    7
 10
19.746551804665728
 20
97.422516643257495
 11
19.230215298655253
 21
97.422516643257495
  0
LINE
  8
_0-0_
  6
CONTINUOUS
 62
    7
 10
18.747252385510706
 20
97.051926165808709
 11
18.234579417161399
 21
95.138604600261715
  0
LINE
  8
_0-0_
  6
CONTINUOUS
 62
    7
 10
18.264549543912722
 20
94.910958886730896
 11
18.806359425801134
 21
93.972516643257222
  0
LINE
  8
_0-0_
  6
CONTINUOUS
 62
    7
 10
18.696551804665773
 20
93.562709022121908
 11
18.176936562395099
 21
93.262709022122181
  0
LINE
  8
_0-0_
  6
CONTINUOUS
 62
    7
 10
17.767128941259784
 20
93.372516643257313
 11
17.225319059371373
 21
94.310958886730987
  0
LINE
  8
_0-0_
  6
CONTINUOUS
 62
    7
 10
17.075468425614531
 20
95.449187454384628
 11
17.649929968842457
 21
97.593107120706009
  0
LINE
  8
_0-0_
  6
CONTINUOUS
 62
    7
 10
17.16696705569791
 20
98.222516643257222
 11
12.926136553633683
 21
98.222516643257222
  0
LINE
  8
_0-0_
  6
CONTINUOUS
 62
    7
 10
12.443173640489135
 20
97.593107120706009
 11
13.017635183717061
 21
95.449187454384628
  0
LINE
  8
_0-0_
  6
CONTINUOUS
 62
    7
 10
12.86778454996022
 20
94.310958886730987
 11
12.325974668071808
 21
93.372516643257313
  0
LINE
  8
_0-0_
  6
CONTINUOUS
 62
    7
 10
11.916167046936494
 20
93.262709022122181
 11
11.396551804665819
 21
93.562709022121908
  0
LINE
  8
_0-0_
  6
CONTINUOUS
 62
    7
 10
11.286744183530459
 20
93.972516643257222
 11
11.828554065418871
 21
94.910958886730896
  0
LINE
  8
_0-0_
  6
CONTINUOUS
 62
    7
 10
11.858524192170194
 20
95.138604600261715
 11
11.345851223820887
 21
97.051926165808709
  0
LINE
  8
_0-0_
  6
CONTINUOUS
 62
    7
 10
10.86288831067634
 20
97.422516643257495
 11
10.346551804665864
 21
97.422516643257495
  0
ARC
  8
_0-0_
  6
CONTINUOUS
 62
    7
 10
10.346551804665864
 20
99.122516643257313
 40
0.2999999999999999
 50
90
 51
180
  0
ARC
  8
_0-0_
  6
CONTINUOUS
 62
    7
 10
10.346551804665864
 20
97.722516643257222
 40
0.2999999999999999
 50
180
 51
270
  0
ARC
  8
_0-0_
  6
CONTINUOUS
 62
    7
 10
12.926136553633683
 20
97.722516643257222
 40
0.5
 50
90
 51
195.00000000000003
  0
ARC
  8
_0-0_
  6
CONTINUOUS
 62
    7
 10
10.86288831067634
 20
96.922516643257495
 40
0.5
 50
14.999999999999982
 51
90
  0
ARC
  8
_0-0_
  6
CONTINUOUS
 62
    7
 10
11.56874644428342
 20
95.060958886730987
 40
0.2999999999999999
 50
330.00000000000011
 51
15.000000000000027
  0
ARC
  8
_0-0_
  6
CONTINUOUS
 62
    7
 10
11.546551804665683
 20
93.822516643257586
 40
0.2999999999999999
 50
149.99999999999994
 51
239.99999999999994
  0
ARC
  8
_0-0_
  6
CONTINUOUS
 62
    7
 10
12.066167046936357
 20
93.522516643257404
 40
0.2999999999999999
 50
239.99999999999994
 51
330
  0
ARC
  8
_0-0_
  6
CONTINUOUS
 62
    7
 10
11.56874644428342
 20
95.060958886730987
 40
1.5
 50
330.00000000000011
 51
14.99999999999997
  0
ARC
  8
_0-0_
  6
CONTINUOUS
 62
    7
 10
19.746551804665728
 20
99.122516643257313
 40
0.2999999999999999
 50
0
 51
90
  0
ARC
  8
_0-0_
  6
CONTINUOUS
 62
    7
 10
19.746551804665728
 20
97.722516643257222
 40
0.2999999999999999
 50
270
 51
0
  0
ARC
  8
_0-0_
  6
CONTINUOUS
 62
    7
 10
17.16696705569791
 20
97.722516643257222
 40
0.5
 50
344.99999999999989
 51
89.999999999999986
  0
ARC
  8
_0-0_
  6
CONTINUOUS
 62
    7
 10
19.230215298655253
 20
96.922516643257495
 40
0.5
 50
90
 51
165.00000000000003
  0
ARC
  8
_0-0_
  6
CONTINUOUS
 62
    7
 10
18.524357165048173
 20
95.060958886730987
 40
0.2999999999999999
 50
164.99999999999994
 51
209.99999999999991
  0
ARC
  8
_0-0_
  6
CONTINUOUS
 62
    7
 10
18.546551804665683
 20
93.822516643257586
 40
0.2999999999999999
 50
300
 51
30.000000000000018
  0
ARC
  8
_0-0_
  6
CONTINUOUS
 62
    7
 10
18.026936562395008
 20
93.522516643257404
 40
0.2999999999999999
 50
209.99999999999997
 51
300.00000000000006
  0
ARC
  8
_0-0_
  6
CONTINUOUS
 62
    7
 10
18.524357165048173
 20
95.060958886730987
 40
1.5
 50
165
 51
209.99999999999991
  0
LINE
  8
_0-0_
  6
CONTINUOUS
 62
    7
 10
41.213933455824645
 20
40.413818434781774
 11
41.213933455824645
 21
41.813818434781865
  0
LINE
  8
_0-0_
  6
CONTINUOUS
 62
    7
 10
41.513933455824827
 20
42.113818434782047
 11
50.91393345582469
 21
42.113818434782047
  0
LINE
  8
_0-0_
  6
CONTINUOUS
 62
    7
 10
51.213933455824645
 20
41.813818434781865
 11
51.213933455824645
 21
40.413818434781774
  0
LINE
  8
_0-0_
  6
CONTINUOUS
 62
    7
 10
50.91393345582469
 20
40.113818434782047
 11
50.397596949814215
 21
40.113818434782047
  0
LINE
  8
_0-0_
  6
CONTINUOUS
 62
    7
 10
49.914634036669668
 20
39.743227957333261
 11
49.401961068320361
 21
37.829906391786267
  0
LINE
  8
_0-0_
  6
CONTINUOUS
 62
    7
 10
49.431931195071684
 20
37.602260678255448
 11
49.973741076960096
 21
36.663818434781774
  0
LINE
  8
_0-0_
  6
CONTINUOUS
 62
    7
 10
49.863933455824736
 20
36.25401081364646
 11
49.344318213554061
 21
35.954010813646732
  0
LINE
  8
_0-0_
  6
CONTINUOUS
 62
    7
 10
48.934510592418746
 20
36.063818434781865
 11
48.392700710530335
 21
37.002260678255539
  0
LINE
  8
_0-0_
  6
CONTINUOUS
 62
    7
 10
48.242850076773493
 20
38.14048924590918
 11
48.817311620001419
 21
40.28440891223056
  0
LINE
  8
_0-0_
  6
CONTINUOUS
 62
    7
 10
48.334348706856872
 20
40.913818434781774
 11
44.093518204792645
 21
40.913818434781774
  0
LINE
  8
_0-0_
  6
CONTINUOUS
 62
    7
 10
43.610555291648097
 20
40.28440891223056
 11
44.185016834876023
 21
38.14048924590918
  0
LINE
  8
_0-0_
  6
CONTINUOUS
 62
    7
 10
44.035166201119182
 20
37.002260678255539
 11
43.49335631923077
 21
36.063818434781865
  0
LINE
  8
_0-0_
  6
CONTINUOUS
 62
    7
 10
43.083548698095456
 20
35.954010813646732
 11
42.563933455824781
 21
36.25401081364646
  0
LINE
  8
_0-0_
  6
CONTINUOUS
 62
    7
 10
42.454125834689421
 20
36.663818434781774
 11
42.995935716577833
 21
37.602260678255448
  0
LINE
  8
_0-0_
  6
CONTINUOUS
 62
    7
 10
43.025905843329156
 20
37.829906391786267
 11
42.513232874979849
 21
39.743227957333261
  0
LINE
  8
_0-0_
  6
CONTINUOUS
 62
    7
 10
42.030269961835302
 20
40.113818434782047
 11
41.513933455824827
 21
40.113818434782047
  0
ARC
  8
_0-0_
  6
CONTINUOUS
 62
    7
 10
41.513933455824827
 20
41.813818434781865
 40
0.2999999999999999
 50
90
 51
180
  0
ARC
  8
_0-0_
  6
CONTINUOUS
 62
    7
 10
41.513933455824827
 20
40.413818434781774
 40
0.2999999999999999
 50
180
 51
270
  0
ARC
  8
_0-0_
  6
CONTINUOUS
 62
    7
 10
44.093518204792645
 20
40.413818434781774
 40
0.5
 50
90
 51
195.00000000000003
  0
ARC
  8
_0-0_
  6
CONTINUOUS
 62
    7
 10
42.030269961835302
 20
39.613818434782047
 40
0.5
 50
14.999999999999982
 51
90
  0
ARC
  8
_0-0_
  6
CONTINUOUS
 62
    7
 10
42.736128095442382
 20
37.752260678255539
 40
0.2999999999999999
 50
330.00000000000011
 51
15.000000000000027
  0
ARC
  8
_0-0_
  6
CONTINUOUS
 62
    7
 10
42.713933455824645
 20
36.513818434782138
 40
0.2999999999999999
 50
149.99999999999994
 51
239.99999999999994
  0
ARC
  8
_0-0_
  6
CONTINUOUS
 62
    7
 10
43.233548698095319
 20
36.213818434781956
 40
0.2999999999999999
 50
239.99999999999994
 51
330
  0
ARC
  8
_0-0_
  6
CONTINUOUS
 62
    7
 10
42.736128095442382
 20
37.752260678255539
 40
1.5
 50
330.00000000000011
 51
14.99999999999997
  0
ARC
  8
_0-0_
  6
CONTINUOUS
 62
    7
 10
50.91393345582469
 20
41.813818434781865
 40
0.2999999999999999
 50
0
 51
90
  0
ARC
  8
_0-0_
  6
CONTINUOUS
 62
    7
 10
50.91393345582469
 20
40.413818434781774
 40
0.2999999999999999
 50
270
 51
0
  0
ARC
  8
_0-0_
  6
CONTINUOUS
 62
    7
 10
48.334348706856872
 20
40.413818434781774
 40
0.5
 50
344.99999999999989
 51
89.999999999999986
  0
ARC
  8
_0-0_
  6
CONTINUOUS
 62
    7
 10
50.397596949814215
 20
39.613818434782047
 40
0.5
 50
90
 51
165.00000000000003
  0
ARC
  8
_0-0_
  6
CONTINUOUS
 62
    7
 10
49.691738816207135
 20
37.752260678255539
 40
0.2999999999999999
 50
164.99999999999994
 51
209.99999999999991
  0
ARC
  8
_0-0_
  6
CONTINUOUS
 62
    7
 10
49.713933455824645
 20
36.513818434782138
 40
0.2999999999999999
 50
300
 51
30.000000000000018
  0
ARC
  8
_0-0_
  6
CONTINUOUS
 62
    7
 10
49.19431821355397
 20
36.213818434781956
 40
0.2999999999999999
 50
209.99999999999997
 51
300.00000000000006
  0
ARC
  8
_0-0_
  6
CONTINUOUS
 62
    7
 10
49.691738816207135
 20
37.752260678255539
 40
1.5
 50
165
 51
209.99999999999991
  0
LINE
  8
_0-9_
  6
CONTINUOUS
 62
    5
 10
41.083029345677573
 20
40.113817955087825
 11
40.583029345677573
 21
39.088666034298285
  0
LINE
  8
_0-9_
  6
CONTINUOUS
 62
    5
 10
40.583029345677573
 20
39.088666034298285
 11
40.583029345677573
 21
38.613817955087711
  0
LINE
  8
_0-9_
  6
CONTINUOUS
 62
    5
 10
40.583029345677573
 20
38.613817955087711
 11
41.283029345677505
 21
37.913817955087836
  0
LINE
  8
_0-9_
  6
CONTINUOUS
 62
    5
 10
41.283029345677505
 20
37.913817955087836
 11
41.283029345677619
 21
32.513817955087802
  0
LINE
  8
_0-9_
  6
CONTINUOUS
 62
    5
 10
41.283029345677619
 20
32.513817955087802
 11
51.14483757229732
 21
32.513817955087688
  0
LINE
  8
_0-9_
  6
CONTINUOUS
 62
    5
 10
51.14483757229732
 20
32.513817955087688
 11
51.14483757229732
 21
37.913817955087779
  0
LINE
  8
_0-9_
  6
CONTINUOUS
 62
    5
 10
51.14483757229732
 20
37.913817955087779
 11
51.844837572297365
 21
38.613817955087711
  0
LINE
  8
_0-9_
  6
CONTINUOUS
 62
    5
 10
51.844837572297365
 20
38.613817955087711
 11
51.844837572297365
 21
39.088666034298228
  0
LINE
  8
_0-9_
  6
CONTINUOUS
 62
    5
 10
51.844837572297365
 20
39.088666034298228
 11
51.344837572297365
 21
40.113817955087825
  0
LINE
  8
_0-9_
  6
CONTINUOUS
 62
    5
 10
51.344837572297365
 20
40.113817955087825
 11
50.244837572297342
 21
40.113817955087825
  0
LINE
  8
_0-9_
  6
CONTINUOUS
 62
    5
 10
50.244837572297342
 20
40.113817955087825
 11
50.244837572297342
 21
39.172663681899735
  0
LINE
  8
_0-9_
  6
CONTINUOUS
 62
    5
 10
50.244837572297342
 20
39.172663681899735
 11
49.344837572297365
 21
37.613817955087825
  0
LINE
  8
_0-9_
  6
CONTINUOUS
 62
    5
 10
49.344837572297365
 20
37.613817955087825
 11
49.944837572297388
 21
37.013817955087916
  0
LINE
  8
_0-9_
  6
CONTINUOUS
 62
    5
 10
49.944837572297388
 20
37.013817955087916
 11
49.944837572297388
 21
33.113817955087939
  0
LINE
  8
_0-9_
  6
CONTINUOUS
 62
    5
 10
49.944837572297388
 20
33.113817955087939
 11
48.41680189117028
 21
33.113817955087939
  0
LINE
  8
_0-9_
  6
CONTINUOUS
 62
    5
 10
48.41680189117028
 20
33.113817955087939
 11
48.172779188548475
 21
34.02452307947209
  0
LINE
  8
_0-9_
  6
CONTINUOUS
 62
    5
 10
48.172779188548475
 20
34.02452307947209
 11
44.255087734924587
 21
34.02452307947209
  0
LINE
  8
_0-9_
  6
CONTINUOUS
 62
    5
 10
44.255087734924587
 20
34.02452307947209
 11
44.011065032302895
 21
33.113817955087939
  0
LINE
  8
_0-9_
  6
CONTINUOUS
 62
    5
 10
44.011065032302895
 20
33.113817955087939
 11
42.483029345677551
 21
33.113817955087939
  0
LINE
  8
_0-9_
  6
CONTINUOUS
 62
    5
 10
42.483029345677551
 20
33.113817955087939
 11
42.483029345677551
 21
37.013817955087916
  0
LINE
  8
_0-9_
  6
CONTINUOUS
 62
    5
 10
42.483029345677551
 20
37.013817955087916
 11
43.083029345677573
 21
37.613817955087825
  0
LINE
  8
_0-9_
  6
CONTINUOUS
 62
    5
 10
43.083029345677573
 20
37.613817955087825
 11
42.183029345677596
 21
39.172663681899735
  0
LINE
  8
_0-9_
  6
CONTINUOUS
 62
    5
 10
42.183029345677596
 20
39.172663681899735
 11
42.183029345677596
 21
40.113817955087825
  0
LINE
  8
_0-9_
  6
CONTINUOUS
 62
    5
 10
42.183029345677596
 20
40.113817955087825
 11
41.083029345677573
 21
40.113817955087825
  0
LINE
  8
_0-9_
  6
CENTER1
 62
    5
 10
42.692333163519379
 20
22.513818435087728
 11
50.65490204625462
 21
22.513818435087728
  0
LINE
  8
_0-9_
  6
CENTER1
 62
    5
 10
46.213933455824645
 20
18.906537596978637
 11
46.213933455824645
 21
26.584729019616191
  0
LINE
  8
_0-9_
  6
CONTINUOUS
 62
    5
 10
79.915647694518611
 20
97.422516163563273
 11
79.415647694518611
 21
96.397364242773733
  0
LINE
  8
_0-9_
  6
CONTINUOUS
 62
    5
 10
79.415647694518611
 20
96.397364242773733
 11
79.415647694518611
 21
95.922516163563159
  0
LINE
  8
_0-9_
  6
CONTINUOUS
 62
    5
 10
79.415647694518611
 20
95.922516163563159
 11
80.115647694518543
 21
95.222516163563341
  0
LINE
  8
_0-9_
  6
CONTINUOUS
 62
    5
 10
80.115647694518543
 20
95.222516163563341
 11
80.115647694518657
 21
89.82251616356325
  0
LINE
  8
_0-9_
  6
CONTINUOUS
 62
    5
 10
80.115647694518657
 20
89.82251616356325
 11
89.977455921138301
 21
89.822516163563137
  0
LINE
  8
_0-9_
  6
CONTINUOUS
 62
    5
 10
89.977455921138301
 20
89.822516163563137
 11
89.977455921138358
 21
95.222516163563228
  0
LINE
  8
_0-9_
  6
CONTINUOUS
 62
    5
 10
89.977455921138358
 20
95.222516163563228
 11
90.677455921138403
 21
95.922516163563159
  0
LINE
  8
_0-9_
  6
CONTINUOUS
 62
    5
 10
90.677455921138403
 20
95.922516163563159
 11
90.677455921138403
 21
96.397364242773733
  0
LINE
  8
_0-9_
  6
CONTINUOUS
 62
    5
 10
90.677455921138403
 20
96.397364242773733
 11
90.177455921138403
 21
97.422516163563273
  0
LINE
  8
_0-9_
  6
CONTINUOUS
 62
    5
 10
90.177455921138403
 20
97.422516163563273
 11
89.07745592113838
 21
97.422516163563273
  0
LINE
  8
_0-9_
  6
CONTINUOUS
 62
    5
 10
89.07745592113838
 20
97.422516163563273
 11
89.07745592113838
 21
96.481361890375183
  0
LINE
  8
_0-9_
  6
CONTINUOUS
 62
    5
 10
89.07745592113838
 20
96.481361890375183
 11
88.177455921138346
 21
94.922516163563273
  0
LINE
  8
_0-9_
  6
CONTINUOUS
 62
    5
 10
88.177455921138346
 20
94.922516163563273
 11
88.777455921138426
 21
94.322516163563364
  0
LINE
  8
_0-9_
  6
CONTINUOUS
 62
    5
 10
88.777455921138426
 20
94.322516163563364
 11
88.777455921138426
 21
90.422516163563387
  0
LINE
  8
_0-9_
  6
CONTINUOUS
 62
    5
 10
88.777455921138426
 20
90.422516163563387
 11
87.249420240011318
 21
90.422516163563387
  0
LINE
  8
_0-9_
  6
CONTINUOUS
 62
    5
 10
87.249420240011318
 20
90.422516163563387
 11
87.00539753738957
 21
91.333221287947595
  0
LINE
  8
_0-9_
  6
CONTINUOUS
 62
    5
 10
87.00539753738957
 20
91.333221287947595
 11
83.087706083765624
 21
91.333221287947595
  0
LINE
  8
_0-9_
  6
CONTINUOUS
 62
    5
 10
83.087706083765624
 20
91.333221287947595
 11
82.84368338114399
 21
90.422516163563387
  0
LINE
  8
_0-9_
  6
CONTINUOUS
 62
    5
 10
82.84368338114399
 20
90.422516163563387
 11
81.315647694518475
 21
90.422516163563387
  0
LINE
  8
_0-9_
  6
CONTINUOUS
 62
    5
 10
81.315647694518475
 20
90.422516163563387
 11
81.315647694518589
 21
94.322516163563364
  0
LINE
  8
_0-9_
  6
CONTINUOUS
 62
    5
 10
81.315647694518589
 20
94.322516163563364
 11
81.915647694518611
 21
94.922516163563273
  0
LINE
  8
_0-9_
  6
CONTINUOUS
 62
    5
 10
81.915647694518611
 20
94.922516163563273
 11
81.01564769451852
 21
96.481361890375183
  0
LINE
  8
_0-9_
  6
CONTINUOUS
 62
    5
 10
81.01564769451852
 20
96.481361890375183
 11
81.01564769451852
 21
97.422516163563273
  0
LINE
  8
_0-9_
  6
CONTINUOUS
 62
    5
 10
81.01564769451852
 20
97.422516163563273
 11
79.915647694518611
 21
97.422516163563273
  0
LINE
  8
_0-9_
  6
CENTER1
 62
    5
 10
81.524951512360417
 20
79.822516643563176
 11
89.487520395095657
 21
79.822516643563176
  0
LINE
  8
_0-9_
  6
CENTER1
 62
    5
 10
85.046551804665683
 20
76.215235805454085
 11
85.046551804665683
 21
83.893427228091696
  0
TEXT
  8
_0-1_
 62
    7
 10
72.401911983115269
 20
100.85200896813751
 40
5
 41
1
 50
0
  1
FA40A
  0
TEXT
  8
_0-1_
 62
    7
 10
1.7513878514868111
 20
104.50213354928536
 40
5
 41
1
 50
0
  1
CV1F、CV1FB
  0
ENDSEC
  0
EOF
