  0
SECTION
  2
HEADER
  9
$ACADVER
  1
AC1009
  9
$INSBASE
 10
0
 20
0
 30
0
  9
$EXTMIN
 10
0
 20
0
  9
$EXTMAX
 10
1189
 20
841
  9
$LIMMIN
 10
0
 20
0
  9
$LIMMAX
 10
1189
 20
841
  9
$LTSCALE
 40
1
  0
ENDSEC
  0
SECTION
  2
TABLES
  0
TABLE
  2
LTYPE
 70
     9
  0
LTYPE
  2
CONTINUOUS
 70
    64
  3
実線
 72
    65
 73
     0
 40
0.0
  0
LTYPE
  2
DASHED1
 70
    64
  3
--  --  --  --  --  --  --  --  
 72
    65
 73
     2
 40
2.5
 49
1.25
 49
-1.25
  0
LTYPE
  2
DASHED2
 70
    64
  3
----    ----    ----    ----    
 72
    65
 73
     2
 40
5.0
 49
2.5
 49
-2.5
  0
LTYPE
  2
DASHED3
 70
    64
  3
------  ------  ------  ------  
 72
    65
 73
     2
 40
5.0
 49
3.75
 49
-1.25
  0
LTYPE
  2
CENTER1
 70
    64
  3
----- - ----- - ----- - ----- - 
 72
    65
 73
     4
 40
10.0
 49
6.25
 49
-1.25
 49
1.25
 49
-1.25
  0
LTYPE
  2
CENTER2
 70
    64
  3
----------  --  ----------  --  
 72
    65
 73
     4
 40
20.0
 49
12.5
 49
-2.5
 49
2.5
 49
-2.5
  0
LTYPE
  2
PHANTOM1
 70
    64
  3
--- - - --- - - --- - - --- - - 
 72
    65
 73
     6
 40
10.0
 49
3.25
 49
-1.25
 49
1.25
 49
-1.25
 49
1.25
 49
-1.25
  0
LTYPE
  2
PHANTOM2
 70
    64
  3
--------  -  -  --------  -  -  
 72
    65
 73
     6
 40
20.0
 49
10.0
 49
-2.5
 49
1.25
 49
-2.5
 49
1.25
 49
-2.5
  0
LTYPE
  2
DOT
 70
    64
  3
-   -   -   -   -   -   -   -   
 72
    65
 73
     2
 40
2.5
 49
0.625
 49
-1.875
  0
LTYPE
  2
DUMMY
 70
    64
  3
ダミー
 72
    65
 73
     0
 40
0.0
  0
LTYPE
  2
RAND1
 70
    64
  3
ランダム線1
 72
    65
 73
     4
 40
10.0
 49
1.0
 49
-2.0
 49
3.0
 49
-4.0
  0
LTYPE
  2
RAND2
 70
    64
  3
ランダム線2
 72
    65
 73
     4
 40
14.0
 49
2.0
 49
-3.0
 49
4.0
 49
-5.0
  0
LTYPE
  2
RAND3
 70
    64
  3
ランダム線3
 72
    65
 73
     4
 40
18.0
 49
3.0
 49
-4.0
 49
5.0
 49
-6.0
  0
LTYPE
  2
RAND4
 70
    64
  3
ランダム線4
 72
    65
 73
     4
 40
22.0
 49
4.0
 49
-5.0
 49
6.0
 49
-7.0
  0
LTYPE
  2
RAND5
 70
    64
  3
ランダム線5
 72
    65
 73
     4
 40
26.0
 49
5.0
 49
-6.0
 49
7.0
 49
-8.0
  0
LTYPE
  2
LONG1
 70
    64
  3
----------  --  ----------  --  
 72
    65
 73
     4
 40
40.0
 49
32.5
 49
-2.5
 49
2.5
 49
-2.5
  0
LTYPE
  2
LONG2
 70
    64
  3
--------  -  -  --------  -  -  
 72
    65
 73
     6
 40
40.0
 49
30.0
 49
-2.5
 49
1.25
 49
-2.5
 49
1.25
 49
-2.5
  0
LTYPE
  2
LONG3
 70
    64
  3
+++++++++++++++..+++++++++++++++
 72
    65
 73
     2
 40
40.0
 49
37.5
 49
-2.5
  0
LTYPE
  2
LONG4
 70
    64
  3
+++++++++++++++..+++++++++++++++
 72
    65
 73
     2
 40
80.0
 49
75.0
 49
-5.0
  0
LTYPE
  2
LONG5
 70
    64
  3
----------  --  ----------  --  
 72
    65
 73
     4
 40
60.0
 49
37.5
 49
-7.5
 49
7.5
 49
-7.5
  0
LTYPE
  2
dashed
 70
   64
  3
-------   -------------   ------
 72
   65
 73
    2
 40
7.5
 49
6
 49
-1.5
  0
LTYPE
  2
dashed_spaced
 70
   64
  3
----        --------        ----
 72
   65
 73
    2
 40
12
 49
6
 49
-6
  0
LTYPE
  2
long_dashed_dotted
 70
   64
  3
------------- --- --------------
 72
   65
 73
    4
 40
15.25
 49
12
 49
-1.5
 49
0.25
 49
-1.5
  0
LTYPE
  2
long_dashed_double-dotted
 70
   64
  3
----------- --- --- ------------
 72
   65
 73
    6
 40
17
 49
12
 49
-1.5
 49
0.25
 49
-1.5
 49
0.25
 49
-1.5
  0
LTYPE
  2
long_dashed_triplicate-dotted
 70
   64
  3
--------- --- --- --- ----------
 72
   65
 73
    8
 40
18.75
 49
12
 49
-1.5
 49
0.25
 49
-1.5
 49
0.25
 49
-1.5
 49
0.25
 49
-1.5
  0
LTYPE
  2
dotted
 70
   64
  3
   -       -       -       -    
 72
   65
 73
    2
 40
1.75
 49
0.25
 49
-1.5
  0
LTYPE
  2
chain
 70
   64
  3
-------------- -- --------------
 72
   65
 73
    4
 40
18.5
 49
12
 49
-1.5
 49
3.5
 49
-1.5
  0
LTYPE
  2
chain_double_dash
 70
   64
  3
------------ -- -- -------------
 72
   65
 73
    6
 40
23.5
 49
12
 49
-1.5
 49
3.5
 49
-1.5
 49
3.5
 49
-1.5
  0
LTYPE
  2
dashed_dotted
 70
   64
  3
-----------     -     ----------
 72
   65
 73
    4
 40
9.25
 49
6
 49
-1.5
 49
0.25
 49
-1.5
  0
LTYPE
  2
double-dashed_dotted
 70
   64
  3
------   -----------   -   -----
 72
   65
 73
    6
 40
16.75
 49
6
 49
-1.5
 49
6
 49
-1.5
 49
0.25
 49
-1.5
  0
LTYPE
  2
dashed_double-dotted
 70
   64
  3
---------    -    -    ---------
 72
   65
 73
    6
 40
11
 49
6
 49
-1.5
 49
0.25
 49
-1.5
 49
0.25
 49
-1.5
  0
LTYPE
  2
double-dashed_double-dotted
 70
   64
  3
-----   ---------   -   -   ----
 72
   65
 73
    8
 40
18.5
 49
6
 49
-1.5
 49
6
 49
-1.5
 49
0.25
 49
-1.5
 49
0.25
 49
-1.5
  0
LTYPE
  2
dashed_triplicate-dotted
 70
   64
  3
-------    -    -    -    ------
 72
   65
 73
    8
 40
12.75
 49
6
 49
-1.5
 49
0.25
 49
-1.5
 49
0.25
 49
-1.5
 49
0.25
 49
-1.5
  0
LTYPE
  2
double-dashed_triplicate-dotted
 70
   64
  3
-----  ---------  -  -  -  -----
 72
   65
 73
   10
 40
20.25
 49
6
 49
-1.5
 49
6
 49
-1.5
 49
0.25
 49
-1.5
 49
0.25
 49
-1.5
 49
0.25
 49
-1.5
  0
LTYPE
  2
undefined
 70
   64
  3
--------------------------------
 72
   65
 73
    0
 40
0
  0
ENDTAB
  0
TABLE
  2
STYLE
  5
3
100
AcDbSymbolTable
 70
     1
  0
STYLE
  5
10
100
AcDbSymbolTableRecord
100
AcDbTextStyleTableRecord
  2
STANDARD
 70
     0
 40
0.0
 41
1.0
 50
0.0
 71
     0
 42
0.2
  3
txt
  4
bigfont.shx
  0
STYLE
  5
26
100
AcDbSymbolTableRecord
100
AcDbTextStyleTableRecord
  2
TATEGAKI
 70
    68
 40
0.0
 41
1.0
 50
0.0
 71
     0
 42
1.0
  3
txt
  4
bigfont.shx
  0
ENDTAB
  0
TABLE
  2
LAYER
 70
    4
  0
LAYER
  2
_0-0_
 70
   64
 62
    7
  6
CONTINUOUS
  0
LAYER
  2
_0-1_
 70
   64
 62
    7
  6
CONTINUOUS
  0
LAYER
  2
_0-f_
 70
   64
 62
    7
  6
CONTINUOUS
  0
LAYER
  2
ADD_LINE
 70
   64
 62
    7
  6
CONTINUOUS
  0
ENDTAB
  0
ENDSEC
  0
SECTION
  2
BLOCKS
  0
ENDSEC
  0
SECTION
  2
ENTITIES
  0
TEXT
  8
_0-f_
 62
    7
 10
0.9574754926115929
 20
0.5852317525083208
 40
4.2999999999999998
 41
0.744186046511628
 50
0
  1
CG40
  0
LINE
  8
_0-0_
  6
CONTINUOUS
 62
    7
 10
22.464158358320105
 20
84.540084008302188
 11
22.464158358320105
 21
220.34527430830155
  0
LINE
  8
_0-0_
  6
CONTINUOUS
 62
    7
 10
22.464158358320105
 20
220.34527430830155
 11
19.2693486583197
 21
220.34527430830155
  0
LINE
  8
_0-0_
  6
CONTINUOUS
 62
    7
 10
19.464158358320105
 20
220.34527430830155
 11
5.0960777850181103
 21
215.11572065608004
  0
LINE
  8
_0-0_
  6
CONTINUOUS
 62
    7
 10
2.4641583583201054
 20
85.742289188449035
 11
2.4641583583201054
 21
211.35695017293608
  0
LINE
  8
_0-0_
  6
CONTINUOUS
 62
    7
 10
22.464158358321924
 20
84.540084008300369
 11
158.26934865832152
 21
84.540084008282179
  0
LINE
  8
_0-0_
  6
CONTINUOUS
 62
    7
 10
158.26934865832152
 20
84.540084008282179
 11
158.26934865832106
 21
81.345274308281773
  0
LINE
  8
_0-0_
  6
CONTINUOUS
 62
    7
 10
153.03979500609773
 20
67.172003434981093
 11
158.26934865832106
 21
81.540084008282179
  0
LINE
  8
_0-0_
  6
CONTINUOUS
 62
    7
 10
149.28102452295332
 20
64.540084008283543
 11
23.666363538466044
 21
64.540084008300369
  0
LINE
  8
_0-0_
  6
CONTINUOUS
 62
    7
 10
12.295438225419616
 20
71.681557669922427
 11
12.295438225420071
 21
74.371363875401244
  0
LINE
  8
_0-0_
  6
CONTINUOUS
 62
    7
 10
12.295438225419616
 20
74.371363875401698
 11
9.6056320199407992
 21
74.371363875401698
  0
ARC
  8
_0-0_
  6
CONTINUOUS
 62
    7
 10
23.964158358320105
 20
86.040084008302188
 40
21.502062267483339
 50
180
 51
269.20645137974259
  0
ARC
  8
_0-0_
  6
CONTINUOUS
 62
    7
 10
6.4641583583201054
 20
211.35695017293608
 40
4
 50
109.99999999999999
 51
180
  0
ARC
  8
_0-0_
  6
CONTINUOUS
 62
    7
 10
23.964158358320105
 20
86.040084008302188
 40
18.502062267483339
 50
219.09966909096136
 51
230.90033090904046
  0
ARC
  8
_0-0_
  6
CONTINUOUS
 62
    7
 10
149.28102452295377
 20
68.540084008283543
 40
4
 50
269.99999999999238
 51
339.99999999999238
  0
ARC
  8
_0-0_
  6
CONTINUOUS
 62
    7
 10
23.964158358321924
 20
86.040084008299914
 40
18.502062267483339
 50
219.09966909095189
 51
230.90033090903106
  0
LINE
  8
_0-0_
  6
CONTINUOUS
 62
    7
 10
354.13449384282103
 20
114.99462928028174
 11
218.13449382504996
 21
114.99462928028174
  0
LINE
  8
_0-0_
  6
CONTINUOUS
 62
    7
 10
218.13449382505132
 20
114.99462928028174
 11
207.96577369215083
 21
125.16334941318223
  0
LINE
  8
_0-0_
  6
CONTINUOUS
 62
    7
 10
207.96577369215083
 20
125.16334941318223
 11
202.05598079349056
 21
125.16334941318223
  0
LINE
  8
_0-0_
  6
CONTINUOUS
 62
    7
 10
202.05598079349056
 20
125.16334941318223
 11
191.88726066059007
 21
114.99462928028174
  0
LINE
  8
_0-0_
  6
CONTINUOUS
 62
    7
 10
191.88726066059007
 20
114.99462928028174
 11
55.887260660589618
 21
114.99462928028174
  0
LINE
  8
_0-0_
  6
CONTINUOUS
 62
    7
 10
55.887260660589618
 20
114.99462928028174
 11
55.887260660589618
 21
117.99462928028174
  0
LINE
  8
_0-0_
  6
CONTINUOUS
 62
    7
 10
55.887260660589618
 20
117.99462928028174
 11
61.116814312810675
 21
132.36270985358465
  0
LINE
  8
_0-0_
  6
CONTINUOUS
 62
    7
 10
190.68505548044141
 20
134.99462928028129
 11
64.875584795954637
 21
134.99462928028129
  0
LINE
  8
_0-0_
  6
CONTINUOUS
 62
    7
 10
55.887260660590073
 20
210.75964164169272
 11
55.887260660590073
 21
180.7596416416927
  0
LINE
  8
_0-0_
  6
CONTINUOUS
 62
    7
 10
60.887260660589618
 20
175.75964164169179
 11
193.56924117415019
 21
175.75964164169179
  0
LINE
  8
_0-0_
  6
CONTINUOUS
 62
    7
 10
193.56924117415019
 20
175.75964164169179
 11
202.05598079349102
 21
180.12803506169254
  0
LINE
  8
_0-0_
  6
CONTINUOUS
 62
    7
 10
202.05598079349102
 20
180.12803506169254
 11
202.05598079349102
 21
180.829243701693
  0
LINE
  8
_0-0_
  6
CONTINUOUS
 62
    7
 10
202.05598079349102
 20
180.829243701693
 11
207.96577369215129
 21
180.829243701693
  0
LINE
  8
_0-0_
  6
CONTINUOUS
 62
    7
 10
207.96577369215129
 20
180.829243701693
 11
207.96577369215129
 21
180.12803506169254
  0
LINE
  8
_0-0_
  6
CONTINUOUS
 62
    7
 10
207.96577369215129
 20
180.12803506169254
 11
216.45251331149075
 21
175.75964164169179
  0
LINE
  8
_0-0_
  6
CONTINUOUS
 62
    7
 10
216.45251331149075
 20
175.75964164169179
 11
349.13449384282103
 21
175.75964164169179
  0
LINE
  8
_0-0_
  6
CONTINUOUS
 62
    7
 10
354.13449384282194
 20
180.7596416416927
 11
354.13449384282194
 21
210.75964164169272
  0
LINE
  8
_0-0_
  6
CONTINUOUS
 62
    7
 10
60.887260660589618
 20
215.75964164169227
 11
193.56924117415019
 21
215.75964164169227
  0
LINE
  8
_0-0_
  6
CONTINUOUS
 62
    7
 10
193.56924117415019
 20
215.75964164169227
 11
202.05598079349102
 21
211.39124822169288
  0
LINE
  8
_0-0_
  6
CONTINUOUS
 62
    7
 10
202.05598079349102
 20
211.39124822169288
 11
202.05598079349102
 21
210.69003958169242
  0
LINE
  8
_0-0_
  6
CONTINUOUS
 62
    7
 10
202.05598079349102
 20
210.69003958169242
 11
207.96577369215129
 21
210.69003958169242
  0
LINE
  8
_0-0_
  6
CONTINUOUS
 62
    7
 10
207.96577369215129
 20
210.69003958169242
 11
207.96577369215129
 21
211.39124822169288
  0
LINE
  8
_0-0_
  6
CONTINUOUS
 62
    7
 10
207.96577369215129
 20
211.39124822169288
 11
216.45251331149075
 21
215.75964164169227
  0
LINE
  8
_0-0_
  6
CONTINUOUS
 62
    7
 10
216.45251331149075
 20
215.75964164169227
 11
349.13449384282103
 21
215.75964164169227
  0
LINE
  8
_0-0_
  6
CONTINUOUS
 62
    7
 10
283.63449384282103
 20
114.99462928028174
 11
283.63449384282103
 21
117.99462928028174
  0
LINE
  8
_0-0_
  6
CONTINUOUS
 62
    7
 10
281.13449384281921
 20
117.99462928028174
 11
281.13449384281921
 21
134.99462928028129
  0
LINE
  8
_0-0_
  6
CONTINUOUS
 62
    7
 10
219.33669900519726
 20
134.99462928028129
 11
345.14616970745601
 21
134.99462928028129
  0
LINE
  8
_0-0_
  6
CONTINUOUS
 62
    7
 10
348.90494019059861
 20
132.36270985358465
 11
354.13449384282103
 21
117.99462928028174
  0
LINE
  8
_0-0_
  6
CONTINUOUS
 62
    7
 10
354.13449384282103
 20
117.99462928028174
 11
354.13449384282103
 21
114.99462928028174
  0
LINE
  8
_0-0_
  6
CONTINUOUS
 62
    7
 10
344.13449384281921
 20
114.99462928028174
 11
344.13449384281921
 21
117.99462928028174
  0
LINE
  8
_0-0_
  6
CONTINUOUS
 62
    7
 10
344.13449384281921
 20
117.99462928028174
 11
276.5094806074294
 21
117.99462928028174
  0
LINE
  8
_0-0_
  6
CONTINUOUS
 62
    7
 10
326.13449384281921
 20
134.99462928028129
 11
326.13449384281921
 21
117.99462928028174
  0
LINE
  8
_0-0_
  6
CONTINUOUS
 62
    7
 10
328.63449384282103
 20
117.99462928028174
 11
328.63449384282103
 21
114.99462928028174
  0
LINE
  8
_0-0_
  6
CONTINUOUS
 62
    7
 10
338.13449384281921
 20
134.99462928028129
 11
338.13449384281921
 21
117.99462928028174
  0
LINE
  8
_0-0_
  6
CONTINUOUS
 62
    7
 10
335.63449384282012
 20
117.99462928028174
 11
335.63449384282012
 21
114.99462928028174
  0
LINE
  8
_0-0_
  6
CONTINUOUS
 62
    7
 10
290.63449384282058
 20
114.99462928028174
 11
290.63449384282058
 21
117.99462928028174
  0
LINE
  8
_0-0_
  6
CONTINUOUS
 62
    7
 10
293.13449384281967
 20
117.99462928028174
 11
293.13449384281967
 21
134.99462928028129
  0
ARC
  8
_0-0_
  6
CONTINUOUS
 62
    7
 10
60.887260660589618
 20
180.7596416416927
 40
5
 50
180
 51
270
  0
ARC
  8
_0-0_
  6
CONTINUOUS
 62
    7
 10
60.887260660589618
 20
210.75964164169272
 40
5
 50
90
 51
180
  0
CIRCLE
  8
_0-0_
  6
CONTINUOUS
 62
    7
 10
77.887260660590528
 20
195.7596416416927
 40
6
  0
CIRCLE
  8
_0-0_
  6
CONTINUOUS
 62
    7
 10
122.88726066059053
 20
195.7596416416927
 40
6
  0
CIRCLE
  8
_0-0_
  6
CONTINUOUS
 62
    7
 10
77.887260660590528
 20
195.7596416416927
 40
3.4999999999999996
  0
CIRCLE
  8
_0-0_
  6
CONTINUOUS
 62
    7
 10
122.88726066059053
 20
195.7596416416927
 40
3.4999999999999996
  0
ARC
  8
_0-0_
  6
CONTINUOUS
 62
    7
 10
349.13449384282103
 20
180.7596416416927
 40
5
 50
270
 51
0
  0
ARC
  8
_0-0_
  6
CONTINUOUS
 62
    7
 10
349.13449384282103
 20
210.75964164169272
 40
5
 50
0
 51
90
  0
CIRCLE
  8
_0-0_
  6
CONTINUOUS
 62
    7
 10
332.13449384282012
 20
195.7596416416927
 40
6
  0
CIRCLE
  8
_0-0_
  6
CONTINUOUS
 62
    7
 10
287.13449384282012
 20
195.7596416416927
 40
6
  0
CIRCLE
  8
_0-0_
  6
CONTINUOUS
 62
    7
 10
287.13449384282012
 20
195.7596416416927
 40
3.4999999999999996
  0
CIRCLE
  8
_0-0_
  6
CONTINUOUS
 62
    7
 10
332.13449384282012
 20
195.7596416416927
 40
3.4999999999999996
  0
ARC
  8
_0-0_
  6
CONTINUOUS
 62
    7
 10
219.63449382504996
 20
113.49462928028174
 40
21.502062267483339
 50
90.793548620257425
 51
126.64334682123419
  0
ARC
  8
_0-0_
  6
CONTINUOUS
 62
    7
 10
190.38726066059007
 20
113.49462928028174
 40
21.502062267483339
 50
53.356653178767246
 51
89.20645137974256
  0
ARC
  8
_0-0_
  6
CONTINUOUS
 62
    7
 10
205.01087724281933
 20
133.15425525372143
 40
3
 50
233.35665317876686
 51
306.64334682123388
  0
ARC
  8
_0-0_
  6
CONTINUOUS
 62
    7
 10
64.875584795954637
 20
130.99462928028083
 40
4
 50
90
 51
159.99999999999997
  0
ARC
  8
_0-0_
  6
CONTINUOUS
 62
    7
 10
345.14616970745601
 20
130.99462928028083
 40
4
 50
20.000000000000004
 51
90.000000000000014
  0
LINE
  8
_0-0_
  6
CONTINUOUS
 62
    7
 10
2.4641583583201054
 20
36.088493871464721
 11
2.4641583583201054
 21
14.065142142193849
  0
LINE
  8
_0-0_
  6
CONTINUOUS
 62
    7
 10
153.26934865832152
 20
5.0768180068283755
 11
19.464158358320105
 21
5.0768180068283755
  0
LINE
  8
_0-0_
  6
CONTINUOUS
 62
    7
 10
19.464158358320105
 20
5.0768180068283755
 11
5.0960777850181103
 21
10.306371659049887
  0
LINE
  8
_0-0_
  6
CONTINUOUS
 62
    7
 10
158.26934865832152
 20
40.076818006828375
 11
158.26934865832152
 21
10.076818006828375
  0
LINE
  8
_0-0_
  6
CONTINUOUS
 62
    7
 10
153.26934865832152
 20
45.076818006828375
 11
19.464158358320105
 21
45.076818006828375
  0
LINE
  8
_0-0_
  6
CONTINUOUS
 62
    7
 10
19.464158358320105
 20
45.076818006828375
 11
5.0960777850181103
 21
39.847264354608683
  0
LINE
  8
_0-0_
  6
DASHED2
 62
    7
 10
10.464158358320105
 20
8.3525501152238348
 11
10.464158358320105
 21
41.801085898432916
  0
CIRCLE
  8
_0-0_
  6
CONTINUOUS
 62
    7
 10
91.269348658321519
 20
25.076818006828375
 40
3.4999999999999996
  0
CIRCLE
  8
_0-0_
  6
CONTINUOUS
 62
    7
 10
136.26934865832152
 20
25.076818006828375
 40
3.4999999999999996
  0
ARC
  8
_0-0_
  6
CONTINUOUS
 62
    7
 10
6.4641583583201054
 20
14.065142142193849
 40
4
 50
180
 51
250.00000000000003
  0
ARC
  8
_0-0_
  6
CONTINUOUS
 62
    7
 10
6.4641583583201054
 20
36.088493871464721
 40
4
 50
109.99999999999996
 51
180
  0
ARC
  8
_0-0_
  6
CONTINUOUS
 62
    7
 10
153.26934865832152
 20
40.076818006828375
 40
5
 50
0
 51
90
  0
ARC
  8
_0-0_
  6
CONTINUOUS
 62
    7
 10
153.26934865832152
 20
10.076818006828375
 40
5
 50
270
 51
0
  0
CIRCLE
  8
_0-0_
  6
CONTINUOUS
 62
    7
 10
136.26934865832152
 20
25.076818006828375
 40
6
  0
CIRCLE
  8
_0-0_
  6
CONTINUOUS
 62
    7
 10
91.269348658321519
 20
25.076818006828375
 40
6
  0
LINE
  8
_0-1_
  6
CENTER1
 62
  152
 10
91.269348658321519
 20
84.540084008291274
 11
91.269348658318791
 21
64.540084008291274
  0
LINE
  8
_0-1_
  6
CONTINUOUS
 62
  152
 10
8.7599043194862816
 20
70.835829969468364
 11
22.464158358320105
 21
84.540084008300369
  0
LINE
  8
_0-1_
  6
CONTINUOUS
 62
  152
 10
5.096077788319576
 20
215.1157206572824
 11
5.096077788319576
 21
85.761110333893271
  0
LINE
  8
_0-1_
  6
CENTER1
 62
  152
 10
2.4641583583201054
 20
198.34527430830153
 11
22.464158358320105
 21
198.34527430830153
  0
LINE
  8
_0-1_
  6
CONTINUOUS
 62
  152
 10
19.464158358320105
 20
220.34527430830155
 11
19.464158358320105
 21
86.040084008300369
  0
LINE
  8
_0-1_
  6
CONTINUOUS
 62
  152
 10
158.26934865832106
 20
81.540084008282179
 11
23.964158358319651
 21
81.540084008299914
  0
LINE
  8
_0-1_
  6
CONTINUOUS
 62
  152
 10
23.685184683910734
 20
67.172003438299839
 11
153.03979500730009
 21
67.172003438282559
  0
LINE
  8
_0-1_
  6
CENTER1
 62
  152
 10
136.26934865832152
 20
84.540084008285362
 11
136.26934865831879
 21
64.540084008285362
  0
LINE
  8
_0-1_
  6
CONTINUOUS
 62
  152
 10
23.685184683910734
 20
67.172003438299839
 11
23.312193687904141
 21
67.181207244943266
  0
LINE
  8
_0-1_
  6
CENTER1
 62
  152
 10
2.4641583583201054
 20
153.34527430830178
 11
22.464158358320105
 21
153.34527430830178
  0
ARC
  8
_0-1_
  6
CONTINUOUS
 62
  152
 10
23.964158358320105
 20
86.040084008302188
 40
18.870142837483343
 50
180.84708401972935
 51
268.02003301675222
  0
ARC
  8
_0-1_
  6
CONTINUOUS
 62
  152
 10
23.964158358320105
 20
86.040084008302188
 40
4.5
 50
180
 51
270
  0
LINE
  8
_0-1_
  6
CONTINUOUS
 62
  152
 10
61.116814311607413
 20
132.36270985027909
 11
190.66623433499626
 21
132.36270985028182
  0
LINE
  8
_0-1_
  6
CONTINUOUS
 62
  152
 10
64.116814312589668
 20
132.36270985027909
 11
60.887260660589163
 21
117.99462928027901
  0
LINE
  8
_0-1_
  6
CONTINUOUS
 62
  152
 10
60.887260660589163
 20
117.99462928027901
 11
60.887260660589163
 21
114.99462928028174
  0
LINE
  8
_0-1_
  6
DASHED2
 62
  152
 10
65.887260660590073
 20
114.99462928028174
 11
65.887260660590073
 21
117.99462928028174
  0
LINE
  8
_0-1_
  6
DASHED2
 62
  152
 10
65.887260660590073
 20
117.99462928028174
 11
185.88726066059007
 21
117.99462928028174
  0
LINE
  8
_0-1_
  6
DASHED2
 62
  152
 10
185.88726066059007
 20
117.99462928028174
 11
185.88726066059007
 21
114.99462928028174
  0
LINE
  8
_0-1_
  6
CONTINUOUS
 62
  152
 10
190.38726066059007
 20
117.99462928028174
 11
190.38726066059007
 21
134.99462928028129
  0
LINE
  8
_0-1_
  6
CONTINUOUS
 62
  152
 10
190.38726066059007
 20
117.99462928028174
 11
55.887260660589618
 21
117.99462928027901
  0
LINE
  8
_0-1_
  6
DASHED2
 62
  152
 10
71.887260660590073
 20
117.99462928028174
 11
71.887260660590073
 21
134.99462928028129
  0
LINE
  8
_0-1_
  6
CENTER1
 62
  152
 10
77.887260660590073
 20
137.91633131778485
 11
77.887260660590073
 21
111.77173359759445
  0
LINE
  8
_0-1_
  6
DASHED2
 62
  152
 10
83.887260660590073
 20
117.99462928028174
 11
83.887260660590073
 21
134.99462928028129
  0
LINE
  8
_0-1_
  6
DASHED2
 62
  152
 10
116.88726066059007
 20
134.99462928028129
 11
116.88726066059007
 21
117.99462928028174
  0
LINE
  8
_0-1_
  6
DASHED2
 62
  152
 10
128.88726066059007
 20
117.99462928028174
 11
128.88726066059007
 21
134.99462928028129
  0
LINE
  8
_0-1_
  6
CENTER1
 62
  152
 10
122.88726066059007
 20
137.91633131778485
 11
122.88726066059007
 21
111.77173359759445
  0
LINE
  8
_0-1_
  6
CONTINUOUS
 62
  152
 10
55.887260660590073
 20
180.7596416416927
 11
61.116814312590122
 21
183.98919529369184
  0
LINE
  8
_0-1_
  6
CONTINUOUS
 62
  152
 10
61.116814312590122
 20
183.98919529369184
 11
64.875584795589475
 21
185.74796577669301
  0
LINE
  8
_0-1_
  6
CONTINUOUS
 62
  152
 10
64.875584795589475
 20
185.74796577669301
 11
64.875584795589475
 21
205.77131750669238
  0
LINE
  8
_0-1_
  6
CONTINUOUS
 62
  152
 10
64.875584795589475
 20
205.77131750669238
 11
61.116814312590122
 21
207.53008798969219
  0
LINE
  8
_0-1_
  6
CONTINUOUS
 62
  152
 10
61.116814312590122
 20
207.53008798969219
 11
55.887260660590073
 21
210.75964164169272
  0
LINE
  8
_0-1_
  6
CONTINUOUS
 62
  152
 10
64.116814312590122
 20
180.98919529369184
 11
65.87558479558993
 21
184.74796577669255
  0
LINE
  8
_0-1_
  6
CONTINUOUS
 62
  152
 10
65.87558479558993
 20
184.74796577669255
 11
344.14616970782072
 21
184.74796577669255
  0
LINE
  8
_0-1_
  6
CONTINUOUS
 62
  152
 10
344.14616970782072
 20
184.74796577669255
 11
345.90494019082053
 21
180.98919529369184
  0
LINE
  8
_0-1_
  6
CONTINUOUS
 62
  152
 10
345.90494019082053
 20
180.98919529369184
 11
64.116814312590122
 21
180.98919529369184
  0
LINE
  8
_0-1_
  6
CONTINUOUS
 62
  152
 10
64.116814312590122
 20
180.98919529369184
 11
60.887260660589618
 21
175.75964164169179
  0
LINE
  8
_0-1_
  6
CONTINUOUS
 62
  152
 10
349.13449384282103
 20
175.75964164169179
 11
345.90494019082053
 21
180.98919529369184
  0
LINE
  8
_0-1_
  6
CONTINUOUS
 62
  152
 10
345.14616970782117
 20
185.74796577669301
 11
345.14616970782117
 21
205.77131750669238
  0
LINE
  8
_0-1_
  6
CONTINUOUS
 62
  152
 10
345.14616970782117
 20
205.77131750669238
 11
348.90494019082053
 21
207.53008798969219
  0
LINE
  8
_0-1_
  6
CONTINUOUS
 62
  152
 10
348.90494019082053
 20
207.53008798969219
 11
348.90494019082053
 21
183.98919529369184
  0
LINE
  8
_0-1_
  6
CONTINUOUS
 62
  152
 10
348.90494019082053
 20
183.98919529369184
 11
354.13449384282194
 21
180.7596416416927
  0
LINE
  8
_0-1_
  6
CONTINUOUS
 62
  152
 10
354.13449384282194
 20
210.75964164169272
 11
348.90494019082053
 21
207.53008798969219
  0
LINE
  8
_0-1_
  6
CONTINUOUS
 62
  152
 10
344.14616970782072
 20
206.77131750669284
 11
65.87558479558993
 21
206.77131750669284
  0
LINE
  8
_0-1_
  6
CONTINUOUS
 62
  152
 10
65.87558479558993
 20
206.77131750669284
 11
64.116814312590122
 21
210.53008798969222
  0
LINE
  8
_0-1_
  6
CONTINUOUS
 62
  152
 10
64.116814312590122
 20
210.53008798969222
 11
60.887260660589618
 21
215.75964164169227
  0
LINE
  8
_0-1_
  6
CONTINUOUS
 62
  152
 10
349.13449384282103
 20
215.75964164169227
 11
345.90494019082053
 21
210.53008798969222
  0
LINE
  8
_0-1_
  6
CONTINUOUS
 62
  152
 10
345.90494019082053
 20
210.53008798969222
 11
344.14616970782072
 21
206.77131750669284
  0
LINE
  8
_0-1_
  6
CONTINUOUS
 62
  152
 10
345.90494019082053
 20
210.53008798969222
 11
64.116814312590122
 21
210.53008798969222
  0
LINE
  8
_0-1_
  6
CONTINUOUS
 62
  152
 10
61.116814312590122
 20
207.53008798969219
 11
61.116814312590122
 21
183.98919529369184
  0
LINE
  8
_0-1_
  6
CENTER1
 62
  152
 10
55.887260660590073
 20
195.7596416416927
 11
354.13449384282194
 21
195.7596416416927
  0
LINE
  8
_0-1_
  6
CONTINUOUS
 62
  152
 10
348.90494019082053
 20
183.98919529369184
 11
345.14616970782117
 21
185.74796577669301
  0
LINE
  8
_0-1_
  6
CENTER1
 62
  152
 10
332.13449384282012
 20
189.05906970808698
 11
332.13449384282012
 21
201.94199877063645
  0
LINE
  8
_0-1_
  6
CENTER1
 62
  152
 10
287.13449384282012
 20
201.94199877063645
 11
287.13449384282012
 21
189.05906970808698
  0
LINE
  8
_0-1_
  6
CENTER1
 62
  152
 10
287.13449384281967
 20
137.91633131778485
 11
287.13449384281967
 21
111.77173359759445
  0
LINE
  8
_0-1_
  6
CONTINUOUS
 62
  152
 10
272.65956502191284
 20
132.36270985028045
 11
219.35552015064377
 21
132.36270985028182
  0
LINE
  8
_0-1_
  6
CONTINUOUS
 62
  152
 10
276.50948060743031
 20
117.99462928027901
 11
219.63449382505132
 21
117.99462928028174
  0
LINE
  8
_0-1_
  6
CONTINUOUS
 62
  152
 10
219.63449382505132
 20
117.99462928028174
 11
219.63449382505132
 21
134.99462928028129
  0
LINE
  8
_0-1_
  6
CONTINUOUS
 62
  152
 10
219.63449382505178
 20
175.75964164169179
 11
207.96577369215129
 21
180.829243701693
  0
LINE
  8
_0-1_
  6
CONTINUOUS
 62
  152
 10
206.80137345793946
 20
180.829243701693
 11
206.80137345793946
 21
210.69003958169242
  0
LINE
  8
_0-1_
  6
CONTINUOUS
 62
  152
 10
207.96577369215129
 20
210.69003958169242
 11
219.63449382505178
 21
215.75964164169227
  0
LINE
  8
_0-1_
  6
CONTINUOUS
 62
  152
 10
219.63449382505178
 20
215.75964164169227
 11
219.63449382505178
 21
175.75964164169179
  0
LINE
  8
_0-1_
  6
CONTINUOUS
 62
  152
 10
203.22038102794022
 20
180.829243701693
 11
203.22038102794022
 21
210.69003958169242
  0
LINE
  8
_0-1_
  6
CONTINUOUS
 62
  152
 10
202.05598079349102
 20
210.69003958169242
 11
190.38726066059053
 21
215.75964164169227
  0
LINE
  8
_0-1_
  6
CONTINUOUS
 62
  152
 10
190.38726066059053
 20
215.75964164169227
 11
190.38726066059053
 21
175.75964164169179
  0
LINE
  8
_0-1_
  6
CONTINUOUS
 62
  152
 10
190.38726066059053
 20
175.75964164169179
 11
202.05598079349102
 21
180.829243701693
  0
LINE
  8
_0-1_
  6
CENTER1
 62
  152
 10
122.88726066059053
 20
189.05906970808698
 11
122.88726066059053
 21
201.94199877063645
  0
LINE
  8
_0-1_
  6
CENTER1
 62
  152
 10
77.887260660590528
 20
201.94199877063645
 11
77.887260660590528
 21
189.05906970808698
  0
LINE
  8
_0-1_
  6
CENTER1
 62
  152
 10
332.13449384281921
 20
111.77173359759445
 11
332.13449384281921
 21
137.91633131778485
  0
LINE
  8
_0-1_
  6
CONTINUOUS
 62
  152
 10
271.31794513318528
 20
137.36970343945654
 11
278.47599029712364
 21
110.65551520476595
  0
LINE
  8
_0-1_
  6
DASHED2
 62
  152
 10
244.13449384282012
 20
114.99462928028174
 11
244.13449384282012
 21
117.99462928028174
  0
ARC
  8
_0-1_
  6
CONTINUOUS
 62
  152
 10
65.87558479558993
 20
205.77131750669238
 40
1
 50
90
 51
180
  0
ARC
  8
_0-1_
  6
CONTINUOUS
 62
  152
 10
64.116814312590122
 20
207.53008798969219
 40
3
 50
90
 51
180
  0
ARC
  8
_0-1_
  6
CONTINUOUS
 62
  152
 10
65.87558479558993
 20
185.74796577669301
 40
1
 50
180
 51
270
  0
ARC
  8
_0-1_
  6
CONTINUOUS
 62
  152
 10
64.116814312590122
 20
183.98919529369184
 40
3
 50
180
 51
270
  0
ARC
  8
_0-1_
  6
CONTINUOUS
 62
  152
 10
344.14616970782072
 20
205.77131750669238
 40
1
 50
0
 51
90
  0
ARC
  8
_0-1_
  6
CONTINUOUS
 62
  152
 10
345.90494019082053
 20
207.53008798969219
 40
3
 50
0
 51
90
  0
ARC
  8
_0-1_
  6
CONTINUOUS
 62
  152
 10
344.14616970782072
 20
185.74796577669301
 40
1
 50
270
 51
0
  0
ARC
  8
_0-1_
  6
CONTINUOUS
 62
  152
 10
345.90494019082053
 20
183.98919529369184
 40
3
 50
270
 51
0
  0
ARC
  8
_0-1_
  6
CONTINUOUS
 62
  152
 10
190.38726066059007
 20
113.49462928028174
 40
4.4999999974833411
 50
45.000000000000178
 51
90.00000000000145
  0
ARC
  8
_0-1_
  6
CONTINUOUS
 62
  152
 10
219.63449382505132
 20
113.49462928028174
 40
18.870142837483343
 50
90.847084019728001
 51
132.54679176819619
  0
ARC
  8
_0-1_
  6
CONTINUOUS
 62
  152
 10
190.38726066059007
 20
113.49462928028174
 40
18.870142837483343
 50
45.84708334150411
 51
89.152915980272013
  0
ARC
  8
_0-1_
  6
CONTINUOUS
 62
  152
 10
219.63449382505132
 20
113.49462928028174
 40
4.4999999974833411
 50
89.99999999999855
 51
134.99999999999983
  0
LINE
  8
_0-1_
  6
CONTINUOUS
 62
  152
 10
66.467168686431933
 20
134.99462928028186
 11
66.152773908534414
 21
134.9546445102493
  0
LINE
  8
_0-1_
  6
CONTINUOUS
 62
  152
 10
66.152773908534414
 20
134.9546445102493
 11
65.829956879705833
 21
134.83590511715579
  0
LINE
  8
_0-1_
  6
CONTINUOUS
 62
  152
 10
65.829956879705833
 20
134.83590511715579
 11
65.508526232013764
 21
134.6420189373755
  0
LINE
  8
_0-1_
  6
CONTINUOUS
 62
  152
 10
65.508526232013764
 20
134.6420189373755
 11
65.198248473036756
 21
134.37887710436985
  0
LINE
  8
_0-1_
  6
CONTINUOUS
 62
  152
 10
65.198248473036756
 20
134.37887710436985
 11
64.908551235472942
 21
134.05447504957863
  0
LINE
  8
_0-1_
  6
CONTINUOUS
 62
  152
 10
64.908551235472942
 20
134.05447504957863
 11
64.648236823292109
 21
133.6786695652811
  0
LINE
  8
_0-1_
  6
CONTINUOUS
 62
  152
 10
64.648236823292109
 20
133.6786695652811
 11
64.425214758182619
 21
133.26287931095112
  0
LINE
  8
_0-1_
  6
CONTINUOUS
 62
  152
 10
64.425214758182619
 20
133.26287931095112
 11
64.246261452738509
 21
132.81973786306639
  0
LINE
  8
_0-1_
  6
CONTINUOUS
 62
  152
 10
64.246261452738509
 20
132.81973786306639
 11
64.116814312590691
 21
132.36270985028045
  0
LINE
  8
_0-1_
  6
CENTER1
 62
  152
 10
91.269348658321519
 20
31.777389940435
 11
91.269348658321519
 21
18.89446087788599
  0
LINE
  8
_0-1_
  6
CENTER1
 62
  152
 10
136.26934865832152
 20
18.89446087788599
 11
136.26934865832152
 21
31.777389940435
  0
LINE
  8
_0-1_
  6
CONTINUOUS
 62
  152
 10
148.28102452332166
 20
36.088493871828518
 11
2.4641583583201054
 21
36.088493871828518
  0
LINE
  8
_0-1_
  6
CONTINUOUS
 62
  152
 10
2.4641583583201054
 20
14.065142141828233
 11
148.28102452332166
 21
14.065142141828233
  0
LINE
  8
_0-1_
  6
CONTINUOUS
 62
  152
 10
148.28102452332166
 20
14.065142141828233
 11
150.03979500632192
 21
10.306371658829789
  0
LINE
  8
_0-1_
  6
CONTINUOUS
 62
  152
 10
150.03979500632192
 20
10.306371658829789
 11
153.26934865832152
 21
5.0768180068283755
  0
LINE
  8
_0-1_
  6
CONTINUOUS
 62
  152
 10
5.0960777856238337
 20
10.306371658829789
 11
150.03979500632192
 21
10.306371658829789
  0
LINE
  8
_0-1_
  6
CONTINUOUS
 62
  152
 10
149.28102452332166
 20
15.065142141828233
 11
149.28102452332166
 21
35.088493871828518
  0
LINE
  8
_0-1_
  6
CONTINUOUS
 62
  152
 10
149.28102452332166
 20
35.088493871828518
 11
153.03979500632192
 21
36.847264354828781
  0
LINE
  8
_0-1_
  6
CONTINUOUS
 62
  152
 10
153.03979500632192
 20
36.847264354828781
 11
158.26934865832152
 21
40.076818006828375
  0
LINE
  8
_0-1_
  6
CONTINUOUS
 62
  152
 10
158.26934865832152
 20
10.076818006828375
 11
153.03979500632192
 21
13.306371658829789
  0
LINE
  8
_0-1_
  6
CONTINUOUS
 62
  152
 10
153.03979500632192
 20
13.306371658829789
 11
153.03979500632192
 21
36.847264354828781
  0
LINE
  8
_0-1_
  6
CONTINUOUS
 62
  152
 10
148.28102452332166
 20
36.088493871828518
 11
150.03979500632192
 21
39.847264354828781
  0
LINE
  8
_0-1_
  6
CONTINUOUS
 62
  152
 10
150.03979500632192
 20
39.847264354828781
 11
153.26934865832152
 21
45.076818006828375
  0
LINE
  8
_0-1_
  6
CONTINUOUS
 62
  152
 10
5.0960777856238337
 20
39.847264354828781
 11
150.03979500632192
 21
39.847264354828781
  0
LINE
  8
_0-1_
  6
CENTER1
 62
  152
 10
158.26934865832152
 20
25.076818006828375
 11
2.4641583583201054
 21
25.076818006828375
  0
LINE
  8
_0-1_
  6
CONTINUOUS
 62
  152
 10
153.03979500632192
 20
13.306371658829789
 11
149.28102452332166
 21
15.065142141828233
  0
ARC
  8
_0-1_
  6
CONTINUOUS
 62
  152
 10
148.28102452332166
 20
15.065142141828233
 40
1
 50
270
 51
0
  0
ARC
  8
_0-1_
  6
CONTINUOUS
 62
  152
 10
150.03979500632192
 20
13.306371658829789
 40
3
 50
270
 51
0
  0
ARC
  8
_0-1_
  6
CONTINUOUS
 62
  152
 10
148.28102452332166
 20
35.088493871828518
 40
1
 50
0
 51
90
  0
ARC
  8
_0-1_
  6
CONTINUOUS
 62
  152
 10
150.03979500632192
 20
36.847264354828781
 40
3
 50
0
 51
90
  0
ENDSEC
  0
EOF
