  0
SECTION
  2
HEADER
  9
$ACADVER
  1
AC1009
  9
$INSBASE
 10
0
 20
0
 30
0
  9
$EXTMIN
 10
0
 20
0
  9
$EXTMAX
 10
297
 20
210
  9
$LIMMIN
 10
0
 20
0
  9
$LIMMAX
 10
297
 20
210
  9
$LTSCALE
 40
1
  0
ENDSEC
  0
SECTION
  2
TABLES
  0
TABLE
  2
LTYPE
 70
     9
  0
LTYPE
  2
CONTINUOUS
 70
    64
  3
実線
 72
    65
 73
     0
 40
0.0
  0
LTYPE
  2
DASHED1
 70
    64
  3
--  --  --  --  --  --  --  --  
 72
    65
 73
     2
 40
2.5
 49
1.25
 49
-1.25
  0
LTYPE
  2
DASHED2
 70
    64
  3
----    ----    ----    ----    
 72
    65
 73
     2
 40
5.0
 49
2.5
 49
-2.5
  0
LTYPE
  2
DASHED3
 70
    64
  3
------  ------  ------  ------  
 72
    65
 73
     2
 40
5.0
 49
3.75
 49
-1.25
  0
LTYPE
  2
CENTER1
 70
    64
  3
----- - ----- - ----- - ----- - 
 72
    65
 73
     4
 40
10.0
 49
6.25
 49
-1.25
 49
1.25
 49
-1.25
  0
LTYPE
  2
CENTER2
 70
    64
  3
----------  --  ----------  --  
 72
    65
 73
     4
 40
20.0
 49
12.5
 49
-2.5
 49
2.5
 49
-2.5
  0
LTYPE
  2
PHANTOM1
 70
    64
  3
--- - - --- - - --- - - --- - - 
 72
    65
 73
     6
 40
10.0
 49
3.25
 49
-1.25
 49
1.25
 49
-1.25
 49
1.25
 49
-1.25
  0
LTYPE
  2
PHANTOM2
 70
    64
  3
--------  -  -  --------  -  -  
 72
    65
 73
     6
 40
20.0
 49
10.0
 49
-2.5
 49
1.25
 49
-2.5
 49
1.25
 49
-2.5
  0
LTYPE
  2
DOT
 70
    64
  3
-   -   -   -   -   -   -   -   
 72
    65
 73
     2
 40
2.5
 49
0.625
 49
-1.875
  0
LTYPE
  2
DUMMY
 70
    64
  3
ダミー
 72
    65
 73
     0
 40
0.0
  0
LTYPE
  2
RAND1
 70
    64
  3
ランダム線1
 72
    65
 73
     4
 40
10.0
 49
1.0
 49
-2.0
 49
3.0
 49
-4.0
  0
LTYPE
  2
RAND2
 70
    64
  3
ランダム線2
 72
    65
 73
     4
 40
14.0
 49
2.0
 49
-3.0
 49
4.0
 49
-5.0
  0
LTYPE
  2
RAND3
 70
    64
  3
ランダム線3
 72
    65
 73
     4
 40
18.0
 49
3.0
 49
-4.0
 49
5.0
 49
-6.0
  0
LTYPE
  2
RAND4
 70
    64
  3
ランダム線4
 72
    65
 73
     4
 40
22.0
 49
4.0
 49
-5.0
 49
6.0
 49
-7.0
  0
LTYPE
  2
RAND5
 70
    64
  3
ランダム線5
 72
    65
 73
     4
 40
26.0
 49
5.0
 49
-6.0
 49
7.0
 49
-8.0
  0
LTYPE
  2
LONG1
 70
    64
  3
----------  --  ----------  --  
 72
    65
 73
     4
 40
40.0
 49
32.5
 49
-2.5
 49
2.5
 49
-2.5
  0
LTYPE
  2
LONG2
 70
    64
  3
--------  -  -  --------  -  -  
 72
    65
 73
     6
 40
40.0
 49
30.0
 49
-2.5
 49
1.25
 49
-2.5
 49
1.25
 49
-2.5
  0
LTYPE
  2
LONG3
 70
    64
  3
+++++++++++++++..+++++++++++++++
 72
    65
 73
     2
 40
40.0
 49
37.5
 49
-2.5
  0
LTYPE
  2
LONG4
 70
    64
  3
+++++++++++++++..+++++++++++++++
 72
    65
 73
     2
 40
80.0
 49
75.0
 49
-5.0
  0
LTYPE
  2
LONG5
 70
    64
  3
----------  --  ----------  --  
 72
    65
 73
     4
 40
60.0
 49
37.5
 49
-7.5
 49
7.5
 49
-7.5
  0
LTYPE
  2
dashed
 70
   64
  3
-------   -------------   ------
 72
   65
 73
    2
 40
7.5
 49
6
 49
-1.5
  0
LTYPE
  2
dashed_spaced
 70
   64
  3
----        --------        ----
 72
   65
 73
    2
 40
12
 49
6
 49
-6
  0
LTYPE
  2
long_dashed_dotted
 70
   64
  3
------------- --- --------------
 72
   65
 73
    4
 40
15.25
 49
12
 49
-1.5
 49
0.25
 49
-1.5
  0
LTYPE
  2
long_dashed_double-dotted
 70
   64
  3
----------- --- --- ------------
 72
   65
 73
    6
 40
17
 49
12
 49
-1.5
 49
0.25
 49
-1.5
 49
0.25
 49
-1.5
  0
LTYPE
  2
long_dashed_triplicate-dotted
 70
   64
  3
--------- --- --- --- ----------
 72
   65
 73
    8
 40
18.75
 49
12
 49
-1.5
 49
0.25
 49
-1.5
 49
0.25
 49
-1.5
 49
0.25
 49
-1.5
  0
LTYPE
  2
dotted
 70
   64
  3
   -       -       -       -    
 72
   65
 73
    2
 40
1.75
 49
0.25
 49
-1.5
  0
LTYPE
  2
chain
 70
   64
  3
-------------- -- --------------
 72
   65
 73
    4
 40
18.5
 49
12
 49
-1.5
 49
3.5
 49
-1.5
  0
LTYPE
  2
chain_double_dash
 70
   64
  3
------------ -- -- -------------
 72
   65
 73
    6
 40
23.5
 49
12
 49
-1.5
 49
3.5
 49
-1.5
 49
3.5
 49
-1.5
  0
LTYPE
  2
dashed_dotted
 70
   64
  3
-----------     -     ----------
 72
   65
 73
    4
 40
9.25
 49
6
 49
-1.5
 49
0.25
 49
-1.5
  0
LTYPE
  2
double-dashed_dotted
 70
   64
  3
------   -----------   -   -----
 72
   65
 73
    6
 40
16.75
 49
6
 49
-1.5
 49
6
 49
-1.5
 49
0.25
 49
-1.5
  0
LTYPE
  2
dashed_double-dotted
 70
   64
  3
---------    -    -    ---------
 72
   65
 73
    6
 40
11
 49
6
 49
-1.5
 49
0.25
 49
-1.5
 49
0.25
 49
-1.5
  0
LTYPE
  2
double-dashed_double-dotted
 70
   64
  3
-----   ---------   -   -   ----
 72
   65
 73
    8
 40
18.5
 49
6
 49
-1.5
 49
6
 49
-1.5
 49
0.25
 49
-1.5
 49
0.25
 49
-1.5
  0
LTYPE
  2
dashed_triplicate-dotted
 70
   64
  3
-------    -    -    -    ------
 72
   65
 73
    8
 40
12.75
 49
6
 49
-1.5
 49
0.25
 49
-1.5
 49
0.25
 49
-1.5
 49
0.25
 49
-1.5
  0
LTYPE
  2
double-dashed_triplicate-dotted
 70
   64
  3
-----  ---------  -  -  -  -----
 72
   65
 73
   10
 40
20.25
 49
6
 49
-1.5
 49
6
 49
-1.5
 49
0.25
 49
-1.5
 49
0.25
 49
-1.5
 49
0.25
 49
-1.5
  0
LTYPE
  2
undefined
 70
   64
  3
--------------------------------
 72
   65
 73
    0
 40
0
  0
ENDTAB
  0
TABLE
  2
STYLE
  5
3
100
AcDbSymbolTable
 70
     1
  0
STYLE
  5
10
100
AcDbSymbolTableRecord
100
AcDbTextStyleTableRecord
  2
STANDARD
 70
     0
 40
0.0
 41
1.0
 50
0.0
 71
     0
 42
0.2
  3
txt
  4
bigfont.shx
  0
STYLE
  5
26
100
AcDbSymbolTableRecord
100
AcDbTextStyleTableRecord
  2
TATEGAKI
 70
    68
 40
0.0
 41
1.0
 50
0.0
 71
     0
 42
1.0
  3
txt
  4
bigfont.shx
  0
ENDTAB
  0
TABLE
  2
LAYER
 70
    6
  0
LAYER
  2
_0-0_フレ__ム
 70
   64
 62
    7
  6
CONTINUOUS
  0
LAYER
  2
_0-1_その他LF______
 70
   64
 62
    7
  6
CONTINUOUS
  0
LAYER
  2
_0-2_FFU
 70
   64
 62
    7
  6
CONTINUOUS
  0
LAYER
  2
_0-3_カ__テン
 70
   64
 62
    7
  6
CONTINUOUS
  0
LAYER
  2
_0-f_集計
 70
   64
 62
    7
  6
CONTINUOUS
  0
LAYER
  2
ADD_LINE
 70
   64
 62
    7
  6
CONTINUOUS
  0
ENDTAB
  0
ENDSEC
  0
SECTION
  2
BLOCKS
  0
ENDSEC
  0
SECTION
  2
ENTITIES
  0
TEXT
  8
_0-f_集計
 62
    7
 10
1.9362692921766893
 20
1.5083821181479493
 40
4.2999999999999998
 41
0.744186046511628
 50
0
  1
CE33
  0
LINE
  8
_0-0_フレ__ム
  6
CONTINUOUS
 62
    7
 10
17.973982696112273
 20
40.042597863072729
 11
12.073982696112409
 21
40.042597863072729
  0
LINE
  8
_0-0_フレ__ム
  6
CONTINUOUS
 62
    7
 10
11.273982696112228
 20
36.634418154941443
 11
11.273982696112228
 21
18.042597863072643
  0
LINE
  8
_0-0_フレ__ム
  6
CONTINUOUS
 62
    7
 10
11.773982696112341
 20
36.634418154941443
 11
11.273982696112228
 21
36.634418154941443
  0
LINE
  8
_0-0_フレ__ム
  6
CONTINUOUS
 62
    7
 10
11.773982696112341
 20
39.742597863072746
 11
11.773982696112341
 21
36.634418154941443
  0
LINE
  8
_0-0_フレ__ム
  6
CONTINUOUS
 62
    7
 10
10.773982696112228
 20
38.742597863072746
 11
10.773982696112341
 21
33.34259786307274
  0
LINE
  8
_0-0_フレ__ム
  6
CONTINUOUS
 62
    7
 10
11.773982696112341
 20
39.042597863072643
 11
11.073982696112409
 21
39.042597863072729
  0
ARC
  8
_0-0_フレ__ム
  6
CONTINUOUS
 62
    7
 10
11.073982696112409
 20
38.742597863072746
 40
0.2999999999999998
 50
90
 51
180
  0
ARC
  8
_0-0_フレ__ム
  6
CONTINUOUS
 62
    7
 10
12.073982696112409
 20
39.742597863072746
 40
0.2999999999999998
 50
90
 51
180
  0
LINE
  8
_0-0_フレ__ム
  6
CONTINUOUS
 62
    7
 10
11.273982696112228
 20
33.042597863072729
 11
11.073982696112409
 21
33.042597863072729
  0
ARC
  8
_0-0_フレ__ム
  6
CONTINUOUS
 62
    7
 10
11.073982696112409
 20
33.34259786307274
 40
0.2999999999999998
 50
179.99999999999986
 51
270
  0
LINE
  8
_0-0_フレ__ム
  6
CONTINUOUS
 62
    7
 10
20.723982696112273
 20
18.042597863072729
 11
9.3239826961121821
 21
18.042597863072643
  0
LINE
  8
_0-0_フレ__ム
  6
CONTINUOUS
 62
    7
 10
11.273982696112228
 20
22.042597863072729
 11
9.3239826961124095
 21
22.042597863072729
  0
LINE
  8
_0-0_フレ__ム
  6
CONTINUOUS
 62
    7
 10
9.0239826961123413
 20
21.742597863072746
 11
9.0239826961122276
 21
18.34259786307274
  0
ARC
  8
_0-0_フレ__ム
  6
CONTINUOUS
 62
    7
 10
9.3239826961124095
 20
21.742597863072746
 40
0.2999999999999998
 50
90
 51
180
  0
ARC
  8
_0-0_フレ__ム
  6
CONTINUOUS
 62
    7
 10
9.3239826961121821
 20
18.34259786307274
 40
0.2999999999999998
 50
180
 51
270
  0
ARC
  8
_0-0_フレ__ム
  6
CONTINUOUS
 62
    7
 10
5.1239826961122503
 20
41.942597863072741
 40
0.0999999999999943
 50
89.999999999999986
 51
180
  0
LINE
  8
_0-0_フレ__ム
  6
CONTINUOUS
 62
    7
 10
5.1239826961122503
 20
42.042597863072736
 11
10.423982696112319
 21
42.042597863072736
  0
ARC
  8
_0-0_フレ__ム
  6
CONTINUOUS
 62
    7
 10
10.423982696112319
 20
41.942597863072741
 40
0.1000000000000084
 50
0.000000000008104
 51
90.0000000000082
  0
LINE
  8
_0-0_フレ__ム
  6
CONTINUOUS
 62
    7
 10
10.523982696112228
 20
41.942597863072741
 11
10.523982696112228
 21
30.142597863072723
  0
ARC
  8
_0-0_フレ__ム
  6
CONTINUOUS
 62
    7
 10
10.423982696112319
 20
30.142597863072751
 40
0.1000000000000083
 50
269.99999999999181
 51
359.99999999999193
  0
LINE
  8
_0-0_フレ__ム
  6
CONTINUOUS
 62
    7
 10
10.423982696112319
 20
30.042597863072729
 11
5.1239826961122503
 21
30.042597863072729
  0
ARC
  8
_0-0_フレ__ム
  6
CONTINUOUS
 62
    7
 10
5.1239826961122503
 20
30.142597863072723
 40
0.0999999999999943
 50
180
 51
270
  0
LINE
  8
_0-0_フレ__ム
  6
CONTINUOUS
 62
    7
 10
5.0239826961122276
 20
30.142597863072723
 11
5.0239826961122276
 21
41.942597863072741
  0
LINE
  8
_0-0_フレ__ム
  6
CONTINUOUS
 62
    7
 10
10.773982696112228
 20
37.542597863072729
 11
10.523982696112228
 21
37.542597863072729
  0
LINE
  8
_0-0_フレ__ム
  6
CONTINUOUS
 62
    7
 10
10.773982696112341
 20
34.542597863072729
 11
10.523982696112228
 21
34.542597863072729
  0
ARC
  8
_0-0_フレ__ム
  6
CONTINUOUS
 62
    7
 10
8.5462049183345812
 20
36.042597863072729
 40
3.922222222222234
 50
153.89862232343279
 51
206.1013776765671
  0
LINE
  8
_0-0_フレ__ム
  6
CONTINUOUS
 62
    7
 10
18.773982696112228
 20
36.634418154941443
 11
18.773982696112341
 21
18.042597863072643
  0
LINE
  8
_0-0_フレ__ム
  6
CONTINUOUS
 62
    7
 10
18.773982696112341
 20
22.042597863072729
 11
20.723982696112273
 21
22.042597863072729
  0
ARC
  8
_0-0_フレ__ム
  6
CONTINUOUS
 62
    7
 10
20.723982696112273
 20
18.34259786307274
 40
0.2999999999999998
 50
270
 51
0
  0
ARC
  8
_0-0_フレ__ム
  6
CONTINUOUS
 62
    7
 10
20.723982696112273
 20
21.742597863072746
 40
0.2999999999999998
 50
359.99999999999977
 51
89.999999999999929
  0
LINE
  8
_0-0_フレ__ム
  6
CONTINUOUS
 62
    7
 10
21.023982696112228
 20
21.742597863072746
 11
21.023982696112228
 21
18.34259786307274
  0
ARC
  8
_0-0_フレ__ム
  6
CONTINUOUS
 62
    7
 10
24.923982696112319
 20
41.942597863072798
 40
0.0999999999999516
 50
359.9999999999755
 51
89.999999999975586
  0
LINE
  8
_0-0_フレ__ム
  6
CONTINUOUS
 62
    7
 10
24.923982696112319
 20
42.042597863072736
 11
19.62398269611225
 21
42.042597863072736
  0
ARC
  8
_0-0_フレ__ム
  6
CONTINUOUS
 62
    7
 10
19.62398269611225
 20
41.942597863072741
 40
0.0999999999999942
 50
89.999999999999929
 51
180.00000000000006
  0
LINE
  8
_0-0_フレ__ム
  6
CONTINUOUS
 62
    7
 10
19.523982696112228
 20
41.942597863072741
 11
19.523982696112228
 21
30.142597863072723
  0
ARC
  8
_0-0_フレ__ム
  6
CONTINUOUS
 62
    7
 10
19.62398269611225
 20
30.142597863072723
 40
0.099999999999994
 50
179.99999999999986
 51
270.00000000000011
  0
LINE
  8
_0-0_フレ__ム
  6
CONTINUOUS
 62
    7
 10
19.62398269611225
 20
30.042597863072729
 11
24.923982696112319
 21
30.042597863072729
  0
ARC
  8
_0-0_フレ__ム
  6
CONTINUOUS
 62
    7
 10
24.923982696112319
 20
30.142597863072695
 40
0.0999999999999516
 50
270.00000000002444
 51
0.0000000000244775
  0
LINE
  8
_0-0_フレ__ム
  6
CONTINUOUS
 62
    7
 10
25.023982696112228
 20
30.142597863072723
 11
25.023982696112228
 21
41.942597863072741
  0
LINE
  8
_0-0_フレ__ム
  6
CONTINUOUS
 62
    7
 10
19.273982696112228
 20
38.742597863072746
 11
19.273982696112228
 21
33.34259786307274
  0
LINE
  8
_0-0_フレ__ム
  6
CONTINUOUS
 62
    7
 10
19.273982696112228
 20
34.542597863072729
 11
19.523982696112228
 21
34.542597863072729
  0
LINE
  8
_0-0_フレ__ム
  6
CONTINUOUS
 62
    7
 10
18.773982696112228
 20
33.042597863072729
 11
18.973982696112273
 21
33.042597863072729
  0
ARC
  8
_0-0_フレ__ム
  6
CONTINUOUS
 62
    7
 10
18.973982696112273
 20
33.34259786307274
 40
0.2999999999999998
 50
270
 51
0.0000000000000636
  0
LINE
  8
_0-0_フレ__ム
  6
CONTINUOUS
 62
    7
 10
19.273982696112228
 20
37.542597863072729
 11
19.523982696112228
 21
37.542597863072729
  0
LINE
  8
_0-0_フレ__ム
  6
CONTINUOUS
 62
    7
 10
18.273982696112341
 20
39.042597863072643
 11
18.973982696112273
 21
39.042597863072729
  0
LINE
  8
_0-0_フレ__ム
  6
CONTINUOUS
 62
    7
 10
18.273982696112341
 20
39.742597863072746
 11
18.273982696112341
 21
36.634418154941443
  0
ARC
  8
_0-0_フレ__ム
  6
CONTINUOUS
 62
    7
 10
17.973982696112273
 20
39.742597863072746
 40
0.2999999999999998
 50
0.000000000000007
 51
90.000000000000043
  0
ARC
  8
_0-0_フレ__ム
  6
CONTINUOUS
 62
    7
 10
18.973982696112273
 20
38.742597863072746
 40
0.2999999999999998
 50
359.99999999999977
 51
89.999999999999929
  0
LINE
  8
_0-0_フレ__ム
  6
CONTINUOUS
 62
    7
 10
18.273982696112341
 20
36.634418154941443
 11
18.773982696112228
 21
36.634418154941443
  0
LINE
  8
_0-0_フレ__ム
  6
CONTINUOUS
 62
    7
 10
17.923982696112319
 20
18.042597863072643
 11
17.923982696112546
 21
17.742597863072746
  0
LINE
  8
_0-0_フレ__ム
  6
CONTINUOUS
 62
    7
 10
12.12398269611225
 20
18.042597863072643
 11
12.12398269611225
 21
17.742597863072632
  0
ARC
  8
_0-0_フレ__ム
  6
CONTINUOUS
 62
    7
 10
15.023982696112341
 20
15.142597863072638
 40
3.894868418830149
 50
138.12213046211599
 51
255.12280799682409
  0
ARC
  8
_0-0_フレ__ム
  6
CONTINUOUS
 62
    7
 10
15.023982696112341
 20
15.142597863072638
 40
1.399999999999999
 50
100.2865606114734
 51
224.41530859719111
  0
LINE
  8
_0-0_フレ__ム
  6
CONTINUOUS
 62
    7
 10
14.773982696112341
 20
18.042597863072729
 11
14.773982696112341
 21
16.520095594468245
  0
LINE
  8
_0-0_フレ__ム
  6
CONTINUOUS
 62
    7
 10
15.273982696112228
 20
18.042597863072729
 11
15.273982696112455
 21
16.520095594468245
  0
LINE
  8
_0-0_フレ__ム
  6
CONTINUOUS
 62
    7
 10
15.523982696112455
 20
16.042597863072729
 11
14.523982696112228
 21
16.042597863072643
  0
LINE
  8
_0-0_フレ__ム
  6
CONTINUOUS
 62
    7
 10
14.023982696112341
 20
15.542597863072643
 11
14.023982696112341
 21
2.5425978630727286
  0
ARC
  8
_0-0_フレ__ム
  6
CONTINUOUS
 62
    7
 10
14.523982696112228
 20
15.542597863072643
 40
0.5
 50
90
 51
180
  0
ARC
  8
_0-0_フレ__ム
  6
CONTINUOUS
 62
    7
 10
15.523982696112455
 20
15.542597863072643
 40
0.5
 50
359.99999999999977
 51
89.999999999999929
  0
LINE
  8
_0-0_フレ__ム
  6
CONTINUOUS
 62
    7
 10
16.023982696112341
 20
15.542597863072643
 11
16.023982696112341
 21
2.5425978630727286
  0
ARC
  8
_0-0_フレ__ム
  6
CONTINUOUS
 62
    7
 10
15.023982696112341
 20
15.142597863072638
 40
1.399999999999999
 50
315.58469140282119
 51
79.713439388523668
  0
ARC
  8
_0-0_フレ__ム
  6
CONTINUOUS
 62
    7
 10
15.023982696112341
 20
15.142597863072638
 40
3.894868418830149
 50
284.87719200317588
 51
41.877869537884507
  0
LINE
  8
_0-0_フレ__ム
  6
CONTINUOUS
 62
    7
 10
15.523982696112455
 20
2.0425978630726433
 11
14.523982696112228
 21
2.0425978630727286
  0
ARC
  8
_0-0_フレ__ム
  6
CONTINUOUS
 62
    7
 10
15.523982696112455
 20
2.5425978630727286
 40
0.5
 50
270
 51
0.0000000000000636
  0
ARC
  8
_0-0_フレ__ム
  6
CONTINUOUS
 62
    7
 10
14.523982696112228
 20
2.5425978630727286
 40
0.5
 50
179.99999999999986
 51
270
  0
LINE
  8
_0-0_フレ__ム
  6
CONTINUOUS
 62
    7
 10
10.523982696112228
 20
22.542597863072729
 11
10.523982696112228
 21
22.042597863072729
  0
LINE
  8
_0-0_フレ__ム
  6
CONTINUOUS
 62
    7
 10
11.273982696112228
 20
22.542597863072729
 11
10.523982696112228
 21
22.542597863072729
  0
LINE
  8
_0-0_フレ__ム
  6
CONTINUOUS
 62
    7
 10
19.523982696112228
 20
22.542597863072729
 11
19.523982696112228
 21
22.042597863072729
  0
LINE
  8
_0-0_フレ__ム
  6
CONTINUOUS
 62
    7
 10
18.773982696112341
 20
22.542597863072729
 11
19.523982696112228
 21
22.542597863072729
  0
CIRCLE
  8
_0-0_フレ__ム
  6
CONTINUOUS
 62
    7
 10
51.465303131450185
 20
36.042597863072729
 40
6
  0
CIRCLE
  8
_0-0_フレ__ム
  6
CONTINUOUS
 62
    7
 10
51.465303131450185
 20
36.042597863072729
 40
2.5
  0
LINE
  8
_0-0_フレ__ム
  6
CONTINUOUS
 62
    7
 10
43.465303131450185
 20
35.176572459288224
 11
43.465303131450185
 21
21.042597863072729
  0
LINE
  8
_0-0_フレ__ム
  6
CONTINUOUS
 62
    7
 10
44.215303131450185
 20
36.475610564964938
 11
45.592319785242751
 21
37.270631500710635
  0
ARC
  8
_0-0_フレ__ム
  6
CONTINUOUS
 62
    7
 10
44.965303131450185
 20
35.176572459288224
 40
1.5
 50
120.0000000000001
 51
180
  0
LINE
  8
_0-0_フレ__ム
  6
CONTINUOUS
 62
    7
 10
56.465303131450185
 20
18.042597863072643
 11
46.465303131450185
 21
18.042597863072729
  0
ARC
  8
_0-0_フレ__ム
  6
CONTINUOUS
 62
    7
 10
46.465303131450185
 20
21.042597863072729
 40
3
 50
180
 51
269.99999999999989
  0
LINE
  8
_0-0_フレ__ム
  6
CONTINUOUS
 62
    7
 10
46.465303131450185
 20
30.680695215690946
 11
46.465303131450185
 21
22.042597863072729
  0
LINE
  8
_0-0_フレ__ム
  6
CONTINUOUS
 62
    7
 10
56.465303131450185
 20
22.042597863072729
 11
46.465303131450185
 21
22.042597863072729
  0
LINE
  8
_0-0_フレ__ム
  6
CONTINUOUS
 62
    7
 10
56.465303131450185
 20
27.042597863072643
 11
46.465303131450185
 21
27.042597863072729
  0
LINE
  8
_0-0_フレ__ム
  6
CONTINUOUS
 62
    7
 10
46.781554632651421
 20
21.742597863072746
 11
46.781554632651421
 21
18.34259786307274
  0
ARC
  8
_0-0_フレ__ム
  6
CONTINUOUS
 62
    7
 10
47.081554632651375
 20
21.742597863072746
 40
0.2999999999999998
 50
90
 51
180
  0
ARC
  8
_0-0_フレ__ム
  6
CONTINUOUS
 62
    7
 10
47.081554632651375
 20
18.34259786307274
 40
0.2999999999999998
 50
179.99999999999909
 51
270
  0
ARC
  8
_0-0_フレ__ム
  6
CONTINUOUS
 62
    7
 10
51.465303131450185
 20
36.042597863072729
 40
6.5
 50
229.99479911513987
 51
310.00520088486013
  0
ARC
  8
_0-0_フレ__ム
  6
CONTINUOUS
 62
    7
 10
46.965303131450185
 20
30.680695215690946
 40
0.5
 50
49.994799115140793
 51
180.00000000000003
  0
ARC
  8
_0-0_フレ__ム
  6
CONTINUOUS
 62
    7
 10
57.965303131450185
 20
35.176572459288224
 40
1.5
 50
0.000000000000007
 51
59.999999999999808
  0
ARC
  8
_0-0_フレ__ム
  6
CONTINUOUS
 62
    7
 10
55.965303131450185
 20
30.680695215690946
 40
0.5
 50
0.000000000000007
 51
130.00520088485899
  0
LINE
  8
_0-0_フレ__ム
  6
CONTINUOUS
 62
    7
 10
56.465303131450185
 20
30.680695215690946
 11
56.465303131450185
 21
22.042597863072729
  0
ARC
  8
_0-0_フレ__ム
  6
CONTINUOUS
 62
    7
 10
56.465303131450185
 20
21.042597863072729
 40
3
 50
270
 51
359.99999999999977
  0
ARC
  8
_0-0_フレ__ム
  6
CONTINUOUS
 62
    7
 10
55.849051630248994
 20
18.34259786307274
 40
0.2999999999999998
 50
270
 51
0.0000000000008014
  0
ARC
  8
_0-0_フレ__ム
  6
CONTINUOUS
 62
    7
 10
55.849051630248994
 20
21.742597863072746
 40
0.2999999999999998
 50
0.000000000000007
 51
90.000000000000043
  0
LINE
  8
_0-0_フレ__ム
  6
CONTINUOUS
 62
    7
 10
56.149051630249062
 20
21.742597863072746
 11
56.149051630249062
 21
18.34259786307274
  0
LINE
  8
_0-0_フレ__ム
  6
CONTINUOUS
 62
    7
 10
59.465303131450185
 20
35.176572459288224
 11
59.465303131450185
 21
21.042597863072729
  0
LINE
  8
_0-0_フレ__ム
  6
CONTINUOUS
 62
    7
 10
58.715303131450185
 20
36.475610564964938
 11
57.338286477657618
 21
37.270631500710635
  0
LINE
  8
_0-0_フレ__ム
  6
CONTINUOUS
 62
    7
 10
48.565303131450207
 20
25.142597863072638
 11
48.565303131450207
 21
23.242597863072746
  0
LINE
  8
_0-0_フレ__ム
  6
CONTINUOUS
 62
    7
 10
54.365303131450162
 20
25.142597863072638
 11
54.365303131450162
 21
23.242597863072746
  0
LINE
  8
_0-0_フレ__ム
  6
CONTINUOUS
 62
    7
 10
54.065303131450207
 20
25.442597863072734
 11
48.865303131450162
 21
25.442597863072734
  0
ARC
  8
_0-0_フレ__ム
  6
CONTINUOUS
 62
    7
 10
48.865303131450162
 20
25.142597863072638
 40
0.2999999999999998
 50
90
 51
180
  0
ARC
  8
_0-0_フレ__ム
  6
CONTINUOUS
 62
    7
 10
54.065303131450207
 20
25.142597863072638
 40
0.2999999999999998
 50
0
 51
90
  0
LINE
  8
_0-0_フレ__ム
  6
CONTINUOUS
 62
    7
 10
54.365303131450275
 20
17.742597863072746
 11
48.565303131450207
 21
17.742597863072746
  0
LINE
  8
_0-0_フレ__ム
  6
CONTINUOUS
 62
    7
 10
48.565303131450207
 20
18.042597863072729
 11
48.565303131450207
 21
17.742597863072746
  0
LINE
  8
_0-0_フレ__ム
  6
CONTINUOUS
 62
    7
 10
54.365303131450162
 20
18.042597863072643
 11
54.365303131450275
 21
17.742597863072746
  0
LINE
  8
_0-0_フレ__ム
  6
CONTINUOUS
 62
    7
 10
49.715303131450185
 20
17.742597863072746
 11
49.715303131450185
 21
11.83526322827305
  0
LINE
  8
_0-0_フレ__ム
  6
CONTINUOUS
 62
    7
 10
53.215303131450298
 20
17.742597863072746
 11
53.215303131450298
 21
11.835263228273135
  0
ARC
  8
_0-0_フレ__ム
  6
CONTINUOUS
 62
    7
 10
51.465303131450185
 20
14.14772944424243
 40
2.8999999999999999
 50
232.88273653282079
 51
307.1172634671799
  0
ARC
  8
_0-0_フレ__ム
  6
CONTINUOUS
 62
    7
 10
51.465303131450185
 20
9.0425978630726433
 40
5
 50
110.48731511472289
 51
69.512684885277054
  0
ARC
  8
_0-0_フレ__ム
  6
CONTINUOUS
 62
    7
 10
51.465303131450185
 20
9.0425978630726433
 40
7
 50
104.47751218593039
 51
75.522487814069848
  0
LINE
  8
_0-0_フレ__ム
  6
CONTINUOUS
 62
    7
 10
47.965303131450185
 20
23.242597863072746
 11
54.965303131450298
 21
23.242597863072746
  0
LINE
  8
_0-0_フレ__ム
  6
CONTINUOUS
 62
    7
 10
47.965303131450185
 20
23.242597863072746
 11
47.965303131450185
 21
22.542597863072729
  0
LINE
  8
_0-0_フレ__ム
  6
CONTINUOUS
 62
    7
 10
54.965303131450185
 20
23.242597863072746
 11
54.965303131450185
 21
22.542597863072729
  0
LINE
  8
_0-0_フレ__ム
  6
CONTINUOUS
 62
    7
 10
46.965303131450185
 20
22.542597863072729
 11
55.965303131450185
 21
22.542597863072729
  0
LINE
  8
_0-0_フレ__ム
  6
CONTINUOUS
 62
    7
 10
55.965303131450185
 20
22.542597863072729
 11
55.965303131450185
 21
22.042597863072729
  0
LINE
  8
_0-0_フレ__ム
  6
CONTINUOUS
 62
    7
 10
46.965303131450185
 20
22.542597863072729
 11
46.965303131450185
 21
22.042597863072729
  0
LINE
  8
_0-1_その他LF______
  6
CENTER1
 62
  152
 10
25.023982696112228
 20
36.042597863072729
 11
4.6239826961123356
 21
36.042597863072729
  0
LINE
  8
_0-1_その他LF______
  6
CENTER1
 62
  152
 10
59.465303131450185
 20
36.042597863072729
 11
43.465303131450185
 21
36.042597863072729
  0
LINE
  8
_0-1_その他LF______
  6
CENTER1
 62
  152
 10
51.465303131450185
 20
42.042597863072736
 11
51.465303131450185
 21
2.0425978630726433
  0
LINE
  8
_0-1_その他LF______
  6
CENTER1
 62
  152
 10
53.215303131450298
 20
15.142597863072695
 11
49.715303131450185
 21
15.14259786307268
  0
LINE
  8
_0-1_その他LF______
  6
CENTER1
 62
  152
 10
18.91885111494247
 20
15.142597863072638
 11
11.129114277282184
 21
15.142597863072638
  0
LINE
  8
_0-1_その他LF______
  6
CENTER1
 62
  152
 10
15.023982696112228
 20
42.042597863072736
 11
15.023982696112313
 21
2.0425978630727002
  0
LINE
  8
_0-1_その他LF______
  6
CENTER1
 62
  152
 10
44.465303131450185
 20
9.0425978630726433
 11
58.465303131450185
 21
9.0425978630726433
  0
LINE
  8
_0-1_その他LF______
  6
CENTER1
 62
  152
 10
17.314788122183131
 20
9.0425978630726433
 11
13.042051953575907
 21
9.0425978630726433
  0
LINE
  8
_0-2_FFU
  6
DASHED2
 62
  152
 10
10.523982696112228
 20
34.542597863072729
 11
5.6239826961122503
 21
34.542597863072729
  0
LINE
  8
_0-2_FFU
  6
DASHED2
 62
  152
 10
10.523982696112228
 20
37.542597863072729
 11
5.6239826961122503
 21
37.542597863072729
  0
LINE
  8
_0-2_FFU
  6
DASHED2
 62
  152
 10
5.6239826961122503
 20
38.542597863072729
 11
5.5239826961122276
 21
38.542597863072729
  0
ARC
  8
_0-2_FFU
  6
DASHED2
 62
  152
 10
8.5462049183345812
 20
36.042597863072729
 40
3.922222222222234
 50
140.40224729095021
 51
153.89862232343279
  0
LINE
  8
_0-2_FFU
  6
DASHED2
 62
  152
 10
5.6239826961122503
 20
32.792597863072729
 11
5.6239826961122503
 21
39.292597863072643
  0
LINE
  8
_0-2_FFU
  6
DASHED2
 62
  152
 10
6.0239826961122276
 20
39.292597863072729
 11
5.6239826961122503
 21
39.292597863072643
  0
LINE
  8
_0-2_FFU
  6
DASHED2
 62
  152
 10
6.0239826961122276
 20
39.292597863072729
 11
6.0239826961122276
 21
39.792597863072729
  0
LINE
  8
_0-2_FFU
  6
DASHED2
 62
  152
 10
6.0239826961122276
 20
39.792597863072729
 11
5.0239826961122276
 21
39.792597863072729
  0
ARC
  8
_0-2_FFU
  6
DASHED2
 62
  152
 10
8.5462049183345812
 20
36.042597863072729
 40
3.922222222222234
 50
206.10137767656713
 51
219.59775270904973
  0
LINE
  8
_0-2_FFU
  6
DASHED2
 62
  152
 10
6.0239826961122276
 20
32.292597863072729
 11
5.0239826961122276
 21
32.292597863072729
  0
LINE
  8
_0-2_FFU
  6
DASHED2
 62
  152
 10
6.0239826961122276
 20
32.792597863072729
 11
6.0239826961122276
 21
32.292597863072729
  0
LINE
  8
_0-2_FFU
  6
DASHED2
 62
  152
 10
6.0239826961122276
 20
32.792597863072729
 11
5.6239826961122503
 21
32.792597863072729
  0
LINE
  8
_0-2_FFU
  6
DASHED2
 62
  152
 10
5.6239826961122503
 20
33.542597863072729
 11
5.5239826961122276
 21
33.542597863072729
  0
LINE
  8
_0-2_FFU
  6
DASHED2
 62
  152
 10
24.423982696112546
 20
32.792597863072729
 11
24.423982696112546
 21
39.292597863072643
  0
LINE
  8
_0-2_FFU
  6
DASHED2
 62
  152
 10
19.523982696112228
 20
34.542597863072729
 11
24.423982696112546
 21
34.542597863072729
  0
LINE
  8
_0-2_FFU
  6
DASHED2
 62
  152
 10
24.023982696112228
 20
32.792597863072729
 11
24.423982696112546
 21
32.792597863072729
  0
LINE
  8
_0-2_FFU
  6
DASHED2
 62
  152
 10
24.023982696112228
 20
32.792597863072729
 11
24.023982696112455
 21
32.292597863072729
  0
LINE
  8
_0-2_FFU
  6
DASHED2
 62
  152
 10
24.023982696112455
 20
32.292597863072729
 11
25.023982696112228
 21
32.292597863072729
  0
LINE
  8
_0-2_FFU
  6
DASHED2
 62
  152
 10
19.523982696112228
 20
37.542597863072729
 11
24.423982696112546
 21
37.542597863072729
  0
LINE
  8
_0-2_FFU
  6
DASHED2
 62
  152
 10
24.023982696112455
 20
39.792597863072729
 11
25.023982696112228
 21
39.792597863072729
  0
LINE
  8
_0-2_FFU
  6
DASHED2
 62
  152
 10
24.023982696112228
 20
39.292597863072729
 11
24.023982696112455
 21
39.792597863072729
  0
LINE
  8
_0-2_FFU
  6
DASHED2
 62
  152
 10
24.023982696112228
 20
39.292597863072729
 11
24.423982696112546
 21
39.292597863072643
  0
LINE
  8
_0-2_FFU
  6
DASHED2
 62
  152
 10
24.923982696112319
 20
38.292597863072729
 11
24.423982696112546
 21
38.292597863072729
  0
LINE
  8
_0-2_FFU
  6
DASHED2
 62
  152
 10
24.923982696112319
 20
33.792597863072729
 11
24.423982696112546
 21
33.792597863072729
  0
LINE
  8
_0-2_FFU
  6
DASHED2
 62
  152
 10
24.923982696112319
 20
33.792597863072729
 11
24.923982696112319
 21
38.292597863072729
  0
LINE
  8
_0-2_FFU
  6
DASHED2
 62
  152
 10
17.62398269611225
 20
25.442597863072649
 11
12.423982696112319
 21
25.442597863072649
  0
LINE
  8
_0-2_FFU
  6
DASHED2
 62
  152
 10
18.773982696112228
 20
22.042597863072729
 11
11.273982696112228
 21
22.042597863072729
  0
LINE
  8
_0-2_FFU
  6
DASHED2
 62
  152
 10
11.523982696112228
 20
23.242597863072746
 11
18.523982696112341
 21
23.242597863072746
  0
LINE
  8
_0-2_FFU
  6
DASHED2
 62
  152
 10
12.12398269611225
 20
25.142597863072638
 11
12.12398269611225
 21
23.242597863072632
  0
LINE
  8
_0-2_FFU
  6
DASHED2
 62
  152
 10
12.773982696112341
 20
23.242597863072632
 11
12.773982696112341
 21
22.442597863072649
  0
LINE
  8
_0-2_FFU
  6
DASHED2
 62
  152
 10
12.12398269611225
 20
21.942597863072649
 11
12.12398269611225
 21
18.042597863072643
  0
LINE
  8
_0-2_FFU
  6
DASHED2
 62
  152
 10
11.523982696112228
 20
23.242597863072632
 11
11.523982696112228
 21
22.542597863072729
  0
ARC
  8
_0-2_FFU
  6
DASHED2
 62
  152
 10
12.423982696112319
 20
25.142597863072638
 40
0.2999999999999998
 50
90
 51
180
  0
LINE
  8
_0-2_FFU
  6
DASHED2
 62
  152
 10
17.923982696112319
 20
25.142597863072638
 11
17.923982696112319
 21
23.242597863072632
  0
LINE
  8
_0-2_FFU
  6
DASHED2
 62
  152
 10
18.523982696112341
 20
23.242597863072632
 11
18.523982696112341
 21
22.542597863072729
  0
LINE
  8
_0-2_FFU
  6
DASHED2
 62
  152
 10
17.273982696112228
 20
23.242597863072632
 11
17.273982696112228
 21
22.442597863072734
  0
LINE
  8
_0-2_FFU
  6
DASHED2
 62
  152
 10
17.923982696112546
 20
21.942597863072649
 11
17.923982696112319
 21
18.042597863072643
  0
ARC
  8
_0-2_FFU
  6
DASHED2
 62
  152
 10
17.62398269611225
 20
25.142597863072638
 40
0.2999999999999998
 50
0
 51
90
  0
LINE
  8
_0-2_FFU
  6
DASHED2
 62
  152
 10
15.523982696112455
 20
14.04259786307253
 11
14.523982696112228
 21
14.042597863072643
  0
ARC
  8
_0-2_FFU
  6
DASHED2
 62
  152
 10
15.523982696112455
 20
14.542597863072643
 40
0.5
 50
270
 51
0.0000000000000636
  0
ARC
  8
_0-2_FFU
  6
DASHED2
 62
  152
 10
14.523982696112228
 20
14.542597863072643
 40
0.5
 50
179.99999999999986
 51
270
  0
ARC
  8
_0-2_FFU
  6
DASHED2
 62
  152
 10
15.023982696112341
 20
15.142597863072638
 40
1.399999999999999
 50
224.41530859717849
 51
315.58469140280891
  0
ARC
  8
_0-2_FFU
  6
DASHED2
 62
  152
 10
15.023982696112341
 20
15.142597863072638
 40
3.894868418830149
 50
255.12280799682293
 51
284.87719200317679
  0
LINE
  8
_0-2_FFU
  6
DASHED2
 62
  152
 10
15.523982696112455
 20
4.0425978630727286
 11
14.523982696112228
 21
4.0425978630727286
  0
ARC
  8
_0-2_FFU
  6
DASHED2
 62
  152
 10
15.523982696112455
 20
3.5425978630727286
 40
0.5
 50
359.99999999999977
 51
89.999999999999929
  0
ARC
  8
_0-2_FFU
  6
DASHED2
 62
  152
 10
14.523982696112228
 20
3.5425978630727286
 40
0.5
 50
90
 51
180
  0
LINE
  8
_0-2_FFU
  6
DASHED2
 62
  152
 10
12.12398269611225
 20
21.942597863072649
 11
17.923982696112546
 21
21.942597863072649
  0
LINE
  8
_0-2_FFU
  6
DASHED2
 62
  152
 10
10.773982696112228
 20
37.542597863072729
 11
19.273982696112228
 21
37.542597863072729
  0
LINE
  8
_0-2_FFU
  6
DASHED2
 62
  152
 10
10.773982696112341
 20
34.542597863072729
 11
19.273982696112228
 21
34.542597863072729
  0
LINE
  8
_0-2_FFU
  6
DASHED2
 62
  152
 10
11.273982696112228
 20
22.542597863072729
 11
18.773982696112341
 21
22.542597863072729
  0
ARC
  8
_0-2_FFU
  6
DASHED2
 62
  152
 10
51.465303131450185
 20
36.042597863072729
 40
4
 50
59.999999999999559
 51
120.0000000000002
  0
LINE
  8
_0-2_FFU
  6
DASHED2
 62
  152
 10
45.592319785242751
 20
37.270631500710635
 11
49.465303131450185
 21
39.50669947821055
  0
LINE
  8
_0-2_FFU
  6
DASHED2
 62
  152
 10
57.338286477657618
 20
37.270631500710635
 11
53.465303131450185
 21
39.50669947821055
  0
LINE
  8
_0-2_FFU
  6
DASHED2
 62
  152
 10
48.565303131450207
 20
21.942597863072649
 11
48.565303131450207
 21
18.042597863072729
  0
LINE
  8
_0-2_FFU
  6
DASHED2
 62
  152
 10
54.365303131450275
 20
21.942597863072734
 11
54.365303131450162
 21
18.042597863072643
  0
LINE
  8
_0-2_FFU
  6
DASHED2
 62
  152
 10
54.365303131450275
 20
21.942597863072734
 11
48.565303131450207
 21
21.942597863072649
  0
LINE
  8
_0-2_FFU
  6
DASHED2
 62
  152
 10
49.215303131450185
 20
23.242597863072746
 11
49.215303131450185
 21
21.942597863072649
  0
LINE
  8
_0-2_FFU
  6
DASHED2
 62
  152
 10
53.715303131450185
 20
23.242597863072746
 11
53.715303131450185
 21
21.942597863072734
  0
LINE
  8
_0-2_FFU
  6
DASHED2
 62
  152
 10
53.215303131450298
 20
13.742597863072746
 11
49.715303131450185
 21
13.742597863072746
  0
LINE
  8
_0-2_FFU
  6
DASHED2
 62
  152
 10
53.215303131450298
 20
16.542597863072729
 11
49.715303131450185
 21
16.542597863072729
  0
CIRCLE
  8
_0-3_カ__テン
  6
CONTINUOUS
 62
  152
 10
51.465303131450185
 20
36.042597863072729
 40
3.75
  0
CIRCLE
  8
_0-3_カ__テン
  6
CONTINUOUS
 62
  152
 10
51.465303131450185
 20
36.042597863072729
 40
3.25
  0
ARC
  8
_0-0_フレ__ム
  6
CONTINUOUS
 62
    7
 10
51.465303131450185
 20
36.042597863072729
 40
7
 50
314.09862708020512
 51
4.8499045790462887
  0
ARC
  8
_0-0_フレ__ム
  6
CONTINUOUS
 62
    7
 10
51.465303131450185
 20
36.042597863072729
 40
7
 50
175.1500954209537
 51
225.90137291979482
  0
ARC
  8
_0-0_フレ__ム
  6
CONTINUOUS
 62
    7
 10
15.023982696112341
 20
15.142597863072638
 40
3.3073346347995871
 50
287.59930187522872
 51
51.825451366040099
  0
ARC
  8
_0-0_フレ__ム
  6
CONTINUOUS
 62
    7
 10
15.023982696112341
 20
15.142597863072638
 40
3.3073346347995871
 50
128.17454863396051
 51
252.40069812477091
  0
LINE
  8
_0-0_フレ__ム
  6
CONTINUOUS
 62
    7
 10
17.923982696112546
 20
17.742597863072746
 11
15.273982696112455
 21
17.742597863072746
  0
LINE
  8
_0-0_フレ__ム
  6
CONTINUOUS
 62
    7
 10
14.773982696112341
 20
17.742597863072746
 11
12.12398269611225
 21
17.742597863072632
  0
ENDSEC
  0
EOF
