  0
SECTION
  2
HEADER
  9
$ACADVER
  1
AC1009
  9
$INSBASE
 10
0
 20
0
 30
0
  9
$EXTMIN
 10
0
 20
0
  9
$EXTMAX
 10
297
 20
210
  9
$LIMMIN
 10
0
 20
0
  9
$LIMMAX
 10
297
 20
210
  9
$LTSCALE
 40
1
  0
ENDSEC
  0
SECTION
  2
TABLES
  0
TABLE
  2
LTYPE
 70
     9
  0
LTYPE
  2
CONTINUOUS
 70
    64
  3
実線
 72
    65
 73
     0
 40
0.0
  0
LTYPE
  2
DASHED1
 70
    64
  3
--  --  --  --  --  --  --  --  
 72
    65
 73
     2
 40
2.5
 49
1.25
 49
-1.25
  0
LTYPE
  2
DASHED2
 70
    64
  3
----    ----    ----    ----    
 72
    65
 73
     2
 40
5.0
 49
2.5
 49
-2.5
  0
LTYPE
  2
DASHED3
 70
    64
  3
------  ------  ------  ------  
 72
    65
 73
     2
 40
5.0
 49
3.75
 49
-1.25
  0
LTYPE
  2
CENTER1
 70
    64
  3
----- - ----- - ----- - ----- - 
 72
    65
 73
     4
 40
10.0
 49
6.25
 49
-1.25
 49
1.25
 49
-1.25
  0
LTYPE
  2
CENTER2
 70
    64
  3
----------  --  ----------  --  
 72
    65
 73
     4
 40
20.0
 49
12.5
 49
-2.5
 49
2.5
 49
-2.5
  0
LTYPE
  2
PHANTOM1
 70
    64
  3
--- - - --- - - --- - - --- - - 
 72
    65
 73
     6
 40
10.0
 49
3.25
 49
-1.25
 49
1.25
 49
-1.25
 49
1.25
 49
-1.25
  0
LTYPE
  2
PHANTOM2
 70
    64
  3
--------  -  -  --------  -  -  
 72
    65
 73
     6
 40
20.0
 49
10.0
 49
-2.5
 49
1.25
 49
-2.5
 49
1.25
 49
-2.5
  0
LTYPE
  2
DOT
 70
    64
  3
-   -   -   -   -   -   -   -   
 72
    65
 73
     2
 40
2.5
 49
0.625
 49
-1.875
  0
LTYPE
  2
DUMMY
 70
    64
  3
ダミー
 72
    65
 73
     0
 40
0.0
  0
LTYPE
  2
RAND1
 70
    64
  3
ランダム線1
 72
    65
 73
     4
 40
10.0
 49
1.0
 49
-2.0
 49
3.0
 49
-4.0
  0
LTYPE
  2
RAND2
 70
    64
  3
ランダム線2
 72
    65
 73
     4
 40
14.0
 49
2.0
 49
-3.0
 49
4.0
 49
-5.0
  0
LTYPE
  2
RAND3
 70
    64
  3
ランダム線3
 72
    65
 73
     4
 40
18.0
 49
3.0
 49
-4.0
 49
5.0
 49
-6.0
  0
LTYPE
  2
RAND4
 70
    64
  3
ランダム線4
 72
    65
 73
     4
 40
22.0
 49
4.0
 49
-5.0
 49
6.0
 49
-7.0
  0
LTYPE
  2
RAND5
 70
    64
  3
ランダム線5
 72
    65
 73
     4
 40
26.0
 49
5.0
 49
-6.0
 49
7.0
 49
-8.0
  0
LTYPE
  2
LONG1
 70
    64
  3
----------  --  ----------  --  
 72
    65
 73
     4
 40
40.0
 49
32.5
 49
-2.5
 49
2.5
 49
-2.5
  0
LTYPE
  2
LONG2
 70
    64
  3
--------  -  -  --------  -  -  
 72
    65
 73
     6
 40
40.0
 49
30.0
 49
-2.5
 49
1.25
 49
-2.5
 49
1.25
 49
-2.5
  0
LTYPE
  2
LONG3
 70
    64
  3
+++++++++++++++..+++++++++++++++
 72
    65
 73
     2
 40
40.0
 49
37.5
 49
-2.5
  0
LTYPE
  2
LONG4
 70
    64
  3
+++++++++++++++..+++++++++++++++
 72
    65
 73
     2
 40
80.0
 49
75.0
 49
-5.0
  0
LTYPE
  2
LONG5
 70
    64
  3
----------  --  ----------  --  
 72
    65
 73
     4
 40
60.0
 49
37.5
 49
-7.5
 49
7.5
 49
-7.5
  0
LTYPE
  2
dashed
 70
   64
  3
-------   -------------   ------
 72
   65
 73
    2
 40
7.5
 49
6
 49
-1.5
  0
LTYPE
  2
dashed_spaced
 70
   64
  3
----        --------        ----
 72
   65
 73
    2
 40
12
 49
6
 49
-6
  0
LTYPE
  2
long_dashed_dotted
 70
   64
  3
------------- --- --------------
 72
   65
 73
    4
 40
15.25
 49
12
 49
-1.5
 49
0.25
 49
-1.5
  0
LTYPE
  2
long_dashed_double-dotted
 70
   64
  3
----------- --- --- ------------
 72
   65
 73
    6
 40
17
 49
12
 49
-1.5
 49
0.25
 49
-1.5
 49
0.25
 49
-1.5
  0
LTYPE
  2
long_dashed_triplicate-dotted
 70
   64
  3
--------- --- --- --- ----------
 72
   65
 73
    8
 40
18.75
 49
12
 49
-1.5
 49
0.25
 49
-1.5
 49
0.25
 49
-1.5
 49
0.25
 49
-1.5
  0
LTYPE
  2
dotted
 70
   64
  3
   -       -       -       -    
 72
   65
 73
    2
 40
1.75
 49
0.25
 49
-1.5
  0
LTYPE
  2
chain
 70
   64
  3
-------------- -- --------------
 72
   65
 73
    4
 40
18.5
 49
12
 49
-1.5
 49
3.5
 49
-1.5
  0
LTYPE
  2
chain_double_dash
 70
   64
  3
------------ -- -- -------------
 72
   65
 73
    6
 40
23.5
 49
12
 49
-1.5
 49
3.5
 49
-1.5
 49
3.5
 49
-1.5
  0
LTYPE
  2
dashed_dotted
 70
   64
  3
-----------     -     ----------
 72
   65
 73
    4
 40
9.25
 49
6
 49
-1.5
 49
0.25
 49
-1.5
  0
LTYPE
  2
double-dashed_dotted
 70
   64
  3
------   -----------   -   -----
 72
   65
 73
    6
 40
16.75
 49
6
 49
-1.5
 49
6
 49
-1.5
 49
0.25
 49
-1.5
  0
LTYPE
  2
dashed_double-dotted
 70
   64
  3
---------    -    -    ---------
 72
   65
 73
    6
 40
11
 49
6
 49
-1.5
 49
0.25
 49
-1.5
 49
0.25
 49
-1.5
  0
LTYPE
  2
double-dashed_double-dotted
 70
   64
  3
-----   ---------   -   -   ----
 72
   65
 73
    8
 40
18.5
 49
6
 49
-1.5
 49
6
 49
-1.5
 49
0.25
 49
-1.5
 49
0.25
 49
-1.5
  0
LTYPE
  2
dashed_triplicate-dotted
 70
   64
  3
-------    -    -    -    ------
 72
   65
 73
    8
 40
12.75
 49
6
 49
-1.5
 49
0.25
 49
-1.5
 49
0.25
 49
-1.5
 49
0.25
 49
-1.5
  0
LTYPE
  2
double-dashed_triplicate-dotted
 70
   64
  3
-----  ---------  -  -  -  -----
 72
   65
 73
   10
 40
20.25
 49
6
 49
-1.5
 49
6
 49
-1.5
 49
0.25
 49
-1.5
 49
0.25
 49
-1.5
 49
0.25
 49
-1.5
  0
LTYPE
  2
undefined
 70
   64
  3
--------------------------------
 72
   65
 73
    0
 40
0
  0
ENDTAB
  0
TABLE
  2
STYLE
  5
3
100
AcDbSymbolTable
 70
     1
  0
STYLE
  5
10
100
AcDbSymbolTableRecord
100
AcDbTextStyleTableRecord
  2
STANDARD
 70
     0
 40
0.0
 41
1.0
 50
0.0
 71
     0
 42
0.2
  3
txt
  4
bigfont.shx
  0
STYLE
  5
26
100
AcDbSymbolTableRecord
100
AcDbTextStyleTableRecord
  2
TATEGAKI
 70
    68
 40
0.0
 41
1.0
 50
0.0
 71
     0
 42
1.0
  3
txt
  4
bigfont.shx
  0
ENDTAB
  0
TABLE
  2
LAYER
 70
    5
  0
LAYER
  2
_0-0_フレ__ム
 70
   64
 62
    7
  6
CONTINUOUS
  0
LAYER
  2
_0-1_その他LF______
 70
   64
 62
    7
  6
CONTINUOUS
  0
LAYER
  2
_0-2_FFU
 70
   64
 62
    7
  6
CONTINUOUS
  0
LAYER
  2
_0-f_集計
 70
   64
 62
    7
  6
CONTINUOUS
  0
LAYER
  2
ADD_LINE
 70
   64
 62
    7
  6
CONTINUOUS
  0
ENDTAB
  0
ENDSEC
  0
SECTION
  2
BLOCKS
  0
ENDSEC
  0
SECTION
  2
ENTITIES
  0
TEXT
  8
_0-f_集計
 62
    7
 10
3.4576237360298023
 20
3.5434406599254942
 40
4.2999999999999998
 41
0.744186046511628
 50
0
  1
CE32
  0
LINE
  8
_0-0_フレ__ム
  6
CONTINUOUS
 62
    7
 10
56.216064689743988
 20
36.602149494041569
 11
73.216064689743988
 21
36.602149494041569
  0
LINE
  8
_0-0_フレ__ム
  6
CONTINUOUS
 62
    7
 10
56.216064689743988
 20
34.102149494041569
 11
60.416064689743976
 21
34.102149494041569
  0
LINE
  8
_0-0_フレ__ム
  6
CONTINUOUS
 62
    7
 10
56.216064689743988
 20
36.602149494041569
 11
56.216064689743988
 21
34.102149494041569
  0
LINE
  8
_0-0_フレ__ム
  6
CONTINUOUS
 62
    7
 10
73.216064689743988
 20
36.602149494041569
 11
73.216064689743988
 21
34.102149494041569
  0
ARC
  8
_0-0_フレ__ム
  6
CONTINUOUS
 62
    7
 10
64.716064689743988
 20
12.102149494041569
 40
7.5
 50
124.9829978692228
 51
55.017002130777144
  0
CIRCLE
  8
_0-0_フレ__ム
  6
CONTINUOUS
 62
    7
 10
64.716064689743988
 20
12.102149494041569
 40
4
  0
LINE
  8
_0-0_フレ__ム
  6
CONTINUOUS
 62
    7
 10
60.41606468974409
 20
36.602149494041569
 11
60.416064689743976
 21
18.247066092336482
  0
LINE
  8
_0-0_フレ__ム
  6
CONTINUOUS
 62
    7
 10
69.016064689743999
 20
36.602149494041569
 11
69.016064689743999
 21
18.247066092336482
  0
LINE
  8
_0-0_フレ__ム
  6
CONTINUOUS
 62
    7
 10
69.016064689743999
 20
34.102149494041569
 11
73.216064689743988
 21
34.102149494041569
  0
LINE
  8
_0-0_フレ__ム
  6
CONTINUOUS
 62
    7
 10
60.416064689743976
 20
34.102149494041569
 11
69.016064689743999
 21
34.102149494041569
  0
LINE
  8
_0-0_フレ__ム
  6
CONTINUOUS
 62
    7
 10
60.416064689743976
 20
27.602149494041569
 11
69.016064689743999
 21
27.602149494041569
  0
LINE
  8
_0-0_フレ__ム
  6
CONTINUOUS
 62
    7
 10
67.216064689743988
 20
27.602149494041569
 11
67.216064689744101
 21
36.602149494041569
  0
LINE
  8
_0-0_フレ__ム
  6
CONTINUOUS
 62
    7
 10
62.216064689743874
 20
27.602149494041569
 11
62.216064689743988
 21
36.602149494041569
  0
LINE
  8
_0-0_フレ__ム
  6
CONTINUOUS
 62
    7
 10
60.416064689743976
 20
26.602149494041569
 11
69.016064689743999
 21
26.602149494041569
  0
LINE
  8
_0-0_フレ__ム
  6
CONTINUOUS
 62
    7
 10
4.0467603337033324
 20
36.602149494041569
 11
21.046760333703403
 21
36.602149494041569
  0
LINE
  8
_0-0_フレ__ム
  6
CONTINUOUS
 62
    7
 10
21.046760333703403
 20
36.602149494041569
 11
21.046760333703403
 21
4.6021494940415693
  0
LINE
  8
_0-0_フレ__ム
  6
CONTINUOUS
 62
    7
 10
4.0467603337033324
 20
36.602149494041569
 11
4.0467603337033324
 21
34.102149494041569
  0
LINE
  8
_0-0_フレ__ム
  6
CONTINUOUS
 62
    7
 10
21.046760333703403
 20
4.6021494940415693
 11
23.546760333703403
 21
4.6021494940415693
  0
LINE
  8
_0-0_フレ__ム
  6
CONTINUOUS
 62
    7
 10
23.546760333703403
 20
34.102149494041569
 11
23.546760333703403
 21
4.6021494940415693
  0
LINE
  8
_0-0_フレ__ム
  6
CONTINUOUS
 62
    7
 10
21.046760333703403
 20
16.102149494041569
 11
23.546760333703403
 21
16.102149494041569
  0
LINE
  8
_0-0_フレ__ム
  6
CONTINUOUS
 62
    7
 10
21.046760333703403
 20
8.1021494940415693
 11
23.546760333703403
 21
8.1021494940415693
  0
LINE
  8
_0-0_フレ__ム
  6
CONTINUOUS
 62
    7
 10
1.5467603337033324
 20
29.102149494041569
 11
19.446760333703367
 21
29.102149494041569
  0
LINE
  8
_0-0_フレ__ム
  6
CONTINUOUS
 62
    7
 10
3.0467603337033324
 20
27.602149494041569
 11
21.046760333703403
 21
27.602149494041569
  0
LINE
  8
_0-0_フレ__ム
  6
CONTINUOUS
 62
    7
 10
1.5467603337033324
 20
52.102149494041598
 11
1.5467603337033324
 21
29.102149494041569
  0
LINE
  8
_0-0_フレ__ム
  6
CONTINUOUS
 62
    7
 10
1.5467603337033324
 20
52.102149494041598
 11
3.0467603337033324
 21
52.102149494041598
  0
LINE
  8
_0-0_フレ__ム
  6
CONTINUOUS
 62
    7
 10
3.0467603337033324
 20
52.102149494041598
 11
3.0467603337033324
 21
29.102149494041569
  0
LINE
  8
_0-0_フレ__ム
  6
CONTINUOUS
 62
    7
 10
8.5467603337033324
 20
27.602149494041484
 11
8.5467603337033324
 21
29.102149494041569
  0
LINE
  8
_0-0_フレ__ム
  6
CONTINUOUS
 62
    7
 10
13.546760333703389
 20
27.602149494041484
 11
13.546760333703389
 21
29.102149494041569
  0
LINE
  8
_0-0_フレ__ム
  6
CONTINUOUS
 62
    7
 10
8.5467603337031619
 20
34.102149494041569
 11
8.5467603337033324
 21
36.602149494041569
  0
LINE
  8
_0-0_フレ__ム
  6
CONTINUOUS
 62
    7
 10
13.546760333703446
 20
34.102149494041569
 11
13.546760333703446
 21
36.602149494041569
  0
ARC
  8
_0-0_フレ__ム
  6
CONTINUOUS
 62
    7
 10
3.0467603337033324
 20
29.102149494041569
 40
1.5
 50
180.00000000000014
 51
270
  0
LINE
  8
_0-0_フレ__ム
  6
CONTINUOUS
 62
    7
 10
19.446760333703367
 20
33.102149494041569
 11
19.446760333703367
 21
29.102149494041569
  0
ARC
  8
_0-0_フレ__ム
  6
CONTINUOUS
 62
    7
 10
19.546760333703389
 20
29.102149494041569
 40
1.5
 50
270
 51
359.99999999999977
  0
LINE
  8
_0-0_フレ__ム
  6
CONTINUOUS
 62
    7
 10
14.44676033370348
 20
29.102149494041569
 11
14.44676033370348
 21
27.602149494041569
  0
LINE
  8
_0-0_フレ__ム
  6
CONTINUOUS
 62
    7
 10
7.6467603337033552
 20
29.102149494041569
 11
7.6467603337033552
 21
27.602149494041569
  0
LINE
  8
_0-0_フレ__ム
  6
CONTINUOUS
 62
    7
 10
19.446760333703367
 20
33.102149494041569
 11
21.046760333703403
 21
33.102149494041569
  0
LINE
  8
_0-0_フレ__ム
  6
CONTINUOUS
 62
    7
 10
60.41606468974409
 20
29.102149494041484
 11
69.016064689743999
 21
29.102149494041484
  0
LINE
  8
_0-0_フレ__ム
  6
CONTINUOUS
 62
    7
 10
60.41606468974409
 20
31.602149494041484
 11
69.016064689743999
 21
31.602149494041484
  0
LINE
  8
_0-0_フレ__ム
  6
CONTINUOUS
 62
    7
 10
4.0467603337033324
 20
34.102149494041569
 11
21.046760333703403
 21
34.102149494041569
  0
ARC
  8
_0-0_フレ__ム
  6
CONTINUOUS
 62
    7
 10
21.046760333703403
 20
34.102149494041569
 40
2.5
 50
0
 51
90
  0
LINE
  8
_0-0_フレ__ム
  6
CONTINUOUS
 62
    7
 10
79.716064689743874
 20
52.102149494041711
 11
79.716064689743874
 21
31.302149494041672
  0
LINE
  8
_0-0_フレ__ム
  6
CONTINUOUS
 62
    7
 10
76.716064689743988
 20
29.102149494041683
 11
76.716064689743988
 21
27.602149494041882
  0
LINE
  8
_0-0_フレ__ム
  6
CONTINUOUS
 62
    7
 10
77.516064689743999
 20
29.102149494041683
 11
76.716064689743988
 21
29.102149494041683
  0
ARC
  8
_0-0_フレ__ム
  6
CONTINUOUS
 62
    7
 10
77.516064689743999
 20
31.302149494041672
 40
2.2000000000000002
 50
270
 51
0
  0
LINE
  8
_0-0_フレ__ム
  6
CONTINUOUS
 62
    7
 10
76.716064689743988
 20
29.102149494041683
 11
69.016064689743999
 21
29.102149494041683
  0
LINE
  8
_0-0_フレ__ム
  6
CONTINUOUS
 62
    7
 10
76.716064689743874
 20
27.602149494041768
 11
69.016064689743999
 21
27.602149494041768
  0
LINE
  8
_0-0_フレ__ム
  6
CONTINUOUS
 62
    7
 10
49.716064689743874
 20
52.102149494041711
 11
49.716064689743874
 21
31.302149494041672
  0
LINE
  8
_0-0_フレ__ム
  6
CONTINUOUS
 62
    7
 10
52.716064689743874
 20
29.102149494041683
 11
52.716064689743874
 21
27.602149494041882
  0
LINE
  8
_0-0_フレ__ム
  6
CONTINUOUS
 62
    7
 10
51.916064689743862
 20
29.102149494041683
 11
52.716064689743874
 21
29.102149494041683
  0
ARC
  8
_0-0_フレ__ム
  6
CONTINUOUS
 62
    7
 10
51.916064689743862
 20
31.302149494041672
 40
2.2000000000000002
 50
180
 51
270
  0
LINE
  8
_0-0_フレ__ム
  6
CONTINUOUS
 62
    7
 10
79.716064689743874
 20
52.102149494041711
 11
49.716064689743874
 21
52.102149494041711
  0
LINE
  8
_0-0_フレ__ム
  6
CONTINUOUS
 62
    7
 10
60.41606468974409
 20
29.102149494041683
 11
52.716064689743874
 21
29.102149494041683
  0
LINE
  8
_0-0_フレ__ム
  6
CONTINUOUS
 62
    7
 10
60.416064689743976
 20
27.602149494041768
 11
52.716064689743874
 21
27.602149494041882
  0
LINE
  8
_0-2_FFU
  6
CONTINUOUS
 62
  152
 10
58.466064689743988
 20
26.602149494041569
 11
60.41606468974409
 21
26.602149494041569
  0
LINE
  8
_0-2_FFU
  6
CONTINUOUS
 62
  152
 10
58.466064689743988
 20
27.602149494041569
 11
60.41606468974409
 21
27.602149494041569
  0
LINE
  8
_0-2_FFU
  6
CONTINUOUS
 62
  152
 10
59.716064689743988
 20
21.602149494041569
 11
60.41606468974409
 21
21.602149494041569
  0
LINE
  8
_0-2_FFU
  6
CONTINUOUS
 62
  152
 10
58.966064689743988
 20
22.035161494041589
 11
58.966064689743988
 21
26.602149494041569
  0
ARC
  8
_0-2_FFU
  6
CONTINUOUS
 62
  152
 10
60.403564689743988
 20
24.204735494041572
 40
2.6025869999999989
 50
236.47264199999978
 51
270.27518772570528
  0
LINE
  8
_0-2_FFU
  6
CONTINUOUS
 62
  152
 10
59.716064689743988
 20
21.602149494041569
 11
58.966064689743988
 21
22.035161494041589
  0
LINE
  8
_0-2_FFU
  6
CONTINUOUS
 62
  152
 10
58.466064689743988
 20
27.602149494041569
 11
58.466064689743988
 21
26.602149494041569
  0
LINE
  8
_0-2_FFU
  6
CONTINUOUS
 62
  152
 10
70.466064689743988
 20
22.035161494041589
 11
70.466064689743988
 21
26.602149494041569
  0
ARC
  8
_0-2_FFU
  6
CONTINUOUS
 62
  152
 10
69.028564689743988
 20
24.204735494041572
 40
2.6025869999999989
 50
269.72481227429472
 51
303.52735800000022
  0
LINE
  8
_0-2_FFU
  6
CONTINUOUS
 62
  152
 10
69.716064689743988
 20
21.602149494041569
 11
70.466064689743988
 21
22.035161494041589
  0
LINE
  8
_0-2_FFU
  6
CONTINUOUS
 62
  152
 10
70.966064689743988
 20
27.602149494041569
 11
70.966064689743988
 21
26.602149494041569
  0
LINE
  8
_0-2_FFU
  6
CONTINUOUS
 62
  152
 10
67.216064689743988
 20
39.506464494041566
 11
62.216064689743988
 21
38.16671849404149
  0
LINE
  8
_0-2_FFU
  6
CONTINUOUS
 62
  152
 10
67.216064689743988
 20
41.99112649404158
 11
62.216064689743988
 21
40.651380494041589
  0
LINE
  8
_0-2_FFU
  6
CONTINUOUS
 62
  152
 10
67.216064689743988
 20
40.748795494041573
 11
62.216064689743988
 21
39.409049494041582
  0
LINE
  8
_0-2_FFU
  6
CONTINUOUS
 62
  152
 10
64.859991225072307
 20
42.602149494041569
 11
62.216064689743988
 21
41.893711494041568
  0
LINE
  8
_0-2_FFU
  6
CONTINUOUS
 62
  152
 10
62.216064689743988
 20
42.602149494041683
 11
62.216064689743988
 21
36.602149494041569
  0
LINE
  8
_0-2_FFU
  6
CONTINUOUS
 62
  152
 10
62.716064689743988
 20
42.602149494041683
 11
62.716064689743988
 21
36.602149494041569
  0
LINE
  8
_0-2_FFU
  6
CONTINUOUS
 62
  152
 10
67.216064689743874
 20
42.602149494041569
 11
67.216064689743988
 21
36.602149494041569
  0
LINE
  8
_0-2_FFU
  6
CONTINUOUS
 62
  152
 10
66.716064689743988
 20
42.602149494041569
 11
66.716064689743988
 21
36.602149494041569
  0
LINE
  8
_0-2_FFU
  6
CONTINUOUS
 62
  152
 10
67.216064689743988
 20
38.264133494041474
 11
62.216064689743988
 21
36.924387494041483
  0
LINE
  8
_0-2_FFU
  6
CONTINUOUS
 62
  152
 10
69.016064689743999
 20
27.602149494041569
 11
70.966064689743988
 21
27.602149494041569
  0
LINE
  8
_0-2_FFU
  6
CONTINUOUS
 62
  152
 10
69.016064689743999
 20
26.602149494041569
 11
70.966064689743988
 21
26.602149494041569
  0
LINE
  8
_0-2_FFU
  6
CONTINUOUS
 62
  152
 10
69.016064689743999
 20
21.602149494041569
 11
69.716064689743988
 21
21.602149494041569
  0
LINE
  8
_0-2_FFU
  6
CONTINUOUS
 62
  152
 10
8.5467603337033324
 20
42.602149494041569
 11
8.5467603337033324
 21
36.602149494041569
  0
LINE
  8
_0-2_FFU
  6
CONTINUOUS
 62
  152
 10
9.0467603337033324
 20
42.602149494041569
 11
9.0467603337033324
 21
36.602149494041569
  0
LINE
  8
_0-2_FFU
  6
CONTINUOUS
 62
  152
 10
13.046760333703389
 20
42.602149494041569
 11
13.046760333703389
 21
36.602149494041569
  0
LINE
  8
_0-2_FFU
  6
CONTINUOUS
 62
  152
 10
13.546760333703389
 20
42.602149494041569
 11
13.546760333703389
 21
36.602149494041569
  0
LINE
  8
_0-2_FFU
  6
CONTINUOUS
 62
  152
 10
13.546760333703389
 20
41.264133494041388
 11
8.5467603337033324
 21
39.924387494041369
  0
LINE
  8
_0-2_FFU
  6
CONTINUOUS
 62
  152
 10
13.546760333703389
 20
42.506464494041282
 11
8.5467603337033324
 21
41.166718494041291
  0
LINE
  8
_0-2_FFU
  6
CONTINUOUS
 62
  152
 10
4.7967603337033324
 20
26.602149494041569
 11
17.296760333703389
 21
26.602149494041569
  0
LINE
  8
_0-2_FFU
  6
CONTINUOUS
 62
  152
 10
4.7967603337033324
 20
27.602149494041569
 11
17.296760333703389
 21
27.602149494041569
  0
LINE
  8
_0-2_FFU
  6
CONTINUOUS
 62
  152
 10
6.0467603337033324
 20
21.602149494041569
 11
16.046760333703389
 21
21.602149494041569
  0
ARC
  8
_0-2_FFU
  6
CONTINUOUS
 62
  152
 10
11.046760333703332
 20
31.362977494041573
 40
9.7608280000000001
 50
252.86976300000021
 51
287.13023699999979
  0
LINE
  8
_0-2_FFU
  6
CONTINUOUS
 62
  152
 10
8.1717603337033324
 20
22.035161494041589
 11
8.1717603337033324
 21
26.602149494041569
  0
LINE
  8
_0-2_FFU
  6
CONTINUOUS
 62
  152
 10
5.2967603337033324
 20
22.035161494041589
 11
5.2967603337033324
 21
26.602149494041569
  0
ARC
  8
_0-2_FFU
  6
CONTINUOUS
 62
  152
 10
6.7342603337033324
 20
24.204735494041572
 40
2.6025869999999989
 50
236.47264199999981
 51
303.52735800000022
  0
LINE
  8
_0-2_FFU
  6
CONTINUOUS
 62
  152
 10
6.0467603337033324
 20
21.602149494041569
 11
5.2967603337033324
 21
22.035161494041589
  0
LINE
  8
_0-2_FFU
  6
CONTINUOUS
 62
  152
 10
4.7967603337033324
 20
27.602149494041569
 11
4.7967603337033324
 21
26.602149494041569
  0
LINE
  8
_0-2_FFU
  6
CONTINUOUS
 62
  152
 10
13.921760333703389
 20
22.035161494041589
 11
13.921760333703389
 21
26.602149494041569
  0
LINE
  8
_0-2_FFU
  6
CONTINUOUS
 62
  152
 10
16.796760333703389
 20
22.035161494041589
 11
16.796760333703389
 21
26.602149494041569
  0
ARC
  8
_0-2_FFU
  6
CONTINUOUS
 62
  152
 10
15.359260333703389
 20
24.204735494041572
 40
2.6025869999999989
 50
236.47264199999981
 51
303.52735800000022
  0
LINE
  8
_0-2_FFU
  6
CONTINUOUS
 62
  152
 10
16.046760333703389
 20
21.602149494041569
 11
16.796760333703389
 21
22.035161494041589
  0
LINE
  8
_0-2_FFU
  6
CONTINUOUS
 62
  152
 10
17.296760333703389
 20
27.602149494041569
 11
17.296760333703389
 21
26.602149494041569
  0
LINE
  8
_0-2_FFU
  6
CONTINUOUS
 62
  152
 10
8.5467603337034461
 20
34.102149494041569
 11
8.5467603337033324
 21
29.102149494041569
  0
LINE
  8
_0-2_FFU
  6
CONTINUOUS
 62
  152
 10
9.0467603337033324
 20
34.102149494041569
 11
9.0467603337033324
 21
29.102149494041569
  0
LINE
  8
_0-2_FFU
  6
CONTINUOUS
 62
  152
 10
13.546760333703389
 20
34.102149494041569
 11
13.546760333703446
 21
29.102149494041569
  0
LINE
  8
_0-2_FFU
  6
CONTINUOUS
 62
  152
 10
13.046760333703389
 20
34.102149494041569
 11
13.046760333703389
 21
29.102149494041569
  0
LINE
  8
_0-2_FFU
  6
CONTINUOUS
 62
  152
 10
13.546760333703389
 20
31.475790352061679
 11
8.5467603337033324
 21
30.136044352061688
  0
LINE
  8
_0-2_FFU
  6
CONTINUOUS
 62
  152
 10
13.546760333703389
 20
30.233459352061587
 11
9.3246545837332633
 21
29.102149494041683
  0
LINE
  8
_0-2_FFU
  6
CONTINUOUS
 62
  152
 10
13.546760333703389
 20
32.718121352061686
 11
8.5467603337033324
 21
31.378375352061667
  0
LINE
  8
_0-2_FFU
  6
CONTINUOUS
 62
  152
 10
13.546760333703389
 20
33.960452352061694
 11
8.5467603337033324
 21
32.620706352061788
  0
LINE
  8
_0-2_FFU
  6
CONTINUOUS
 62
  152
 10
3.0467603337033324
 20
30.723469837601286
 11
4.6680806772629353
 21
29.102149494041569
  0
LINE
  8
_0-2_FFU
  6
CONTINUOUS
 62
  152
 10
9.4391389710712588
 20
34.102149494041569
 11
8.5467603337033324
 21
33.863037352061767
  0
LINE
  8
_0-2_FFU
  6
CONTINUOUS
 62
  152
 10
13.546760333703389
 20
40.021802494041268
 11
8.5467603337033324
 21
38.682056494041277
  0
LINE
  8
_0-2_FFU
  6
CONTINUOUS
 62
  152
 10
13.546760333703389
 20
37.537140494041282
 11
10.057326515652676
 21
36.602149494041569
  0
LINE
  8
_0-2_FFU
  6
CONTINUOUS
 62
  152
 10
13.546760333703389
 20
38.779471494041289
 11
8.5467603337033324
 21
37.439725494041269
  0
LINE
  8
_0-2_FFU
  6
CONTINUOUS
 62
  152
 10
67.216064689743988
 20
37.021802494041467
 11
65.649898416436102
 21
36.602149494041569
  0
LINE
  8
_0-2_FFU
  6
CONTINUOUS
 62
  152
 10
8.5467603337033324
 20
42.602149494041569
 11
13.546760333703389
 21
42.602149494041569
  0
LINE
  8
_0-2_FFU
  6
CONTINUOUS
 62
  152
 10
62.216064689743988
 20
42.602149494041683
 11
67.216064689743988
 21
42.602149494041569
  0
LINE
  8
_0-2_FFU
  6
CONTINUOUS
 62
  152
 10
60.416064689743976
 20
21.602149494041569
 11
69.016064689743999
 21
21.602149494041569
  0
LINE
  8
_0-1_その他LF______
  6
CENTER1
 62
  152
 10
54.716064689743988
 20
12.102149494041569
 11
74.716064689743988
 21
12.102149494041569
  0
LINE
  8
_0-1_その他LF______
  6
CENTER1
 62
  152
 10
64.716064689743988
 20
1.452947104185327
 11
64.716064689743988
 21
52.102149494041711
  0
LINE
  8
_0-1_その他LF______
  6
CENTER1
 62
  152
 10
18.479189073119358
 20
12.102149494041569
 11
26.574776988095451
 21
12.102149494041569
  0
LINE
  8
_0-1_その他LF______
  6
CENTER1
 62
  152
 10
11.046760333703332
 20
45.051061187962908
 11
11.046760333703332
 21
17.947753391859479
  0
ENDSEC
  0
EOF
