  0
SECTION
  2
HEADER
  9
$ACADVER
  1
AC1009
  9
$INSBASE
 10
0
 20
0
 30
0
  9
$EXTMIN
 10
0
 20
0
  9
$EXTMAX
 10
297
 20
210
  9
$LIMMIN
 10
0
 20
0
  9
$LIMMAX
 10
297
 20
210
  9
$LTSCALE
 40
1
  0
ENDSEC
  0
SECTION
  2
TABLES
  0
TABLE
  2
LTYPE
 70
     9
  0
LTYPE
  2
CONTINUOUS
 70
    64
  3
実線
 72
    65
 73
     0
 40
0.0
  0
LTYPE
  2
DASHED1
 70
    64
  3
--  --  --  --  --  --  --  --  
 72
    65
 73
     2
 40
2.5
 49
1.25
 49
-1.25
  0
LTYPE
  2
DASHED2
 70
    64
  3
----    ----    ----    ----    
 72
    65
 73
     2
 40
5.0
 49
2.5
 49
-2.5
  0
LTYPE
  2
DASHED3
 70
    64
  3
------  ------  ------  ------  
 72
    65
 73
     2
 40
5.0
 49
3.75
 49
-1.25
  0
LTYPE
  2
CENTER1
 70
    64
  3
----- - ----- - ----- - ----- - 
 72
    65
 73
     4
 40
10.0
 49
6.25
 49
-1.25
 49
1.25
 49
-1.25
  0
LTYPE
  2
CENTER2
 70
    64
  3
----------  --  ----------  --  
 72
    65
 73
     4
 40
20.0
 49
12.5
 49
-2.5
 49
2.5
 49
-2.5
  0
LTYPE
  2
PHANTOM1
 70
    64
  3
--- - - --- - - --- - - --- - - 
 72
    65
 73
     6
 40
10.0
 49
3.25
 49
-1.25
 49
1.25
 49
-1.25
 49
1.25
 49
-1.25
  0
LTYPE
  2
PHANTOM2
 70
    64
  3
--------  -  -  --------  -  -  
 72
    65
 73
     6
 40
20.0
 49
10.0
 49
-2.5
 49
1.25
 49
-2.5
 49
1.25
 49
-2.5
  0
LTYPE
  2
DOT
 70
    64
  3
-   -   -   -   -   -   -   -   
 72
    65
 73
     2
 40
2.5
 49
0.625
 49
-1.875
  0
LTYPE
  2
DUMMY
 70
    64
  3
ダミー
 72
    65
 73
     0
 40
0.0
  0
LTYPE
  2
RAND1
 70
    64
  3
ランダム線1
 72
    65
 73
     4
 40
10.0
 49
1.0
 49
-2.0
 49
3.0
 49
-4.0
  0
LTYPE
  2
RAND2
 70
    64
  3
ランダム線2
 72
    65
 73
     4
 40
14.0
 49
2.0
 49
-3.0
 49
4.0
 49
-5.0
  0
LTYPE
  2
RAND3
 70
    64
  3
ランダム線3
 72
    65
 73
     4
 40
18.0
 49
3.0
 49
-4.0
 49
5.0
 49
-6.0
  0
LTYPE
  2
RAND4
 70
    64
  3
ランダム線4
 72
    65
 73
     4
 40
22.0
 49
4.0
 49
-5.0
 49
6.0
 49
-7.0
  0
LTYPE
  2
RAND5
 70
    64
  3
ランダム線5
 72
    65
 73
     4
 40
26.0
 49
5.0
 49
-6.0
 49
7.0
 49
-8.0
  0
LTYPE
  2
LONG1
 70
    64
  3
----------  --  ----------  --  
 72
    65
 73
     4
 40
40.0
 49
32.5
 49
-2.5
 49
2.5
 49
-2.5
  0
LTYPE
  2
LONG2
 70
    64
  3
--------  -  -  --------  -  -  
 72
    65
 73
     6
 40
40.0
 49
30.0
 49
-2.5
 49
1.25
 49
-2.5
 49
1.25
 49
-2.5
  0
LTYPE
  2
LONG3
 70
    64
  3
+++++++++++++++..+++++++++++++++
 72
    65
 73
     2
 40
40.0
 49
37.5
 49
-2.5
  0
LTYPE
  2
LONG4
 70
    64
  3
+++++++++++++++..+++++++++++++++
 72
    65
 73
     2
 40
80.0
 49
75.0
 49
-5.0
  0
LTYPE
  2
LONG5
 70
    64
  3
----------  --  ----------  --  
 72
    65
 73
     4
 40
60.0
 49
37.5
 49
-7.5
 49
7.5
 49
-7.5
  0
LTYPE
  2
dashed
 70
   64
  3
-------   -------------   ------
 72
   65
 73
    2
 40
7.5
 49
6
 49
-1.5
  0
LTYPE
  2
dashed_spaced
 70
   64
  3
----        --------        ----
 72
   65
 73
    2
 40
12
 49
6
 49
-6
  0
LTYPE
  2
long_dashed_dotted
 70
   64
  3
------------- --- --------------
 72
   65
 73
    4
 40
15.25
 49
12
 49
-1.5
 49
0.25
 49
-1.5
  0
LTYPE
  2
long_dashed_double-dotted
 70
   64
  3
----------- --- --- ------------
 72
   65
 73
    6
 40
17
 49
12
 49
-1.5
 49
0.25
 49
-1.5
 49
0.25
 49
-1.5
  0
LTYPE
  2
long_dashed_triplicate-dotted
 70
   64
  3
--------- --- --- --- ----------
 72
   65
 73
    8
 40
18.75
 49
12
 49
-1.5
 49
0.25
 49
-1.5
 49
0.25
 49
-1.5
 49
0.25
 49
-1.5
  0
LTYPE
  2
dotted
 70
   64
  3
   -       -       -       -    
 72
   65
 73
    2
 40
1.75
 49
0.25
 49
-1.5
  0
LTYPE
  2
chain
 70
   64
  3
-------------- -- --------------
 72
   65
 73
    4
 40
18.5
 49
12
 49
-1.5
 49
3.5
 49
-1.5
  0
LTYPE
  2
chain_double_dash
 70
   64
  3
------------ -- -- -------------
 72
   65
 73
    6
 40
23.5
 49
12
 49
-1.5
 49
3.5
 49
-1.5
 49
3.5
 49
-1.5
  0
LTYPE
  2
dashed_dotted
 70
   64
  3
-----------     -     ----------
 72
   65
 73
    4
 40
9.25
 49
6
 49
-1.5
 49
0.25
 49
-1.5
  0
LTYPE
  2
double-dashed_dotted
 70
   64
  3
------   -----------   -   -----
 72
   65
 73
    6
 40
16.75
 49
6
 49
-1.5
 49
6
 49
-1.5
 49
0.25
 49
-1.5
  0
LTYPE
  2
dashed_double-dotted
 70
   64
  3
---------    -    -    ---------
 72
   65
 73
    6
 40
11
 49
6
 49
-1.5
 49
0.25
 49
-1.5
 49
0.25
 49
-1.5
  0
LTYPE
  2
double-dashed_double-dotted
 70
   64
  3
-----   ---------   -   -   ----
 72
   65
 73
    8
 40
18.5
 49
6
 49
-1.5
 49
6
 49
-1.5
 49
0.25
 49
-1.5
 49
0.25
 49
-1.5
  0
LTYPE
  2
dashed_triplicate-dotted
 70
   64
  3
-------    -    -    -    ------
 72
   65
 73
    8
 40
12.75
 49
6
 49
-1.5
 49
0.25
 49
-1.5
 49
0.25
 49
-1.5
 49
0.25
 49
-1.5
  0
LTYPE
  2
double-dashed_triplicate-dotted
 70
   64
  3
-----  ---------  -  -  -  -----
 72
   65
 73
   10
 40
20.25
 49
6
 49
-1.5
 49
6
 49
-1.5
 49
0.25
 49
-1.5
 49
0.25
 49
-1.5
 49
0.25
 49
-1.5
  0
LTYPE
  2
undefined
 70
   64
  3
--------------------------------
 72
   65
 73
    0
 40
0
  0
ENDTAB
  0
TABLE
  2
STYLE
  5
3
100
AcDbSymbolTable
 70
     1
  0
STYLE
  5
10
100
AcDbSymbolTableRecord
100
AcDbTextStyleTableRecord
  2
STANDARD
 70
     0
 40
0.0
 41
1.0
 50
0.0
 71
     0
 42
0.2
  3
txt
  4
bigfont.shx
  0
STYLE
  5
26
100
AcDbSymbolTableRecord
100
AcDbTextStyleTableRecord
  2
TATEGAKI
 70
    68
 40
0.0
 41
1.0
 50
0.0
 71
     0
 42
1.0
  3
txt
  4
bigfont.shx
  0
ENDTAB
  0
TABLE
  2
LAYER
 70
    5
  0
LAYER
  2
_0-0_フレ__ム
 70
   64
 62
    7
  6
CONTINUOUS
  0
LAYER
  2
_0-1_その他LF______
 70
   64
 62
    7
  6
CONTINUOUS
  0
LAYER
  2
_0-8_______________
 70
   64
 62
    7
  6
CONTINUOUS
  0
LAYER
  2
_0-f_集計
 70
   64
 62
    7
  6
CONTINUOUS
  0
LAYER
  2
ADD_LINE
 70
   64
 62
    7
  6
CONTINUOUS
  0
ENDTAB
  0
ENDSEC
  0
SECTION
  2
BLOCKS
  0
ENDSEC
  0
SECTION
  2
ENTITIES
  0
TEXT
  8
_0-f_集計
 62
    7
 10
2.5114422565194445
 20
2.496274614156448
 40
4.2999999999999998
 41
0.744186046511628
 50
0
  1
CE31
  0
ARC
  8
ADD_LINE
  6
DOT
 62
    7
 10
170.53005372689722
 20
53.629161209708741
 40
6.0999999046325692
 50
219.60191345214847
 51
320.3980712890625
  0
LINE
  8
ADD_LINE
  6
DOT
 62
    7
 10
175.23005353616281
 20
49.740716875440626
 11
165.83005391763163
 21
49.740716875440626
  0
LINE
  8
ADD_LINE
  6
DOT
 62
    7
 10
172.53005372689768
 20
50.029161305074808
 11
172.53005372689768
 21
59.7291611143404
  0
LINE
  8
ADD_LINE
  6
DOT
 62
    7
 10
172.23005377458048
 20
50.029161305074808
 11
172.23005377458048
 21
60.029161305074808
  0
LINE
  8
_0-0_フレ__ム
  6
CONTINUOUS
 62
    7
 10
63.049745291511258
 20
88.194427972905245
 11
12.049745291511329
 21
88.194427972905245
  0
LINE
  8
_0-0_フレ__ム
  6
CONTINUOUS
 62
    7
 10
63.049745291511258
 20
88.194427972905245
 11
63.049745291511258
 21
84.194427972905245
  0
LINE
  8
_0-0_フレ__ム
  6
CONTINUOUS
 62
    7
 10
12.049745291511329
 20
88.194427972905245
 11
12.049745291511329
 21
84.994427972905257
  0
LINE
  8
_0-0_フレ__ム
  6
CONTINUOUS
 62
    7
 10
37.749745291511303
 20
84.194427972905245
 11
12.849745291511283
 21
84.194427972905245
  0
ARC
  8
_0-0_フレ__ム
  6
CONTINUOUS
 62
    7
 10
12.849745291511283
 20
84.994427972905257
 40
0.8
 50
180
 51
270
  0
ARC
  8
_0-0_フレ__ム
  6
CONTINUOUS
 62
    7
 10
9.0497452915113286
 20
83.194427972905245
 40
1
 50
126.86989764584429
 51
254.74921375579842
  0
LINE
  8
_0-0_フレ__ム
  6
CONTINUOUS
 62
    7
 10
10.749745291511317
 20
81.694427972905245
 11
8.7867008377356797
 21
82.229644258626266
  0
LINE
  8
_0-0_フレ__ム
  6
CONTINUOUS
 62
    7
 10
12.049745291511329
 20
86.694427972905245
 11
8.4497452915113058
 21
83.994427972905257
  0
LINE
  8
_0-0_フレ__ム
  6
CONTINUOUS
 62
    7
 10
10.355178610847986
 20
80.247252401486762
 11
8.3921341570724053
 21
80.782468687207754
  0
ARC
  8
_0-0_フレ__ム
  6
CONTINUOUS
 62
    7
 10
9.0497452915113286
 20
83.194427972905245
 40
2.5
 50
126.86989764584429
 51
254.74921375579842
  0
LINE
  8
_0-0_フレ__ム
  6
CONTINUOUS
 62
    7
 10
11.149745291511408
 20
87.894427972905262
 11
7.5497452915113286
 21
85.194427972905046
  0
ARC
  8
_0-0_フレ__ム
  6
CONTINUOUS
 62
    7
 10
12.049745291511329
 20
86.694427972905245
 40
1.5
 50
90
 51
126.8698976458444
  0
LINE
  8
_0-0_フレ__ム
  6
CONTINUOUS
 62
    7
 10
10.749745291511317
 20
81.694427972905245
 11
10.355178610847986
 21
80.247252401486762
  0
LINE
  8
_0-0_フレ__ム
  6
CONTINUOUS
 62
    7
 10
59.549745291511258
 20
78.694427972905245
 11
55.549745291511258
 21
78.694427972905245
  0
LINE
  8
_0-0_フレ__ム
  6
CONTINUOUS
 62
    7
 10
59.549745291511258
 20
78.694427972905245
 11
63.049745291511258
 21
84.194427972905245
  0
LINE
  8
_0-0_フレ__ム
  6
CONTINUOUS
 62
    7
 10
55.549745291511258
 20
78.694427972905245
 11
55.549745291511258
 21
77.194427972905245
  0
LINE
  8
_0-0_フレ__ム
  6
CONTINUOUS
 62
    7
 10
41.049745291511258
 20
78.694427972905245
 11
41.049745291511258
 21
77.194427972905245
  0
LINE
  8
_0-0_フレ__ム
  6
CONTINUOUS
 62
    7
 10
57.049745291511258
 20
77.194427972905245
 11
41.049745291511258
 21
77.194427972905245
  0
LINE
  8
_0-0_フレ__ム
  6
CONTINUOUS
 62
    7
 10
38.549745291511258
 20
83.394427972905262
 11
38.549745291511258
 21
81.694427972905245
  0
ARC
  8
_0-0_フレ__ム
  6
CONTINUOUS
 62
    7
 10
37.749745291511303
 20
83.394427972905262
 40
0.8
 50
0
 51
90
  0
LINE
  8
_0-0_フレ__ム
  6
CONTINUOUS
 62
    7
 10
38.549745291511258
 20
81.694427972905245
 11
41.049745291511258
 21
78.694427972905245
  0
LINE
  8
_0-0_フレ__ム
  6
CONTINUOUS
 62
    7
 10
58.049745291511258
 20
78.694427972905245
 11
58.049745291511258
 21
78.194427972905245
  0
LINE
  8
_0-0_フレ__ム
  6
CONTINUOUS
 62
    7
 10
55.59725151045528
 20
69.194427972905245
 11
55.049745291511258
 21
69.194427972905245
  0
ARC
  8
_0-0_フレ__ム
  6
CONTINUOUS
 62
    7
 10
57.049745291511258
 20
78.194427972905245
 40
1
 50
270
 51
0
  0
LINE
  8
_0-0_フレ__ム
  6
CONTINUOUS
 62
    7
 10
56.094770105560301
 20
69.644676113394766
 11
56.849745291511269
 21
77.194427972905245
  0
LINE
  8
_0-0_フレ__ム
  6
CONTINUOUS
 62
    7
 10
53.549745291511258
 20
73.694427972905245
 11
53.549745291511258
 21
70.694427972905245
  0
ARC
  8
_0-0_フレ__ム
  6
CONTINUOUS
 62
    7
 10
55.59725151045528
 20
69.694427972905245
 40
0.5
 50
270
 51
354.2894068625003
  0
ARC
  8
_0-0_フレ__ム
  6
CONTINUOUS
 62
    7
 10
48.049745291511258
 20
73.694427972905245
 40
5.5
 50
0
 51
39.521196358642548
  0
ARC
  8
_0-0_フレ__ム
  6
CONTINUOUS
 62
    7
 10
55.049745291511258
 20
70.694427972905245
 40
1.5
 50
180
 51
270
  0
LINE
  8
_0-0_フレ__ム
  6
CONTINUOUS
 62
    7
 10
38.665606134969309
 20
71.694427972905245
 11
37.049745291511258
 21
71.694427972905245
  0
LINE
  8
_0-0_フレ__ム
  6
CONTINUOUS
 62
    7
 10
39.14872360476987
 20
72.065596647625043
 11
40.94873519050121
 21
78.815640094117342
  0
LINE
  8
_0-0_フレ__ム
  6
CONTINUOUS
 62
    7
 10
35.549745291511258
 20
84.194427972905245
 11
35.549745291511258
 21
83.194427972905245
  0
ARC
  8
_0-0_フレ__ム
  6
CONTINUOUS
 62
    7
 10
38.665606134969309
 20
72.194427972905245
 40
0.5
 50
270
 51
345.06858282186238
  0
LINE
  8
_0-0_フレ__ム
  6
CONTINUOUS
 62
    7
 10
37.049745291511258
 20
71.694427972905245
 11
35.549745291511258
 21
75.194427972905245
  0
ARC
  8
_0-0_フレ__ム
  6
CONTINUOUS
 62
    7
 10
35.549745291511258
 20
76.694427972905245
 40
1.5
 50
270
 51
47.149676308482647
  0
LINE
  8
_0-0_フレ__ム
  6
CONTINUOUS
 62
    7
 10
32.14974529151128
 20
81.894427972905262
 11
36.569873522608404
 21
77.794127200930248
  0
LINE
  8
_0-0_フレ__ム
  6
CONTINUOUS
 62
    7
 10
32.14974529151128
 20
81.894427972905262
 11
32.64974529151128
 21
82.194427972905245
  0
LINE
  8
_0-0_フレ__ム
  6
CONTINUOUS
 62
    7
 10
32.64974529151128
 20
82.194427972905245
 11
35.549745291511258
 21
83.194427972905245
  0
LINE
  8
_0-0_フレ__ム
  6
CONTINUOUS
 62
    7
 10
12.049745291511329
 20
25.453297102720953
 11
63.049745291511258
 21
25.453297102720896
  0
LINE
  8
_0-0_フレ__ム
  6
CONTINUOUS
 62
    7
 10
12.049745291511215
 20
53.453297102720839
 11
63.049745291511201
 21
53.453297102720839
  0
LINE
  8
_0-0_フレ__ム
  6
CONTINUOUS
 62
    7
 10
12.049745291511329
 20
51.953297102720754
 11
41.049745291511258
 21
51.953297102720839
  0
LINE
  8
_0-0_フレ__ム
  6
CONTINUOUS
 62
    7
 10
6.5497452915113286
 20
26.953297102720924
 11
6.5497452915112149
 21
51.953297102720953
  0
LINE
  8
_0-0_フレ__ム
  6
CONTINUOUS
 62
    7
 10
6.5497452915113286
 20
26.953297102720924
 11
12.049745291511329
 21
26.953297102720924
  0
LINE
  8
_0-0_フレ__ム
  6
CONTINUOUS
 62
    7
 10
12.049745291511329
 20
25.453297102720953
 11
12.049745291511329
 21
26.95329710272101
  0
LINE
  8
_0-0_フレ__ム
  6
CONTINUOUS
 62
    7
 10
6.5497452915112149
 20
51.953297102720953
 11
12.049745291511215
 21
51.953297102720839
  0
LINE
  8
_0-0_フレ__ム
  6
CONTINUOUS
 62
    7
 10
12.049745291511329
 20
51.953297102720754
 11
12.049745291511215
 21
53.453297102720839
  0
CIRCLE
  8
_0-0_フレ__ム
  6
CONTINUOUS
 62
    7
 10
23.549745291511314
 20
38.953297102720839
 40
2.75
  0
LINE
  8
_0-0_フレ__ム
  6
CONTINUOUS
 62
    7
 10
63.049745291511258
 20
25.453297102720896
 11
63.049745291511201
 21
53.453297102720839
  0
LINE
  8
_0-0_フレ__ム
  6
CONTINUOUS
 62
    7
 10
58.049745291511258
 20
37.453297102720953
 11
59.049745291511258
 21
37.453297102720839
  0
LINE
  8
_0-0_フレ__ム
  6
CONTINUOUS
 62
    7
 10
58.049745291511258
 20
41.453297102720839
 11
59.049745291511258
 21
41.453297102720839
  0
LINE
  8
_0-0_フレ__ム
  6
CONTINUOUS
 62
    7
 10
10.749745291511317
 20
28.45329710272101
 11
10.749745291511204
 21
50.453297102720839
  0
ARC
  8
_0-0_フレ__ム
  6
CONTINUOUS
 62
    7
 10
9.2497452915112035
 20
50.453297102720839
 40
1.5
 50
0
 51
89.999999999999403
  0
ARC
  8
_0-0_フレ__ム
  6
CONTINUOUS
 62
    7
 10
9.2497452915112035
 20
28.45329710272101
 40
1.5
 50
270.00000000000068
 51
0.0000000000000381
  0
LINE
  8
_0-0_フレ__ム
  6
CONTINUOUS
 62
    7
 10
38.549745291511258
 20
53.453297102720839
 11
38.549745291511258
 21
51.953297102720839
  0
LINE
  8
_0-0_フレ__ム
  6
CONTINUOUS
 62
    7
 10
59.549745291511258
 20
53.453297102720839
 11
59.549745291511258
 21
51.953297102720839
  0
LINE
  8
_0-0_フレ__ム
  6
CONTINUOUS
 62
    7
 10
41.049745291511258
 20
51.953297102720839
 11
41.049745291511258
 21
48.953297102720839
  0
LINE
  8
_0-0_フレ__ム
  6
CONTINUOUS
 62
    7
 10
55.549745291511258
 20
51.953297102720839
 11
55.549745291511258
 21
48.953297102720839
  0
LINE
  8
_0-0_フレ__ム
  6
CONTINUOUS
 62
    7
 10
59.549745291511258
 20
26.953297102720924
 11
59.549745291511258
 21
25.453297102720896
  0
LINE
  8
_0-0_フレ__ム
  6
CONTINUOUS
 62
    7
 10
38.549745291511258
 20
26.953297102720924
 11
38.549745291511258
 21
25.453297102720896
  0
LINE
  8
_0-0_フレ__ム
  6
CONTINUOUS
 62
    7
 10
42.049745291511258
 20
47.953297102720839
 11
54.549745291511258
 21
47.953297102720839
  0
ARC
  8
_0-0_フレ__ム
  6
CONTINUOUS
 62
    7
 10
42.049745291511258
 20
48.953297102720839
 40
1
 50
180
 51
270.00000000000011
  0
ARC
  8
_0-0_フレ__ム
  6
CONTINUOUS
 62
    7
 10
54.549745291511258
 20
48.953297102720839
 40
1
 50
270.00000000000011
 51
0
  0
LINE
  8
_0-0_フレ__ム
  6
CONTINUOUS
 62
    7
 10
55.549745291511258
 20
51.953297102720839
 11
63.049745291511201
 21
51.953297102720839
  0
LINE
  8
_0-0_フレ__ム
  6
CONTINUOUS
 62
    7
 10
42.049745291511258
 20
30.953297102720953
 11
54.549745291511258
 21
30.953297102720953
  0
LINE
  8
_0-0_フレ__ム
  6
CONTINUOUS
 62
    7
 10
41.049745291511258
 20
26.95329710272101
 11
41.049745291511258
 21
29.953297102720953
  0
ARC
  8
_0-0_フレ__ム
  6
CONTINUOUS
 62
    7
 10
42.049745291511258
 20
29.953297102720953
 40
1
 50
89.999999999999915
 51
180
  0
LINE
  8
_0-0_フレ__ム
  6
CONTINUOUS
 62
    7
 10
55.549745291511258
 20
26.953297102720896
 11
55.549745291511258
 21
29.953297102720953
  0
ARC
  8
_0-0_フレ__ム
  6
CONTINUOUS
 62
    7
 10
54.549745291511258
 20
29.953297102720953
 40
1
 50
0
 51
89.999999999999915
  0
LINE
  8
_0-0_フレ__ム
  6
CONTINUOUS
 62
    7
 10
55.549745291511258
 20
26.953297102720896
 11
63.049745291511201
 21
26.953297102720896
  0
LINE
  8
_0-0_フレ__ム
  6
CONTINUOUS
 62
    7
 10
12.049745291511329
 20
26.95329710272101
 11
41.049745291511258
 21
26.95329710272101
  0
LINE
  8
_0-0_フレ__ム
  6
CONTINUOUS
 62
    7
 10
32.14974529151128
 20
51.803297102720862
 11
32.14974529151128
 21
27.103297102720958
  0
LINE
  8
_0-0_フレ__ム
  6
CONTINUOUS
 62
    7
 10
58.049745291511258
 20
51.803297102720862
 11
58.049745291511258
 21
47.953297102720953
  0
LINE
  8
_0-0_フレ__ム
  6
CONTINUOUS
 62
    7
 10
32.14974529151128
 20
51.803297102720862
 11
41.049745291511258
 21
51.803297102720862
  0
LINE
  8
_0-0_フレ__ム
  6
CONTINUOUS
 62
    7
 10
55.549745291511258
 20
51.803297102720862
 11
58.049745291511258
 21
51.803297102720862
  0
LINE
  8
_0-0_フレ__ム
  6
CONTINUOUS
 62
    7
 10
32.14974529151128
 20
27.103297102720958
 11
41.049745291511258
 21
27.103297102720958
  0
LINE
  8
_0-0_フレ__ム
  6
CONTINUOUS
 62
    7
 10
55.549745291511258
 20
27.103297102720958
 11
58.049745291511258
 21
27.103297102720958
  0
LINE
  8
_0-0_フレ__ム
  6
CONTINUOUS
 62
    7
 10
40.633078624844572
 20
79.194427972905245
 11
35.060347924745301
 21
79.194427972905245
  0
LINE
  8
_0-0_フレ__ム
  6
CONTINUOUS
 62
    7
 10
35.060347924745301
 20
51.803297102720862
 11
35.060347924745301
 21
27.103297102720958
  0
LINE
  8
_0-0_フレ__ム
  6
CONTINUOUS
 62
    7
 10
36.049745291511258
 20
44.75329710272085
 11
36.549745291511258
 21
44.75329710272085
  0
LINE
  8
_0-0_フレ__ム
  6
CONTINUOUS
 62
    7
 10
36.049745291511258
 20
34.153297102720856
 11
36.549745291511258
 21
34.153297102720856
  0
LINE
  8
_0-0_フレ__ム
  6
CONTINUOUS
 62
    7
 10
35.549745291511258
 20
44.25329710272085
 11
35.549745291511258
 21
34.653297102720941
  0
LINE
  8
_0-0_フレ__ム
  6
CONTINUOUS
 62
    7
 10
40.633078624844572
 20
44.253297102720936
 11
40.633078624844572
 21
34.653297102720941
  0
ARC
  8
_0-0_フレ__ム
  6
CONTINUOUS
 62
    7
 10
36.049745291511258
 20
44.25329710272085
 40
0.5
 50
90
 51
180
  0
ARC
  8
_0-0_フレ__ム
  6
CONTINUOUS
 62
    7
 10
36.049745291511258
 20
34.653297102720941
 40
0.5
 50
180
 51
270
  0
ARC
  8
_0-0_フレ__ム
  6
CONTINUOUS
 62
    7
 10
40.133078624844572
 20
34.653297102720941
 40
0.5
 50
270
 51
0
  0
ARC
  8
_0-0_フレ__ム
  6
CONTINUOUS
 62
    7
 10
40.133078624844572
 20
44.253297102720936
 40
0.5
 50
0
 51
90
  0
LINE
  8
_0-0_フレ__ム
  6
CONTINUOUS
 62
    7
 10
37.049745291511258
 20
44.253297102720936
 11
37.049745291511258
 21
34.653297102720941
  0
ARC
  8
_0-0_フレ__ム
  6
CONTINUOUS
 62
    7
 10
36.549745291511258
 20
34.653297102720941
 40
0.5
 50
270
 51
0
  0
ARC
  8
_0-0_フレ__ム
  6
CONTINUOUS
 62
    7
 10
36.549745291511258
 20
44.253297102720936
 40
0.5
 50
0
 51
90
  0
ARC
  8
_0-0_フレ__ム
  6
CONTINUOUS
 62
    7
 10
37.549745291511258
 20
44.253297102720936
 40
0.5
 50
90
 51
180
  0
ARC
  8
_0-0_フレ__ム
  6
CONTINUOUS
 62
    7
 10
37.549745291511258
 20
34.653297102720941
 40
0.5
 50
180
 51
270
  0
LINE
  8
_0-0_フレ__ム
  6
CONTINUOUS
 62
    7
 10
38.665606134969309
 20
44.253297102720936
 11
38.665606134969309
 21
34.653297102720941
  0
ARC
  8
_0-0_フレ__ム
  6
CONTINUOUS
 62
    7
 10
39.165606134969309
 20
34.653297102720941
 40
0.5
 50
180
 51
270
  0
ARC
  8
_0-0_フレ__ム
  6
CONTINUOUS
 62
    7
 10
38.165606134969309
 20
34.653297102720941
 40
0.5
 50
270
 51
0
  0
ARC
  8
_0-0_フレ__ム
  6
CONTINUOUS
 62
    7
 10
39.165606134969309
 20
44.253297102720936
 40
0.5
 50
90
 51
180
  0
ARC
  8
_0-0_フレ__ム
  6
CONTINUOUS
 62
    7
 10
38.165606134969309
 20
44.253297102720936
 40
0.5
 50
0
 51
90
  0
LINE
  8
_0-0_フレ__ム
  6
CONTINUOUS
 62
    7
 10
37.549745291511258
 20
44.75329710272085
 11
38.165606134969309
 21
44.75329710272085
  0
LINE
  8
_0-0_フレ__ム
  6
CONTINUOUS
 62
    7
 10
39.165606134969309
 20
44.75329710272085
 11
40.133078624844572
 21
44.753297102720936
  0
LINE
  8
_0-0_フレ__ム
  6
CONTINUOUS
 62
    7
 10
37.549745291511258
 20
34.153297102720856
 11
38.165606134969309
 21
34.153297102720856
  0
LINE
  8
_0-0_フレ__ム
  6
CONTINUOUS
 62
    7
 10
39.165606134969309
 20
34.153297102720856
 11
40.133078624844572
 21
34.153297102720856
  0
LINE
  8
_0-0_フレ__ム
  6
CONTINUOUS
 62
    7
 10
49.049745291511258
 20
46.753297102720936
 11
58.049745291511258
 21
46.75329710272085
  0
LINE
  8
_0-0_フレ__ム
  6
CONTINUOUS
 62
    7
 10
49.049745291511258
 20
47.953297102720953
 11
58.049745291511258
 21
47.953297102720953
  0
LINE
  8
_0-0_フレ__ム
  6
CONTINUOUS
 62
    7
 10
49.049745291511258
 20
47.953297102720953
 11
49.049745291511258
 21
46.753297102720936
  0
LINE
  8
_0-0_フレ__ム
  6
CONTINUOUS
 62
    7
 10
58.049745291511258
 20
46.75329710272085
 11
58.049745291511258
 21
32.153297102720941
  0
LINE
  8
_0-0_フレ__ム
  6
CONTINUOUS
 62
    7
 10
48.049745291511258
 20
46.25329710272085
 11
56.549745291511258
 21
46.25329710272085
  0
LINE
  8
_0-0_フレ__ム
  6
CONTINUOUS
 62
    7
 10
57.049745291511258
 20
45.753297102720936
 11
57.049745291511258
 21
33.153297102720941
  0
LINE
  8
_0-0_フレ__ム
  6
CONTINUOUS
 62
    7
 10
55.59725151045528
 20
44.25329710272085
 11
55.59725151045528
 21
34.653297102720941
  0
LINE
  8
_0-0_フレ__ム
  6
CONTINUOUS
 62
    7
 10
53.549745291511258
 20
44.25329710272085
 11
53.549745291511258
 21
34.653297102720941
  0
LINE
  8
_0-0_フレ__ム
  6
CONTINUOUS
 62
    7
 10
54.049745291511258
 20
44.75329710272085
 11
55.09725151045528
 21
44.75329710272085
  0
ARC
  8
_0-0_フレ__ム
  6
CONTINUOUS
 62
    7
 10
56.549745291511258
 20
45.753297102720936
 40
0.5
 50
0
 51
89.999999999999915
  0
ARC
  8
_0-0_フレ__ム
  6
CONTINUOUS
 62
    7
 10
55.09725151045528
 20
44.25329710272085
 40
0.5
 50
0
 51
90
  0
ARC
  8
_0-0_フレ__ム
  6
CONTINUOUS
 62
    7
 10
54.049745291511258
 20
44.25329710272085
 40
0.5
 50
90
 51
180
  0
LINE
  8
_0-0_フレ__ム
  6
CONTINUOUS
 62
    7
 10
48.049745291511258
 20
32.653297102720941
 11
56.549745291511258
 21
32.653297102720941
  0
LINE
  8
_0-0_フレ__ム
  6
CONTINUOUS
 62
    7
 10
54.049745291511258
 20
34.153297102720941
 11
55.09725151045528
 21
34.153297102720941
  0
ARC
  8
_0-0_フレ__ム
  6
CONTINUOUS
 62
    7
 10
54.049745291511258
 20
34.653297102720941
 40
0.5
 50
180
 51
270
  0
ARC
  8
_0-0_フレ__ム
  6
CONTINUOUS
 62
    7
 10
55.09725151045528
 20
34.653297102720941
 40
0.5
 50
270
 51
0
  0
ARC
  8
_0-0_フレ__ム
  6
CONTINUOUS
 62
    7
 10
56.549745291511258
 20
33.153297102720941
 40
0.5
 50
270.00000000000011
 51
0
  0
LINE
  8
_0-0_フレ__ム
  6
CONTINUOUS
 62
    7
 10
49.049745291511258
 20
30.953297102720839
 11
58.049745291511258
 21
30.953297102720839
  0
LINE
  8
_0-0_フレ__ム
  6
CONTINUOUS
 62
    7
 10
58.049745291511258
 20
27.103297102720958
 11
58.049745291511258
 21
30.953297102720839
  0
LINE
  8
_0-0_フレ__ム
  6
CONTINUOUS
 62
    7
 10
49.049745291511258
 20
32.153297102720856
 11
58.049745291511258
 21
32.153297102720941
  0
LINE
  8
_0-0_フレ__ム
  6
CONTINUOUS
 62
    7
 10
49.049745291511258
 20
30.953297102720839
 11
49.049745291511258
 21
32.153297102720856
  0
LINE
  8
_0-0_フレ__ム
  6
CONTINUOUS
 62
  152
 10
10.355178610847986
 20
50.453297102720839
 11
10.355178610847986
 21
28.45329710272101
  0
ARC
  8
_0-0_フレ__ム
  6
CONTINUOUS
 62
  152
 10
8.855178610847986
 20
50.453297102720839
 40
1.5
 50
0
 51
89.999999999999403
  0
ARC
  8
_0-0_フレ__ム
  6
CONTINUOUS
 62
  152
 10
8.855178610847986
 20
28.45329710272101
 40
1.5
 50
270.00000000000068
 51
0.0000000000000381
  0
LINE
  8
_0-0_フレ__ム
  6
CONTINUOUS
 62
  152
 10
48.049745291511258
 20
46.25329710272085
 11
48.049745291511258
 21
32.653297102720856
  0
LINE
  8
_0-0_フレ__ム
  6
CONTINUOUS
 62
  152
 10
53.798343666699779
 20
44.685497545851248
 11
48.049745291511258
 21
46.25329710272085
  0
LINE
  8
_0-0_フレ__ム
  6
CONTINUOUS
 62
  152
 10
55.453153529593109
 20
44.60448615832145
 11
56.905647310649087
 21
46.10448615832145
  0
LINE
  8
_0-0_フレ__ム
  6
CONTINUOUS
 62
  152
 10
53.798343666699779
 20
34.221096659590458
 11
48.049745291511258
 21
32.653297102720941
  0
LINE
  8
_0-0_フレ__ム
  6
CONTINUOUS
 62
  152
 10
55.453153529593109
 20
34.302108047120342
 11
56.905647310649087
 21
32.802108047120342
  0
LINE
  8
_0-0_フレ__ム
  6
CENTER1
 62
  152
 10
23.549745291511314
 20
26.956027136473082
 11
23.549745291511314
 21
51.337968997492155
  0
LINE
  8
_0-0_フレ__ム
  6
CENTER1
 62
  152
 10
23.549745291511314
 20
82.542083050012835
 11
23.549745291511314
 21
89.965996324283211
  0
LINE
  8
_0-0_フレ__ム
  6
CENTER1
 62
  152
 10
6.5497452915112717
 20
38.953297102720839
 11
63.049745291511215
 21
38.953297102720839
  0
ARC
  8
_0-0_フレ__ム
  6
CONTINUOUS
 62
    7
 10
157.23005372689681
 20
26.3291613050759
 40
1.7000000000000002
 50
180
 51
270
  0
ARC
  8
_0-0_フレ__ム
  6
CONTINUOUS
 62
    7
 10
157.23005372689681
 20
26.3291613050759
 40
0.5
 50
180
 51
270
  0
LINE
  8
_0-0_フレ__ム
  6
CONTINUOUS
 62
    7
 10
163.03005372689722
 20
47.629161305074717
 11
163.83005372689763
 21
46.829161305075445
  0
LINE
  8
_0-0_フレ__ム
  6
CONTINUOUS
 62
    7
 10
158.53005372689677
 20
45.629161305076536
 11
158.53005372689677
 21
42.629161305074717
  0
LINE
  8
_0-0_フレ__ム
  6
CONTINUOUS
 62
    7
 10
161.03005372689677
 20
27.629161305074717
 11
161.03005372689677
 21
25.829161305076354
  0
LINE
  8
_0-0_フレ__ム
  6
CONTINUOUS
 62
    7
 10
161.03005372689677
 20
27.629161305074717
 11
162.11584016452389
 21
27.629161305074717
  0
LINE
  8
_0-0_フレ__ム
  6
CONTINUOUS
 62
    7
 10
163.03005372689722
 20
29.629161305075172
 11
163.03005372689722
 21
28.543374867448051
  0
ARC
  8
_0-0_フレ__ム
  6
CONTINUOUS
 62
    7
 10
163.53005372689677
 20
27.129161305075172
 40
1.5000000000000002
 50
160.52877936550948
 51
109.47122063449052
  0
ARC
  8
_0-0_フレ__ム
  6
CONTINUOUS
 62
    7
 10
163.53005372689677
 20
27.129161305075172
 40
2.5
 50
270
 51
0
  0
LINE
  8
_0-0_フレ__ム
  6
CONTINUOUS
 62
    7
 10
157.23005372689681
 20
25.829161305076354
 11
161.03005372689677
 21
25.829161305076354
  0
LINE
  8
_0-0_フレ__ム
  6
CONTINUOUS
 62
    7
 10
157.23005372689681
 20
24.629161305075172
 11
163.53005372689677
 21
24.629161305075172
  0
LINE
  8
_0-0_フレ__ム
  6
CONTINUOUS
 62
    7
 10
155.53005372689722
 20
41.129161305076082
 11
155.53005372689722
 21
26.129161305076082
  0
LINE
  8
_0-0_フレ__ム
  6
CONTINUOUS
 62
    7
 10
156.73005372689727
 20
40.929161305076263
 11
156.73005372689727
 21
26.3291613050759
  0
ARC
  8
_0-0_フレ__ム
  6
CONTINUOUS
 62
    7
 10
157.23005372689681
 20
40.929161305076263
 40
0.5
 50
90
 51
180
  0
LINE
  8
_0-0_フレ__ム
  6
CONTINUOUS
 62
    7
 10
159.23005372689727
 20
41.429161305075809
 11
157.23005372689681
 21
41.429161305075809
  0
ARC
  8
_0-0_フレ__ム
  6
CONTINUOUS
 62
    7
 10
159.23005372689727
 20
41.929161305075354
 40
0.5
 50
270
 51
0
  0
LINE
  8
_0-0_フレ__ム
  6
CONTINUOUS
 62
    7
 10
156.03005372689677
 20
45.629161305076536
 11
158.53005372689677
 21
45.629161305076536
  0
ARC
  8
_0-0_フレ__ム
  6
CONTINUOUS
 62
    7
 10
156.03005372689677
 20
46.129161305076082
 40
0.5
 50
180
 51
270
  0
LINE
  8
_0-0_フレ__ム
  6
CONTINUOUS
 62
    7
 10
155.53005372689722
 20
47.129161305075172
 11
155.53005372689722
 21
46.129161305076082
  0
LINE
  8
_0-0_フレ__ム
  6
CONTINUOUS
 62
    7
 10
156.03005372689677
 20
47.629161305074717
 11
163.03005372689722
 21
47.629161305074717
  0
ARC
  8
_0-0_フレ__ム
  6
CONTINUOUS
 62
    7
 10
156.03005372689677
 20
47.129161305075172
 40
0.5
 50
90
 51
180
  0
LINE
  8
_0-0_フレ__ム
  6
CONTINUOUS
 62
    7
 10
157.23005372689681
 20
42.629161305074717
 11
158.53005372689677
 21
42.629161305074717
  0
ARC
  8
_0-0_フレ__ム
  6
CONTINUOUS
 62
    7
 10
157.23005372689681
 20
40.929161305076263
 40
1.7000000000000002
 50
90
 51
180
  0
LINE
  8
_0-0_フレ__ム
  6
CONTINUOUS
 62
    7
 10
165.53005372689722
 20
29.629161305075172
 11
163.03005372689722
 21
29.629161305075172
  0
LINE
  8
_0-0_フレ__ム
  6
CONTINUOUS
 62
    7
 10
166.03005372689677
 20
29.129161305075627
 11
166.03005372689677
 21
27.129161305075172
  0
ARC
  8
_0-0_フレ__ム
  6
CONTINUOUS
 62
    7
 10
165.53005372689722
 20
29.129161305075627
 40
0.5
 50
0
 51
90.000000000000028
  0
LINE
  8
_0-0_フレ__ム
  6
CONTINUOUS
 62
    7
 10
159.73005372689681
 20
45.129161305074717
 11
159.73005372689681
 21
41.929161305075354
  0
ARC
  8
_0-0_フレ__ム
  6
CONTINUOUS
 62
    7
 10
160.23005372689749
 20
45.129161305074717
 40
0.5
 50
90
 51
180
  0
ARC
  8
_0-0_フレ__ム
  6
CONTINUOUS
 62
    7
 10
183.83005372689763
 20
26.3291613050759
 40
1.7000000000000002
 50
270
 51
0
  0
ARC
  8
_0-0_フレ__ム
  6
CONTINUOUS
 62
    7
 10
183.83005372689763
 20
26.3291613050759
 40
0.5
 50
270
 51
0
  0
LINE
  8
_0-0_フレ__ム
  6
CONTINUOUS
 62
    7
 10
178.03005372689722
 20
47.629161305074717
 11
177.23005372689681
 21
46.829161305075445
  0
LINE
  8
_0-0_フレ__ム
  6
CONTINUOUS
 62
    7
 10
182.53005372689768
 20
45.629161305076536
 11
182.53005372689768
 21
42.629161305074717
  0
LINE
  8
_0-0_フレ__ム
  6
CONTINUOUS
 62
    7
 10
180.03005372689768
 20
27.629161305074717
 11
180.03005372689768
 21
25.829161305076354
  0
LINE
  8
_0-0_フレ__ム
  6
CONTINUOUS
 62
    7
 10
180.03005372689768
 20
27.629161305074717
 11
178.94426728927056
 21
27.629161305074717
  0
LINE
  8
_0-0_フレ__ム
  6
CONTINUOUS
 62
    7
 10
178.03005372689722
 20
29.629161305075172
 11
178.03005372689722
 21
28.543374867448051
  0
ARC
  8
_0-0_フレ__ム
  6
CONTINUOUS
 62
    7
 10
177.53005372689768
 20
27.129161305075172
 40
1.5000000000000002
 50
70.528779365509465
 51
19.471220634490464
  0
ARC
  8
_0-0_フレ__ム
  6
CONTINUOUS
 62
    7
 10
177.53005372689768
 20
27.129161305075172
 40
2.5
 50
180
 51
270
  0
LINE
  8
_0-0_フレ__ム
  6
CONTINUOUS
 62
    7
 10
183.83005372689763
 20
25.829161305076354
 11
180.03005372689768
 21
25.829161305076354
  0
LINE
  8
_0-0_フレ__ム
  6
CONTINUOUS
 62
    7
 10
183.83005372689763
 20
24.629161305075172
 11
177.53005372689768
 21
24.629161305075172
  0
LINE
  8
_0-0_フレ__ム
  6
CONTINUOUS
 62
    7
 10
185.53005372689722
 20
41.129161305076082
 11
185.53005372689722
 21
26.129161305076082
  0
LINE
  8
_0-0_フレ__ム
  6
CONTINUOUS
 62
    7
 10
184.33005372689718
 20
40.929161305076263
 11
184.33005372689718
 21
26.3291613050759
  0
ARC
  8
_0-0_フレ__ム
  6
CONTINUOUS
 62
    7
 10
183.83005372689763
 20
40.929161305076263
 40
0.5
 50
0
 51
90
  0
LINE
  8
_0-0_フレ__ム
  6
CONTINUOUS
 62
    7
 10
181.83005372689718
 20
41.429161305075809
 11
183.83005372689763
 21
41.429161305075809
  0
ARC
  8
_0-0_フレ__ム
  6
CONTINUOUS
 62
    7
 10
181.83005372689718
 20
41.929161305075354
 40
0.5
 50
180
 51
270
  0
LINE
  8
_0-0_フレ__ム
  6
CONTINUOUS
 62
    7
 10
185.03005372689768
 20
45.629161305076536
 11
182.53005372689768
 21
45.629161305076536
  0
ARC
  8
_0-0_フレ__ム
  6
CONTINUOUS
 62
    7
 10
185.03005372689768
 20
46.129161305076082
 40
0.5
 50
270
 51
0
  0
LINE
  8
_0-0_フレ__ム
  6
CONTINUOUS
 62
    7
 10
185.53005372689722
 20
47.129161305075172
 11
185.53005372689722
 21
46.129161305076082
  0
LINE
  8
_0-0_フレ__ム
  6
CONTINUOUS
 62
    7
 10
185.03005372689768
 20
47.629161305074717
 11
178.03005372689722
 21
47.629161305074717
  0
ARC
  8
_0-0_フレ__ム
  6
CONTINUOUS
 62
    7
 10
185.03005372689768
 20
47.129161305075172
 40
0.5
 50
0
 51
90
  0
LINE
  8
_0-0_フレ__ム
  6
CONTINUOUS
 62
    7
 10
183.83005372689763
 20
42.629161305074717
 11
182.53005372689768
 21
42.629161305074717
  0
ARC
  8
_0-0_フレ__ム
  6
CONTINUOUS
 62
    7
 10
183.83005372689763
 20
40.929161305076263
 40
1.7000000000000002
 50
0
 51
90
  0
LINE
  8
_0-0_フレ__ム
  6
CONTINUOUS
 62
    7
 10
175.53005372689722
 20
29.629161305075172
 11
178.03005372689722
 21
29.629161305075172
  0
LINE
  8
_0-0_フレ__ム
  6
CONTINUOUS
 62
    7
 10
175.03005372689768
 20
29.129161305075627
 11
175.03005372689768
 21
27.129161305075172
  0
ARC
  8
_0-0_フレ__ム
  6
CONTINUOUS
 62
    7
 10
175.53005372689722
 20
29.129161305075627
 40
0.5
 50
89.999999999999986
 51
180
  0
LINE
  8
_0-0_フレ__ム
  6
CONTINUOUS
 62
    7
 10
181.33005372689763
 20
45.129161305074717
 11
181.33005372689763
 21
41.929161305075354
  0
ARC
  8
_0-0_フレ__ム
  6
CONTINUOUS
 62
    7
 10
180.83005372689695
 20
45.129161305074717
 40
0.5
 50
0
 51
90
  0
LINE
  8
_0-0_フレ__ム
  6
CONTINUOUS
 62
    7
 10
175.03005372689768
 20
41.629161305075627
 11
180.03005372689768
 21
41.629161305075627
  0
LINE
  8
_0-0_フレ__ム
  6
CONTINUOUS
 62
    7
 10
180.03005372689768
 20
41.629161305075627
 11
180.03005372689768
 21
29.629161305075172
  0
LINE
  8
_0-0_フレ__ム
  6
CONTINUOUS
 62
    7
 10
175.03005372689768
 20
29.629161305075172
 11
180.03005372689768
 21
29.629161305075172
  0
LINE
  8
_0-0_フレ__ム
  6
CONTINUOUS
 62
    7
 10
175.03005372689768
 20
41.629161305075627
 11
175.03005372689768
 21
29.629161305075172
  0
LINE
  8
_0-0_フレ__ム
  6
CONTINUOUS
 62
    7
 10
166.03005372689677
 20
41.629161305075627
 11
161.03005372689677
 21
41.629161305075627
  0
LINE
  8
_0-0_フレ__ム
  6
CONTINUOUS
 62
    7
 10
161.03005372689677
 20
41.629161305075627
 11
161.03005372689677
 21
29.629161305075172
  0
LINE
  8
_0-0_フレ__ム
  6
CONTINUOUS
 62
    7
 10
166.03005372689677
 20
29.629161305075172
 11
161.03005372689677
 21
29.629161305075172
  0
LINE
  8
_0-0_フレ__ム
  6
CONTINUOUS
 62
    7
 10
166.03005372689677
 20
41.629161305075627
 11
166.03005372689677
 21
29.629161305075172
  0
LINE
  8
_0-0_フレ__ム
  6
CONTINUOUS
 62
    7
 10
166.53005372689745
 20
41.129161305076082
 11
174.53005372689699
 21
41.129161305076082
  0
LINE
  8
_0-0_フレ__ム
  6
CONTINUOUS
 62
    7
 10
166.53005372689745
 20
41.129161305076082
 11
166.53005372689745
 21
16.129161305076082
  0
LINE
  8
_0-0_フレ__ム
  6
CONTINUOUS
 62
    7
 10
166.53005372689745
 20
16.129161305076082
 11
174.53005372689699
 21
16.129161305076082
  0
LINE
  8
_0-0_フレ__ム
  6
CONTINUOUS
 62
    7
 10
174.53005372689699
 20
41.129161305076082
 11
174.53005372689699
 21
16.129161305076082
  0
ARC
  8
_0-0_フレ__ム
  6
CONTINUOUS
 62
    7
 10
170.53005372689722
 20
13.629161305076082
 40
2
 50
239.99999999999943
 51
300.00000000000057
  0
LINE
  8
_0-0_フレ__ム
  6
CONTINUOUS
 62
    7
 10
169.53005372689699
 20
16.129161305076082
 11
169.53005372689699
 21
11.897110497507924
  0
LINE
  8
_0-0_フレ__ム
  6
CONTINUOUS
 62
    7
 10
171.53005372689745
 20
16.129161305076082
 11
171.53005372689745
 21
11.897110497507924
  0
ARC
  8
_0-0_フレ__ム
  6
CONTINUOUS
 62
    7
 10
170.53005372689722
 20
8.6291613050760816
 40
7.0000000000000009
 50
98.213210701738234
 51
81.786789298261795
  0
ARC
  8
_0-0_フレ__ム
  6
CONTINUOUS
 62
    7
 10
170.53005372689722
 20
8.6291613050760816
 40
5
 50
101.53695903281559
 51
78.463040967184327
  0
LINE
  8
_0-0_フレ__ム
  6
CONTINUOUS
 62
    7
 10
160.23005372689749
 20
45.629161305076536
 11
180.83005372689695
 21
45.629161305076536
  0
LINE
  8
_0-0_フレ__ム
  6
CONTINUOUS
 62
    7
 10
163.83005372689763
 20
46.829161305075445
 11
177.23005372689681
 21
46.829161305075445
  0
LINE
  8
_0-0_フレ__ム
  6
CONTINUOUS
 62
    7
 10
158.55974708591657
 20
47.629161305074717
 11
185.55974708591589
 21
47.629161305074717
  0
LINE
  8
_0-0_フレ__ム
  6
CONTINUOUS
 62
    7
 10
209.5597470859168
 20
46.629161305075627
 11
209.5597470859168
 21
51.629161305075627
  0
LINE
  8
_0-0_フレ__ム
  6
CONTINUOUS
 62
    7
 10
209.5597470859168
 20
46.629161305075627
 11
206.55974708591611
 21
42.629161305074717
  0
LINE
  8
_0-0_フレ__ム
  6
CONTINUOUS
 62
    7
 10
185.55974708591589
 20
46.629161305075627
 11
188.55974708591657
 21
42.629161305074717
  0
LINE
  8
_0-0_フレ__ム
  6
CONTINUOUS
 62
    7
 10
185.55974708591589
 20
46.629161305075627
 11
185.55974708591589
 21
47.629161305074717
  0
LINE
  8
_0-0_フレ__ム
  6
CONTINUOUS
 62
    7
 10
188.55974708591657
 20
40.629161305076536
 11
188.55974708591657
 21
42.629161305074717
  0
LINE
  8
_0-0_フレ__ム
  6
CONTINUOUS
 62
    7
 10
188.55974708591657
 20
40.629161305076536
 11
202.55974708591634
 21
40.629161305076536
  0
LINE
  8
_0-0_フレ__ム
  6
CONTINUOUS
 62
    7
 10
202.55974708591634
 20
40.629161305076536
 11
202.55974708591634
 21
42.629161305074717
  0
LINE
  8
_0-0_フレ__ム
  6
CONTINUOUS
 62
    7
 10
202.55974708591634
 20
42.629161305074717
 11
206.55974708591611
 21
42.629161305074717
  0
LINE
  8
_0-0_フレ__ム
  6
CONTINUOUS
 62
    7
 10
158.55974708591657
 20
49.64124252964973
 11
155.56628488081469
 21
47.434023163480902
  0
LINE
  8
_0-0_フレ__ム
  6
CONTINUOUS
 62
    7
 10
158.03044885619624
 20
51.238885021938017
 11
154.61674535270913
 21
48.721802136970723
  0
LINE
  8
_0-0_フレ__ム
  6
CONTINUOUS
 62
    7
 10
159.2173732663282
 20
51.629161305075627
 11
209.5597470859168
 21
51.629161305075627
  0
ARC
  8
_0-0_フレ__ム
  6
CONTINUOUS
 62
    7
 10
159.2173732663282
 20
49.629161305075172
 40
2
 50
90
 51
126.40308365441476
  0
LINE
  8
_0-0_フレ__ム
  6
CONTINUOUS
 62
    7
 10
158.55974708591657
 20
47.629161305074717
 11
158.55974708591657
 21
51.517951342860556
  0
ARC
  8
_0-0_フレ__ム
  6
CONTINUOUS
 62
    7
 10
156.15974708591648
 20
46.629161305075627
 40
1
 50
126.40308364999879
 51
254.99999999999889
  0
ARC
  8
_0-0_フレ__ム
  6
CONTINUOUS
 62
    7
 10
156.15974708591648
 20
46.629161305075627
 40
2.6000000000000001
 50
126.4030836553881
 51
255.00000000000031
  0
LINE
  8
_0-0_フレ__ム
  6
CONTINUOUS
 62
    7
 10
155.90092804081405
 20
45.663235478785623
 11
157.83277969339179
 21
45.145597388580768
  0
LINE
  8
_0-0_フレ__ム
  6
CONTINUOUS
 62
    7
 10
157.83277969339179
 20
45.145597388580768
 11
157.41866922122836
 21
43.600116066519035
  0
LINE
  8
_0-0_フレ__ム
  6
CONTINUOUS
 62
    7
 10
155.48681756864949
 20
44.11775415672389
 11
157.41866922122836
 21
43.600116066519035
  0
LINE
  8
_0-0_フレ__ム
  6
CONTINUOUS
 62
    7
 10
205.53005372689722
 20
33.629161305076082
 11
207.53005372689768
 21
33.629161305076082
  0
LINE
  8
_0-0_フレ__ム
  6
CONTINUOUS
 62
    7
 10
205.53005372689722
 20
33.629161305076082
 11
203.11851099501678
 21
42.629161305074717
  0
LINE
  8
_0-0_フレ__ム
  6
CONTINUOUS
 62
    7
 10
184.25432161850108
 20
45.629161305076536
 11
186.30974708591634
 21
45.629161305076536
  0
LINE
  8
_0-0_フレ__ム
  6
CONTINUOUS
 62
    7
 10
189.53005372689699
 20
33.629161305076082
 11
187.53005372689768
 21
33.629161305076082
  0
LINE
  8
_0-0_フレ__ム
  6
CONTINUOUS
 62
    7
 10
187.53005372689768
 20
33.629161305076082
 11
185.79800291932838
 21
36.629161305075627
  0
LINE
  8
_0-0_フレ__ム
  6
CONTINUOUS
 62
    7
 10
187.53005372689768
 20
36.629161305075627
 11
185.79800291932838
 21
36.629161305075627
  0
LINE
  8
_0-0_フレ__ム
  6
CONTINUOUS
 62
    7
 10
187.53005372689768
 20
36.629161305075627
 11
184.25432161850108
 21
45.629161305076536
  0
LINE
  8
_0-0_フレ__ム
  6
CONTINUOUS
 62
    7
 10
189.53005372689699
 20
33.629161305076082
 11
191.40569807391512
 21
40.629161305076536
  0
LINE
  8
_0-0_フレ__ム
  6
CONTINUOUS
 62
    7
 10
209.03005372689745
 20
45.92290349304983
 11
209.03005372689745
 21
40.629161305076536
  0
LINE
  8
_0-0_フレ__ム
  6
CONTINUOUS
 62
    7
 10
207.03005372689699
 20
40.629161305076536
 11
209.03005372689745
 21
40.629161305076536
  0
LINE
  8
_0-0_フレ__ム
  6
CONTINUOUS
 62
    7
 10
207.03005372689699
 20
43.256236826383315
 11
207.03005372689699
 21
40.629161305076536
  0
LINE
  8
_0-0_フレ__ム
  6
CONTINUOUS
 62
    7
 10
207.53005372689768
 20
40.629161305076536
 11
207.53005372689768
 21
33.629161305076082
  0
LINE
  8
ADD_LINE
  6
DOT
 62
    7
 10
175.23005353616281
 20
49.740716875440626
 11
175.23005353616281
 21
50.029161305074808
  0
LINE
  8
ADD_LINE
  6
DOT
 62
    7
 10
165.83005391763163
 20
49.740716875440626
 11
165.83005391763163
 21
50.029161305074808
  0
LINE
  8
ADD_LINE
  6
DOT
 62
    7
 10
168.53005372689677
 20
50.029161305074808
 11
168.53005372689677
 21
59.7291611143404
  0
LINE
  8
ADD_LINE
  6
DOT
 62
    7
 10
168.83005367921396
 20
60.029161305074808
 11
168.53005372689677
 21
59.7291611143404
  0
LINE
  8
ADD_LINE
  6
DOT
 62
    7
 10
172.23005377458048
 20
60.029161305074808
 11
168.83005367921396
 21
60.029161305074808
  0
LINE
  8
ADD_LINE
  6
DOT
 62
    7
 10
172.23005377458048
 20
60.029161305074808
 11
172.53005372689768
 21
59.7291611143404
  0
LINE
  8
ADD_LINE
  6
DOT
 62
    7
 10
168.83005367921396
 20
50.029161305074808
 11
168.83005367921396
 21
60.029161305074808
  0
LINE
  8
ADD_LINE
  6
DOT
 62
    7
 10
172.53005372689768
 20
59.7291611143404
 11
168.53005372689677
 21
59.7291611143404
  0
LINE
  8
_0-0_フレ__ム
  6
CONTINUOUS
 62
    7
 10
163.03004731143346
 20
57.60791120970805
 11
164.93403731143326
 21
57.60791120970805
  0
LINE
  8
_0-0_フレ__ム
  6
CONTINUOUS
 62
    7
 10
164.93403731143326
 20
57.60791120970805
 11
164.93403731143326
 21
55.229161209708195
  0
LINE
  8
_0-0_フレ__ム
  6
CONTINUOUS
 62
    7
 10
175.45100731143339
 20
55.229161209708195
 11
178.03006731143341
 21
55.229161209708195
  0
LINE
  8
_0-0_フレ__ム
  6
CONTINUOUS
 62
    7
 10
178.03006731143341
 20
55.229161209708195
 11
178.03006731143341
 21
57.814967737708116
  0
LINE
  8
_0-0_フレ__ム
  6
CONTINUOUS
 62
    7
 10
178.03006731143341
 20
57.814967737708116
 11
176.61574077868272
 21
59.229231209707791
  0
LINE
  8
_0-0_フレ__ム
  6
CONTINUOUS
 62
    7
 10
165.60915731143359
 20
55.229161209708195
 11
163.03004731143346
 21
55.229161209708195
  0
LINE
  8
_0-0_フレ__ム
  6
CONTINUOUS
 62
    7
 10
163.03004731143346
 20
57.81491120970793
 11
163.03004731143346
 21
55.229161209708195
  0
LINE
  8
_0-0_フレ__ム
  6
CONTINUOUS
 62
    7
 10
163.03004731143346
 20
57.81491120970793
 11
164.44436731143287
 21
59.229231209707791
  0
LINE
  8
_0-0_フレ__ム
  6
CONTINUOUS
 62
    7
 10
164.93403731143326
 20
57.60791120970805
 11
166.55535731143345
 21
59.229231209707791
  0
LINE
  8
_0-0_フレ__ム
  6
CONTINUOUS
 62
    7
 10
176.61574077868272
 20
59.229231209707791
 11
164.44436731143287
 21
59.229231209707791
  0
LINE
  8
_0-0_フレ__ム
  6
CONTINUOUS
 62
    7
 10
176.03010731143331
 20
55.229161209708195
 11
174.88003708076303
 21
53.229101209707892
  0
LINE
  8
_0-0_フレ__ム
  6
CONTINUOUS
 62
    7
 10
165.03005731143367
 20
55.229161209708195
 11
166.18007037303141
 21
53.229101209707892
  0
LINE
  8
_0-0_フレ__ム
  6
CONTINUOUS
 62
    7
 10
174.88003708076303
 20
53.229101209707892
 11
166.18007037303141
 21
53.229101209707892
  0
LINE
  8
ADD_LINE
  6
DOT
 62
    7
 10
170.53005372691632
 20
51.629161305094726
 11
171.23716050808389
 21
52.336268086262294
  0
LINE
  8
ADD_LINE
  6
DOT
 62
    7
 10
169.82294694571056
 20
52.336268086262294
 11
170.53005372689722
 21
51.629161305075627
  0
LINE
  8
_0-0_フレ__ム
  6
CENTER1
 62
  152
 10
170.53005372689722
 20
60.029161305074808
 11
170.53005372689722
 21
1.6291613050756268
  0
LINE
  8
_0-0_フレ__ム
  6
CENTER1
 62
  152
 10
161.03005372689677
 20
35.629161305076536
 11
180.03005372689768
 21
35.629161305076536
  0
LINE
  8
_0-0_フレ__ム
  6
DASHED2
 62
  152
 10
63.049745291511258
 20
86.694427972905245
 11
12.049745291511329
 21
86.694427972905245
  0
LINE
  8
_0-0_フレ__ム
  6
DASHED2
 62
  152
 10
55.549745291511258
 20
78.694427972905245
 11
41.049745291511258
 21
78.694427972905245
  0
LINE
  8
_0-0_フレ__ム
  6
DASHED2
 62
  152
 10
59.049745291511258
 20
86.694427972905245
 11
57.755650065998665
 21
81.864798841459944
  0
LINE
  8
_0-0_フレ__ム
  6
DASHED2
 62
  152
 10
57.600856552077673
 20
87.082656540559057
 11
56.306761326565081
 21
82.253027409113756
  0
LINE
  8
_0-0_フレ__ム
  6
DASHED2
 62
  152
 10
57.755650065998665
 20
81.864798841459944
 11
56.306761326565081
 21
82.253027409113756
  0
ARC
  8
_0-0_フレ__ム
  6
DASHED2
 62
  152
 10
59.049745291511258
 20
86.694427972905245
 40
1.5
 50
90
 51
164.9999999999998
  0
LINE
  8
_0-0_フレ__ム
  6
DASHED2
 62
  152
 10
53.829592037055974
 20
86.694427972905245
 11
53.829592037055974
 21
88.194427972905245
  0
LINE
  8
_0-0_フレ__ム
  6
DASHED2
 62
  152
 10
58.049745291511258
 20
78.694427972905245
 11
58.049745291511258
 21
85.194427972905245
  0
ARC
  8
_0-0_フレ__ム
  6
DASHED2
 62
  152
 10
56.549745291511258
 20
85.194427972905245
 40
1.5
 50
0
 51
90
  0
LINE
  8
_0-0_フレ__ム
  6
DASHED2
 62
  152
 10
49.049745291511258
 20
81.794427972905268
 11
49.049745291511258
 21
86.694427972905245
  0
LINE
  8
_0-0_フレ__ム
  6
DASHED2
 62
  152
 10
58.049745291511258
 20
80.994427972905257
 11
49.849745291511269
 21
80.994427972905257
  0
ARC
  8
_0-0_フレ__ム
  6
DASHED2
 62
  152
 10
49.849745291511269
 20
81.794427972905268
 40
0.8
 50
180
 51
270
  0
LINE
  8
_0-0_フレ__ム
  6
DASHED2
 62
  152
 10
58.049745291511258
 20
79.194427972905245
 11
40.633078624844572
 21
79.194427972905245
  0
LINE
  8
_0-0_フレ__ム
  6
DASHED2
 62
  152
 10
56.849745291511496
 20
77.194427972905245
 11
57.049745291511258
 21
79.194427972905245
  0
ARC
  8
_0-0_フレ__ム
  6
DASHED2
 62
  152
 10
48.049745291511258
 20
73.694427972905245
 40
5.5
 50
39.521196358642548
 51
89.999999999999929
  0
ARC
  8
_0-0_フレ__ム
  6
DASHED2
 62
  152
 10
36.549745291511258
 20
85.694427972905245
 40
1
 50
90.000000000000057
 51
180
  0
LINE
  8
_0-0_フレ__ム
  6
DASHED2
 62
  152
 10
35.549745291511258
 20
84.194427972905245
 11
35.549745291511258
 21
85.694427972905245
  0
LINE
  8
_0-0_フレ__ム
  6
DASHED2
 62
  152
 10
59.049745291511258
 20
37.453297102720839
 11
59.049745291511258
 21
41.453297102720839
  0
LINE
  8
_0-0_フレ__ム
  6
DASHED2
 62
  152
 10
8.0497452915113286
 20
26.953297102720924
 11
8.0497452915112149
 21
51.953297102720953
  0
LINE
  8
_0-0_フレ__ム
  6
DASHED2
 62
  152
 10
41.049745291511258
 20
51.953297102720839
 11
55.549745291511258
 21
51.953297102720839
  0
LINE
  8
_0-0_フレ__ム
  6
DASHED2
 62
  152
 10
41.049745291511258
 20
26.95329710272101
 11
55.549745291511258
 21
26.953297102720896
  0
LINE
  8
_0-0_フレ__ム
  6
DASHED2
 62
  152
 10
41.049745291511258
 20
51.803297102720862
 11
55.549745291511258
 21
51.803297102720862
  0
LINE
  8
_0-0_フレ__ム
  6
DASHED2
 62
  152
 10
41.049745291511258
 20
27.103297102720958
 11
55.549745291511258
 21
27.103297102720873
  0
LINE
  8
_0-0_フレ__ム
  6
DASHED2
 62
  152
 10
159.2173732663282
 20
50.029161305074808
 11
209.5597470859168
 21
50.029161305074808
  0
LINE
  8
_0-0_フレ__ム
  6
CENTER1
 62
  152
 10
163.53005372689677
 20
8.6291613050760816
 11
177.53005372689768
 21
8.6291613050760816
  0
LINE
  8
ADD_LINE
  6
DOT
 62
  152
 10
150.53005372689722
 20
91.629161305075627
 11
190.53005372689722
 21
51.629161305075627
  0
LINE
  8
ADD_LINE
  6
DOT
 62
  152
 10
190.53005372689722
 20
91.629161305075627
 11
150.53005372689722
 21
51.629161305075627
  0
LINE
  8
_0-8_______________
  6
CONTINUOUS
 62
  152
 10
152.19036113427637
 20
88.68714112723444
 11
152.63800226853846
 21
87.457257218008976
  0
LINE
  8
_0-8_______________
  6
CONTINUOUS
 62
  152
 10
153.47207390473841
 20
89.968853897696476
 11
154.70195781396387
 21
89.521212763434391
  0
LINE
  8
_0-8_______________
  6
CONTINUOUS
 62
  152
 10
152.19036113427637
 20
82.571181721335392
 11
152.63800226853846
 21
83.801065392142277
  0
LINE
  8
_0-8_______________
  6
CONTINUOUS
 62
  152
 10
153.47207390473841
 20
81.289468235617619
 11
154.70195781396387
 21
81.737109608298283
  0
LINE
  8
_0-8_______________
  6
CONTINUOUS
 62
  152
 10
160.86974679635523
 20
88.68714112723444
 11
160.42210542367457
 21
87.457257218008976
  0
LINE
  8
_0-8_______________
  6
CONTINUOUS
 62
  152
 10
159.58803331063746
 20
89.968853897696476
 11
158.35814963983057
 21
89.521212763434391
  0
LINE
  8
_0-8_______________
  6
CONTINUOUS
 62
  152
 10
160.86974679635523
 20
82.571181721335392
 11
160.42210542367457
 21
83.801065392142277
  0
LINE
  8
_0-8_______________
  6
CONTINUOUS
 62
  152
 10
159.58803331063746
 20
81.289468235617619
 11
158.35814963983057
 21
81.737109608298283
  0
LINE
  8
_0-8_______________
  6
CONTINUOUS
 62
  152
 10
180.19036065743921
 20
88.68714112723444
 11
180.63800203011988
 21
87.457257218008976
  0
LINE
  8
_0-8_______________
  6
CONTINUOUS
 62
  152
 10
181.47207414315699
 20
89.968853897696476
 11
182.70195924447535
 21
89.521212763434391
  0
LINE
  8
_0-8_______________
  6
CONTINUOUS
 62
  152
 10
180.19036065743921
 20
82.571181721335392
 11
180.63800203011988
 21
83.801065392142277
  0
LINE
  8
_0-8_______________
  6
CONTINUOUS
 62
  152
 10
181.47207414315699
 20
81.289468235617619
 11
182.70195924447535
 21
81.737109608298283
  0
LINE
  8
_0-8_______________
  6
CONTINUOUS
 62
  152
 10
188.8697448890066
 20
88.68714112723444
 11
188.42210542367457
 21
87.457257218008976
  0
LINE
  8
_0-8_______________
  6
CONTINUOUS
 62
  152
 10
187.58803331063746
 20
89.968853897696476
 11
186.3581482093191
 21
89.521212763434391
  0
LINE
  8
_0-8_______________
  6
CONTINUOUS
 62
  152
 10
188.8697448890066
 20
82.571181721335392
 11
188.42210542367457
 21
83.801065392142277
  0
LINE
  8
_0-8_______________
  6
CONTINUOUS
 62
  152
 10
187.58803331063746
 20
81.289468235617619
 11
186.3581482093191
 21
81.737109608298283
  0
ARC
  8
_0-8_______________
  6
CONTINUOUS
 62
  152
 10
152.03005372689722
 20
90.129161305075627
 40
1.5
 50
90
 51
180
  0
ARC
  8
_0-8_______________
  6
CONTINUOUS
 62
  152
 10
189.03005372689722
 20
90.129161305075627
 40
1.5
 50
0
 51
90
  0
ARC
  8
_0-8_______________
  6
CONTINUOUS
 62
  152
 10
153.13005363152979
 20
89.029161400443058
 40
1
 50
69.99998474121098
 51
199.99998474121099
  0
ARC
  8
_0-8_______________
  6
CONTINUOUS
 62
  152
 10
153.13005363152979
 20
82.229161686545353
 40
1
 50
160.00000000000003
 51
290
  0
ARC
  8
_0-8_______________
  6
CONTINUOUS
 62
  152
 10
159.9300533454275
 20
89.029161400443058
 40
1
 50
340
 51
109.99999999999996
  0
ARC
  8
_0-8_______________
  6
CONTINUOUS
 62
  152
 10
159.9300533454275
 20
82.229161686545353
 40
1
 50
249.99998474121094
 51
19.999984741210955
  0
ARC
  8
_0-8_______________
  6
CONTINUOUS
 62
  152
 10
156.53005372689722
 20
85.629161305075627
 40
4.3000001907348633
 50
154.84056091308594
 51
205.159423828125
  0
ARC
  8
_0-8_______________
  6
CONTINUOUS
 62
  152
 10
156.53005372689722
 20
85.629161305075627
 40
4.3000001907348633
 50
64.840560913085966
 51
115.15942382812504
  0
ARC
  8
_0-8_______________
  6
CONTINUOUS
 62
  152
 10
156.53005372689722
 20
85.629161305075627
 40
4.3000001907348633
 50
244.84056091308597
 51
295.15942382812506
  0
ARC
  8
_0-8_______________
  6
CONTINUOUS
 62
  152
 10
156.53005372689722
 20
85.629161305075627
 40
4.3000001907348633
 50
334.84056091308594
 51
25.159423828124975
  0
ARC
  8
_0-8_______________
  6
CONTINUOUS
 62
  152
 10
181.13005410836695
 20
89.029161400443058
 40
1
 50
69.99998474121098
 51
199.99998474121099
  0
ARC
  8
_0-8_______________
  6
CONTINUOUS
 62
  152
 10
181.13005410836695
 20
82.229161686545353
 40
1
 50
160.00000000000003
 51
290
  0
ARC
  8
_0-8_______________
  6
CONTINUOUS
 62
  152
 10
187.93005525277613
 20
89.029161400443058
 40
1
 50
340
 51
109.99999999999996
  0
ARC
  8
_0-8_______________
  6
CONTINUOUS
 62
  152
 10
187.93005525277613
 20
82.229161686545353
 40
1
 50
249.99998474121094
 51
19.999984741210955
  0
ARC
  8
_0-8_______________
  6
CONTINUOUS
 62
  152
 10
184.53005372689722
 20
85.629161305075627
 40
4.3000001907348633
 50
154.84056091308594
 51
205.159423828125
  0
ARC
  8
_0-8_______________
  6
CONTINUOUS
 62
  152
 10
184.53005372689722
 20
85.629161305075627
 40
4.3000001907348633
 50
64.840560913085966
 51
115.15942382812504
  0
ARC
  8
_0-8_______________
  6
CONTINUOUS
 62
  152
 10
184.53005372689722
 20
85.629161305075627
 40
4.3000001907348633
 50
244.84056091308597
 51
295.15942382812506
  0
ARC
  8
_0-8_______________
  6
CONTINUOUS
 62
  152
 10
184.53005372689722
 20
85.629161305075627
 40
4.3000001907348633
 50
334.84056091308594
 51
25.159423828124975
  0
LINE
  8
_0-8_______________
  6
CONTINUOUS
 62
  152
 10
165.4300533454275
 20
89.229160102187961
 11
164.83005312019623
 21
88.029161400443058
  0
LINE
  8
_0-8_______________
  6
CONTINUOUS
 62
  152
 10
165.4300533454275
 20
89.229160102187961
 11
165.4300533454275
 21
91.629161305075627
  0
LINE
  8
_0-8_______________
  6
CONTINUOUS
 62
  152
 10
152.03005372689722
 20
91.629161305075627
 11
165.4300533454275
 21
91.629161305075627
  0
LINE
  8
_0-8_______________
  6
CONTINUOUS
 62
  152
 10
164.83005312019623
 20
88.029161400443058
 11
162.53005372689722
 21
88.029161400443058
  0
LINE
  8
_0-8_______________
  6
CONTINUOUS
 62
  152
 10
162.53005372689722
 20
88.029161400443058
 11
162.53005372689722
 21
83.129161305075627
  0
LINE
  8
_0-8_______________
  6
CONTINUOUS
 62
  152
 10
162.53005372689722
 20
83.129161305075627
 11
164.03005372689722
 21
81.629161305075627
  0
LINE
  8
_0-8_______________
  6
CONTINUOUS
 62
  152
 10
164.03005372689722
 20
81.629161305075627
 11
177.03005372689722
 21
81.629161305075627
  0
LINE
  8
_0-8_______________
  6
CONTINUOUS
 62
  152
 10
177.03005372689722
 20
81.629161305075627
 11
178.53005372689722
 21
83.129161305075627
  0
LINE
  8
_0-8_______________
  6
CONTINUOUS
 62
  152
 10
178.53005372689722
 20
83.129161305075627
 11
178.53005372689722
 21
88.029161400443058
  0
LINE
  8
_0-8_______________
  6
CONTINUOUS
 62
  152
 10
178.53005372689722
 20
88.029161400443058
 11
176.23005433359822
 21
88.029161400443058
  0
LINE
  8
_0-8_______________
  6
CONTINUOUS
 62
  152
 10
176.23005433359822
 20
88.029161400443058
 11
175.63005410836695
 21
89.229160102187961
  0
LINE
  8
_0-8_______________
  6
CONTINUOUS
 62
  152
 10
189.03005372689722
 20
91.629161305075627
 11
175.63005410836695
 21
91.629161305075627
  0
LINE
  8
_0-8_______________
  6
CONTINUOUS
 62
  152
 10
175.63005410836695
 20
89.229160102187961
 11
175.63005410836695
 21
91.629161305075627
  0
LINE
  8
_0-8_______________
  6
CONTINUOUS
 62
  152
 10
190.53005372689722
 20
90.129161305075627
 11
190.53005372689722
 21
76.729161686545353
  0
LINE
  8
_0-8_______________
  6
CONTINUOUS
 62
  152
 10
190.53005372689722
 20
76.729161686545353
 11
188.13005220101832
 21
76.729161686545353
  0
LINE
  8
_0-8_______________
  6
CONTINUOUS
 62
  152
 10
188.13005220101832
 20
76.729161686545353
 11
186.93005525277613
 21
77.329160160666447
  0
LINE
  8
_0-8_______________
  6
CONTINUOUS
 62
  152
 10
186.93005525277613
 20
77.329160160666447
 11
186.93005525277613
 21
79.629161305075627
  0
LINE
  8
_0-8_______________
  6
CONTINUOUS
 62
  152
 10
186.93005525277613
 20
79.629161305075627
 11
182.03005372689722
 21
79.629161305075627
  0
LINE
  8
_0-8_______________
  6
CONTINUOUS
 62
  152
 10
182.03005372689722
 20
79.629161305075627
 11
180.53005372689722
 21
78.129161305075627
  0
LINE
  8
_0-8_______________
  6
CONTINUOUS
 62
  152
 10
180.53005372689722
 20
78.129161305075627
 11
180.53005372689722
 21
65.129161305075627
  0
LINE
  8
_0-8_______________
  6
CONTINUOUS
 62
  152
 10
186.93005525277613
 20
65.929162449484807
 11
188.13005220101832
 21
66.5291609236059
  0
LINE
  8
_0-8_______________
  6
CONTINUOUS
 62
  152
 10
160.53005372689722
 20
65.129161305075627
 11
160.53005372689722
 21
78.129161305075627
  0
LINE
  8
_0-8_______________
  6
CONTINUOUS
 62
  152
 10
160.53005372689722
 20
78.129161305075627
 11
159.03005372689722
 21
79.629161305075627
  0
LINE
  8
_0-8_______________
  6
CONTINUOUS
 62
  152
 10
159.03005372689722
 20
79.629161305075627
 11
154.13005363152979
 21
79.629161305075627
  0
LINE
  8
_0-8_______________
  6
CONTINUOUS
 62
  152
 10
154.13005363152979
 20
79.629161305075627
 11
154.13005363152979
 21
77.329161911776396
  0
LINE
  8
_0-8_______________
  6
CONTINUOUS
 62
  152
 10
154.13005363152979
 20
77.329161911776396
 11
152.93005492978455
 21
76.729161686545353
  0
LINE
  8
_0-8_______________
  6
CONTINUOUS
 62
  152
 10
150.53005372689722
 20
90.129161305075627
 11
150.53005372689722
 21
76.729161686545353
  0
LINE
  8
_0-8_______________
  6
CONTINUOUS
 62
  152
 10
152.93005492978455
 20
76.729161686545353
 11
150.53005372689722
 21
76.729161686545353
  0
LINE
  8
_0-8_______________
  6
CONTINUOUS
 62
  152
 10
163.03005372689722
 20
79.5291609236059
 11
163.03005372689722
 21
77.592151969766519
  0
LINE
  8
_0-8_______________
  6
CONTINUOUS
 62
  152
 10
163.03005372689722
 20
77.592151969766519
 11
166.4300533454275
 21
75.629161401187957
  0
LINE
  8
_0-8_______________
  6
CONTINUOUS
 62
  152
 10
166.4300533454275
 20
75.629161401187957
 11
166.4300533454275
 21
67.629162244850932
  0
LINE
  8
_0-8_______________
  6
CONTINUOUS
 62
  152
 10
174.63005410836695
 20
67.629162244850932
 11
174.63005410836695
 21
75.629161401187957
  0
LINE
  8
_0-8_______________
  6
CONTINUOUS
 62
  152
 10
163.03005372689722
 20
79.5291609236059
 11
178.03005372689722
 21
79.5291609236059
  0
LINE
  8
_0-8_______________
  6
CONTINUOUS
 62
  152
 10
174.63005410836695
 20
75.629161401187957
 11
178.03005372689722
 21
77.592151969766519
  0
LINE
  8
_0-8_______________
  6
CONTINUOUS
 62
  152
 10
178.03005372689722
 20
77.592151969766519
 11
178.03005372689722
 21
79.5291609236059
  0
LINE
  8
_0-8_______________
  6
CONTINUOUS
 62
  152
 10
152.19036113427637
 20
60.687140888815861
 11
152.63800226853846
 21
59.457255787497502
  0
LINE
  8
_0-8_______________
  6
CONTINUOUS
 62
  152
 10
152.19036113427637
 20
54.571181721335392
 11
152.63800226853846
 21
55.801066822653752
  0
LINE
  8
_0-8_______________
  6
CONTINUOUS
 62
  152
 10
153.47207390473841
 20
53.289470142966252
 11
154.70195781396387
 21
53.737109608298283
  0
LINE
  8
_0-8_______________
  6
CONTINUOUS
 62
  152
 10
160.86974679635523
 20
60.687140888815861
 11
160.42210542367457
 21
59.457255787497502
  0
LINE
  8
_0-8_______________
  6
CONTINUOUS
 62
  152
 10
160.86974679635523
 20
54.571181721335392
 11
160.42210542367457
 21
55.801066822653752
  0
LINE
  8
_0-8_______________
  6
CONTINUOUS
 62
  152
 10
159.58803331063746
 20
53.289470142966252
 11
158.35814963983057
 21
53.737109608298283
  0
ARC
  8
_0-8_______________
  6
CONTINUOUS
 62
  152
 10
153.13005363152979
 20
61.0291609236059
 40
1
 50
69.99998474121098
 51
199.99998474121099
  0
ARC
  8
_0-8_______________
  6
CONTINUOUS
 62
  152
 10
153.13005363152979
 20
54.229159779196721
 40
1
 50
160.00000000000003
 51
290
  0
ARC
  8
_0-8_______________
  6
CONTINUOUS
 62
  152
 10
159.9300533454275
 20
54.229159779196721
 40
1
 50
249.99998474121094
 51
19.999984741210955
  0
ARC
  8
_0-8_______________
  6
CONTINUOUS
 62
  152
 10
156.53005372689722
 20
57.629161305075627
 40
4.3000001907348633
 50
154.84056091308594
 51
205.159423828125
  0
ARC
  8
_0-8_______________
  6
CONTINUOUS
 62
  152
 10
156.53005372689722
 20
57.629161305075627
 40
4.3000001907348633
 50
244.84056091308597
 51
295.15942382812506
  0
ARC
  8
_0-8_______________
  6
CONTINUOUS
 62
  152
 10
156.53005372689722
 20
57.629161305075627
 40
4.3000001907348633
 50
334.84056091308594
 51
25.159423828124975
  0
ARC
  8
_0-8_______________
  6
CONTINUOUS
 62
  152
 10
159.9300533454275
 20
61.0291609236059
 40
1
 50
340
 51
109.99999999999996
  0
LINE
  8
_0-8_______________
  6
CONTINUOUS
 62
  152
 10
153.47207390473841
 20
61.968854374533635
 11
154.70195781396387
 21
61.521213001852971
  0
LINE
  8
_0-8_______________
  6
CONTINUOUS
 62
  152
 10
159.58803331063746
 20
61.968854374533635
 11
158.35814963983057
 21
61.521213001852971
  0
ARC
  8
_0-8_______________
  6
CONTINUOUS
 62
  152
 10
156.53005372689722
 20
57.629161305075627
 40
4.3000001907348633
 50
64.840560913085966
 51
115.15942382812504
  0
ARC
  8
_0-8_______________
  6
CONTINUOUS
 62
  152
 10
152.03005372689722
 20
53.129161305075627
 40
1.5
 50
180
 51
270
  0
LINE
  8
_0-8_______________
  6
CONTINUOUS
 62
  152
 10
152.03005372689722
 20
51.629161305075627
 11
165.4300533454275
 21
51.629161305075627
  0
LINE
  8
_0-8_______________
  6
CONTINUOUS
 62
  152
 10
162.53005372689722
 20
60.129161305075627
 11
162.53005372689722
 21
55.229159779196721
  0
LINE
  8
_0-8_______________
  6
CONTINUOUS
 62
  152
 10
164.03005372689722
 20
61.629161305075627
 11
162.53005372689722
 21
60.129161305075627
  0
LINE
  8
_0-8_______________
  6
CONTINUOUS
 62
  152
 10
162.53005372689722
 20
55.229159779196721
 11
164.8300548713064
 21
55.229159779196721
  0
LINE
  8
_0-8_______________
  6
CONTINUOUS
 62
  152
 10
164.8300548713064
 20
55.229159779196721
 11
165.4300533454275
 21
54.029162830954533
  0
LINE
  8
_0-8_______________
  6
CONTINUOUS
 62
  152
 10
165.4300533454275
 20
54.029162830954533
 11
165.4300533454275
 21
51.629161305075627
  0
LINE
  8
_0-8_______________
  6
CONTINUOUS
 62
  152
 10
175.63005410836695
 20
54.029162830954533
 11
176.23005258248804
 21
55.229159779196721
  0
LINE
  8
_0-8_______________
  6
CONTINUOUS
 62
  152
 10
175.63005410836695
 20
51.629161305075627
 11
175.63005410836695
 21
54.029162830954533
  0
LINE
  8
_0-8_______________
  6
CONTINUOUS
 62
  152
 10
176.23005258248804
 20
55.229159779196721
 11
178.53005372689722
 21
55.229159779196721
  0
LINE
  8
_0-8_______________
  6
CONTINUOUS
 62
  152
 10
178.53005372689722
 20
55.229159779196721
 11
178.53005372689722
 21
60.129161305075627
  0
LINE
  8
_0-8_______________
  6
CONTINUOUS
 62
  152
 10
178.53005372689722
 20
60.129161305075627
 11
177.03005372689722
 21
61.629161305075627
  0
LINE
  8
_0-8_______________
  6
CONTINUOUS
 62
  152
 10
180.19036065743921
 20
60.687140888815861
 11
180.63800203011988
 21
59.457255787497502
  0
LINE
  8
_0-8_______________
  6
CONTINUOUS
 62
  152
 10
180.19036065743921
 20
54.571181721335392
 11
180.63800203011988
 21
55.801066822653752
  0
LINE
  8
_0-8_______________
  6
CONTINUOUS
 62
  152
 10
181.47207414315699
 20
53.289470142966252
 11
182.70195924447535
 21
53.737109608298283
  0
LINE
  8
_0-8_______________
  6
CONTINUOUS
 62
  152
 10
188.8697448890066
 20
60.687140888815861
 11
188.42210542367457
 21
59.457255787497502
  0
LINE
  8
_0-8_______________
  6
CONTINUOUS
 62
  152
 10
188.8697448890066
 20
54.571181721335392
 11
188.42210542367457
 21
55.801066822653752
  0
LINE
  8
_0-8_______________
  6
CONTINUOUS
 62
  152
 10
187.58803331063746
 20
53.289470142966252
 11
186.3581482093191
 21
53.737109608298283
  0
ARC
  8
_0-8_______________
  6
CONTINUOUS
 62
  152
 10
181.13005410836695
 20
61.0291609236059
 40
1
 50
69.99998474121098
 51
199.99998474121099
  0
ARC
  8
_0-8_______________
  6
CONTINUOUS
 62
  152
 10
181.13005410836695
 20
54.229159779196721
 40
1
 50
160.00000000000003
 51
290
  0
ARC
  8
_0-8_______________
  6
CONTINUOUS
 62
  152
 10
187.93005525277613
 20
61.0291609236059
 40
1
 50
340
 51
109.99999999999996
  0
ARC
  8
_0-8_______________
  6
CONTINUOUS
 62
  152
 10
187.93005525277613
 20
54.229159779196721
 40
1
 50
249.99998474121094
 51
19.999984741210955
  0
ARC
  8
_0-8_______________
  6
CONTINUOUS
 62
  152
 10
184.53005372689722
 20
57.629161305075627
 40
4.3000001907348633
 50
154.84056091308594
 51
205.159423828125
  0
ARC
  8
_0-8_______________
  6
CONTINUOUS
 62
  152
 10
184.53005372689722
 20
57.629161305075627
 40
4.3000001907348633
 50
244.84056091308597
 51
295.15942382812506
  0
ARC
  8
_0-8_______________
  6
CONTINUOUS
 62
  152
 10
184.53005372689722
 20
57.629161305075627
 40
4.3000001907348633
 50
334.84056091308594
 51
25.159423828124975
  0
LINE
  8
_0-8_______________
  6
CONTINUOUS
 62
  152
 10
181.47207414315699
 20
61.968854374533635
 11
182.70195924447535
 21
61.521213001852971
  0
LINE
  8
_0-8_______________
  6
CONTINUOUS
 62
  152
 10
187.58803331063746
 20
61.968854374533635
 11
186.3581482093191
 21
61.521213001852971
  0
ARC
  8
_0-8_______________
  6
CONTINUOUS
 62
  152
 10
184.53005372689722
 20
57.629161305075627
 40
4.3000001907348633
 50
64.840560913085966
 51
115.15942382812504
  0
ARC
  8
_0-8_______________
  6
CONTINUOUS
 62
  152
 10
189.03005372689722
 20
53.129161305075627
 40
1.5
 50
270
 51
0
  0
LINE
  8
_0-8_______________
  6
CONTINUOUS
 62
  152
 10
190.53005372689722
 20
53.129161305075627
 11
190.53005372689722
 21
66.5291609236059
  0
LINE
  8
_0-8_______________
  6
CONTINUOUS
 62
  152
 10
188.13005220101832
 20
66.5291609236059
 11
190.53005372689722
 21
66.5291609236059
  0
LINE
  8
_0-8_______________
  6
CONTINUOUS
 62
  152
 10
150.53005372689722
 20
66.5291609236059
 11
152.93005492978455
 21
66.5291609236059
  0
LINE
  8
_0-8_______________
  6
CONTINUOUS
 62
  152
 10
150.53005372689722
 20
53.129161305075627
 11
150.53005372689722
 21
66.5291609236059
  0
LINE
  8
_0-8_______________
  6
CONTINUOUS
 62
  152
 10
186.93005525277613
 20
63.629161305075627
 11
186.93005525277613
 21
65.929162449484807
  0
LINE
  8
_0-8_______________
  6
CONTINUOUS
 62
  152
 10
182.03005372689722
 20
63.629161305075627
 11
186.93005525277613
 21
63.629161305075627
  0
LINE
  8
_0-8_______________
  6
CONTINUOUS
 62
  152
 10
180.53005372689722
 20
65.129161305075627
 11
182.03005372689722
 21
63.629161305075627
  0
LINE
  8
_0-8_______________
  6
CONTINUOUS
 62
  152
 10
159.03005372689722
 20
63.629161305075627
 11
160.53005372689722
 21
65.129161305075627
  0
LINE
  8
_0-8_______________
  6
CONTINUOUS
 62
  152
 10
154.13005363152979
 20
63.629161305075627
 11
159.03005372689722
 21
63.629161305075627
  0
LINE
  8
_0-8_______________
  6
CONTINUOUS
 62
  152
 10
154.13005363152979
 20
65.929160698374858
 11
154.13005363152979
 21
63.629161305075627
  0
LINE
  8
_0-8_______________
  6
CONTINUOUS
 62
  152
 10
152.93005492978455
 20
66.5291609236059
 11
154.13005363152979
 21
65.929160698374858
  0
LINE
  8
_0-8_______________
  6
CONTINUOUS
 62
  152
 10
163.03005372689722
 20
63.729161686545353
 11
178.03005372689722
 21
63.729161686545353
  0
LINE
  8
_0-8_______________
  6
CONTINUOUS
 62
  152
 10
163.03005372689722
 20
65.666170558171416
 11
163.03005372689722
 21
63.729161686545353
  0
LINE
  8
_0-8_______________
  6
CONTINUOUS
 62
  152
 10
166.4300533454275
 20
67.629162244850932
 11
163.03005372689722
 21
65.666170558171416
  0
LINE
  8
_0-8_______________
  6
CONTINUOUS
 62
  152
 10
178.03005372689722
 20
65.666170558171416
 11
174.63005410836695
 21
67.629162244850932
  0
LINE
  8
_0-8_______________
  6
CONTINUOUS
 62
  152
 10
178.03005372689722
 20
63.729161686545353
 11
178.03005372689722
 21
65.666170558171416
  0
LINE
  8
_0-8_______________
  6
CONTINUOUS
 62
  152
 10
177.03005372689722
 20
61.629161305075627
 11
164.03005372689722
 21
61.629161305075627
  0
LINE
  8
_0-8_______________
  6
CONTINUOUS
 62
  152
 10
189.03005372689722
 20
51.629161305075627
 11
175.63005410836695
 21
51.629161305075627
  0
ENDSEC
  0
EOF
