  0
SECTION
  2
HEADER
  9
$ACADVER
  1
AC1009
  9
$INSBASE
 10
0
 20
0
 30
0
  9
$EXTMIN
 10
0
 20
0
  9
$EXTMAX
 10
297
 20
210
  9
$LIMMIN
 10
0
 20
0
  9
$LIMMAX
 10
297
 20
210
  9
$LTSCALE
 40
1
  0
ENDSEC
  0
SECTION
  2
TABLES
  0
TABLE
  2
LTYPE
 70
     9
  0
LTYPE
  2
CONTINUOUS
 70
    64
  3
実線
 72
    65
 73
     0
 40
0.0
  0
LTYPE
  2
DASHED1
 70
    64
  3
--  --  --  --  --  --  --  --  
 72
    65
 73
     2
 40
2.5
 49
1.25
 49
-1.25
  0
LTYPE
  2
DASHED2
 70
    64
  3
----    ----    ----    ----    
 72
    65
 73
     2
 40
5.0
 49
2.5
 49
-2.5
  0
LTYPE
  2
DASHED3
 70
    64
  3
------  ------  ------  ------  
 72
    65
 73
     2
 40
5.0
 49
3.75
 49
-1.25
  0
LTYPE
  2
CENTER1
 70
    64
  3
----- - ----- - ----- - ----- - 
 72
    65
 73
     4
 40
10.0
 49
6.25
 49
-1.25
 49
1.25
 49
-1.25
  0
LTYPE
  2
CENTER2
 70
    64
  3
----------  --  ----------  --  
 72
    65
 73
     4
 40
20.0
 49
12.5
 49
-2.5
 49
2.5
 49
-2.5
  0
LTYPE
  2
PHANTOM1
 70
    64
  3
--- - - --- - - --- - - --- - - 
 72
    65
 73
     6
 40
10.0
 49
3.25
 49
-1.25
 49
1.25
 49
-1.25
 49
1.25
 49
-1.25
  0
LTYPE
  2
PHANTOM2
 70
    64
  3
--------  -  -  --------  -  -  
 72
    65
 73
     6
 40
20.0
 49
10.0
 49
-2.5
 49
1.25
 49
-2.5
 49
1.25
 49
-2.5
  0
LTYPE
  2
DOT
 70
    64
  3
-   -   -   -   -   -   -   -   
 72
    65
 73
     2
 40
2.5
 49
0.625
 49
-1.875
  0
LTYPE
  2
DUMMY
 70
    64
  3
ダミー
 72
    65
 73
     0
 40
0.0
  0
LTYPE
  2
RAND1
 70
    64
  3
ランダム線1
 72
    65
 73
     4
 40
10.0
 49
1.0
 49
-2.0
 49
3.0
 49
-4.0
  0
LTYPE
  2
RAND2
 70
    64
  3
ランダム線2
 72
    65
 73
     4
 40
14.0
 49
2.0
 49
-3.0
 49
4.0
 49
-5.0
  0
LTYPE
  2
RAND3
 70
    64
  3
ランダム線3
 72
    65
 73
     4
 40
18.0
 49
3.0
 49
-4.0
 49
5.0
 49
-6.0
  0
LTYPE
  2
RAND4
 70
    64
  3
ランダム線4
 72
    65
 73
     4
 40
22.0
 49
4.0
 49
-5.0
 49
6.0
 49
-7.0
  0
LTYPE
  2
RAND5
 70
    64
  3
ランダム線5
 72
    65
 73
     4
 40
26.0
 49
5.0
 49
-6.0
 49
7.0
 49
-8.0
  0
LTYPE
  2
LONG1
 70
    64
  3
----------  --  ----------  --  
 72
    65
 73
     4
 40
40.0
 49
32.5
 49
-2.5
 49
2.5
 49
-2.5
  0
LTYPE
  2
LONG2
 70
    64
  3
--------  -  -  --------  -  -  
 72
    65
 73
     6
 40
40.0
 49
30.0
 49
-2.5
 49
1.25
 49
-2.5
 49
1.25
 49
-2.5
  0
LTYPE
  2
LONG3
 70
    64
  3
+++++++++++++++..+++++++++++++++
 72
    65
 73
     2
 40
40.0
 49
37.5
 49
-2.5
  0
LTYPE
  2
LONG4
 70
    64
  3
+++++++++++++++..+++++++++++++++
 72
    65
 73
     2
 40
80.0
 49
75.0
 49
-5.0
  0
LTYPE
  2
LONG5
 70
    64
  3
----------  --  ----------  --  
 72
    65
 73
     4
 40
60.0
 49
37.5
 49
-7.5
 49
7.5
 49
-7.5
  0
LTYPE
  2
dashed
 70
   64
  3
-------   -------------   ------
 72
   65
 73
    2
 40
7.5
 49
6
 49
-1.5
  0
LTYPE
  2
dashed_spaced
 70
   64
  3
----        --------        ----
 72
   65
 73
    2
 40
12
 49
6
 49
-6
  0
LTYPE
  2
long_dashed_dotted
 70
   64
  3
------------- --- --------------
 72
   65
 73
    4
 40
15.25
 49
12
 49
-1.5
 49
0.25
 49
-1.5
  0
LTYPE
  2
long_dashed_double-dotted
 70
   64
  3
----------- --- --- ------------
 72
   65
 73
    6
 40
17
 49
12
 49
-1.5
 49
0.25
 49
-1.5
 49
0.25
 49
-1.5
  0
LTYPE
  2
long_dashed_triplicate-dotted
 70
   64
  3
--------- --- --- --- ----------
 72
   65
 73
    8
 40
18.75
 49
12
 49
-1.5
 49
0.25
 49
-1.5
 49
0.25
 49
-1.5
 49
0.25
 49
-1.5
  0
LTYPE
  2
dotted
 70
   64
  3
   -       -       -       -    
 72
   65
 73
    2
 40
1.75
 49
0.25
 49
-1.5
  0
LTYPE
  2
chain
 70
   64
  3
-------------- -- --------------
 72
   65
 73
    4
 40
18.5
 49
12
 49
-1.5
 49
3.5
 49
-1.5
  0
LTYPE
  2
chain_double_dash
 70
   64
  3
------------ -- -- -------------
 72
   65
 73
    6
 40
23.5
 49
12
 49
-1.5
 49
3.5
 49
-1.5
 49
3.5
 49
-1.5
  0
LTYPE
  2
dashed_dotted
 70
   64
  3
-----------     -     ----------
 72
   65
 73
    4
 40
9.25
 49
6
 49
-1.5
 49
0.25
 49
-1.5
  0
LTYPE
  2
double-dashed_dotted
 70
   64
  3
------   -----------   -   -----
 72
   65
 73
    6
 40
16.75
 49
6
 49
-1.5
 49
6
 49
-1.5
 49
0.25
 49
-1.5
  0
LTYPE
  2
dashed_double-dotted
 70
   64
  3
---------    -    -    ---------
 72
   65
 73
    6
 40
11
 49
6
 49
-1.5
 49
0.25
 49
-1.5
 49
0.25
 49
-1.5
  0
LTYPE
  2
double-dashed_double-dotted
 70
   64
  3
-----   ---------   -   -   ----
 72
   65
 73
    8
 40
18.5
 49
6
 49
-1.5
 49
6
 49
-1.5
 49
0.25
 49
-1.5
 49
0.25
 49
-1.5
  0
LTYPE
  2
dashed_triplicate-dotted
 70
   64
  3
-------    -    -    -    ------
 72
   65
 73
    8
 40
12.75
 49
6
 49
-1.5
 49
0.25
 49
-1.5
 49
0.25
 49
-1.5
 49
0.25
 49
-1.5
  0
LTYPE
  2
double-dashed_triplicate-dotted
 70
   64
  3
-----  ---------  -  -  -  -----
 72
   65
 73
   10
 40
20.25
 49
6
 49
-1.5
 49
6
 49
-1.5
 49
0.25
 49
-1.5
 49
0.25
 49
-1.5
 49
0.25
 49
-1.5
  0
LTYPE
  2
undefined
 70
   64
  3
--------------------------------
 72
   65
 73
    0
 40
0
  0
ENDTAB
  0
TABLE
  2
STYLE
  5
3
100
AcDbSymbolTable
 70
     1
  0
STYLE
  5
10
100
AcDbSymbolTableRecord
100
AcDbTextStyleTableRecord
  2
STANDARD
 70
     0
 40
0.0
 41
1.0
 50
0.0
 71
     0
 42
0.2
  3
txt
  4
bigfont.shx
  0
STYLE
  5
26
100
AcDbSymbolTableRecord
100
AcDbTextStyleTableRecord
  2
TATEGAKI
 70
    68
 40
0.0
 41
1.0
 50
0.0
 71
     0
 42
1.0
  3
txt
  4
bigfont.shx
  0
ENDTAB
  0
TABLE
  2
LAYER
 70
    3
  0
LAYER
  2
_0-0_フレ__ム
 70
   64
 62
    7
  6
CONTINUOUS
  0
LAYER
  2
_0-f_集計
 70
   64
 62
    7
  6
CONTINUOUS
  0
LAYER
  2
ADD_LINE
 70
   64
 62
    7
  6
CONTINUOUS
  0
ENDTAB
  0
ENDSEC
  0
SECTION
  2
BLOCKS
  0
ENDSEC
  0
SECTION
  2
ENTITIES
  0
TEXT
  8
_0-f_集計
 62
    7
 10
3.1464375997871628
 20
3.4858135976583213
 40
4.2999999999999998
 41
0.744186046511628
 50
0
  1
CE30
  0
LINE
  8
_0-0_フレ__ム
  6
CONTINUOUS
 62
    7
 10
28.75578235376291
 20
28.8493752635585
 11
28.75578235376291
 21
31.549375263558545
  0
ARC
  8
_0-0_フレ__ム
  6
CONTINUOUS
 62
    7
 10
27.955782353762842
 20
31.549375263558659
 40
0.8000000000000966
 50
359.99999999999392
 51
89.999999999993946
  0
LINE
  8
_0-0_フレ__ム
  6
CONTINUOUS
 62
    7
 10
27.955782353762956
 20
32.349375263558727
 11
7.4557823537628565
 21
32.349375263558727
  0
ARC
  8
_0-0_フレ__ム
  6
CONTINUOUS
 62
    7
 10
7.4557823537629702
 20
31.549375263558659
 40
0.8000000000000966
 50
90.000000000006125
 51
180.00000000000611
  0
LINE
  8
_0-0_フレ__ム
  6
CONTINUOUS
 62
    7
 10
6.6557823537628451
 20
31.549375263558545
 11
6.6557823537629019
 21
28.8493752635585
  0
ARC
  8
_0-0_フレ__ム
  6
CONTINUOUS
 62
    7
 10
5.6557823537628451
 20
28.849375263558727
 40
1.0000000000000846
 50
269.99999999999341
 51
359.99999999999517
  0
LINE
  8
_0-0_フレ__ム
  6
CONTINUOUS
 62
    7
 10
5.6557823537627314
 20
27.8493752635585
 11
4.7057823537630838
 21
27.8493752635585
  0
ARC
  8
_0-0_フレ__ム
  6
CONTINUOUS
 62
    7
 10
4.705782353763027
 20
27.049375263558545
 40
0.7999999999999829
 50
89.999999999997982
 51
180
  0
LINE
  8
_0-0_フレ__ム
  6
CONTINUOUS
 62
    7
 10
3.9057823537630156
 20
27.049375263558545
 11
3.9057823537626746
 21
13.249375263558591
  0
ARC
  8
_0-0_フレ__ム
  6
CONTINUOUS
 62
    7
 10
4.9057823537626177
 20
13.249375263558591
 40
0.9999999999999856
 50
179.99999999999918
 51
270.0000000000008
  0
LINE
  8
_0-0_フレ__ム
  6
CONTINUOUS
 62
    7
 10
4.9057823537626746
 20
12.249375263558591
 11
7.6057823537626064
 21
12.249375263558591
  0
ARC
  8
_0-0_フレ__ム
  6
CONTINUOUS
 62
    7
 10
7.6057823537626632
 20
12.549375263558545
 40
0.2999999999999707
 50
269.99999999999227
 51
359.99999999999147
  0
LINE
  8
_0-0_フレ__ム
  6
CONTINUOUS
 62
    7
 10
7.9057823537626746
 20
12.549375263558545
 11
7.9057823537626746
 21
13.749375263558591
  0
ARC
  8
_0-0_フレ__ム
  6
CONTINUOUS
 62
    7
 10
8.2057823537626859
 20
13.749375263558591
 40
0.3000000000000134
 50
90.000000000000398
 51
179.99999999999963
  0
LINE
  8
_0-0_フレ__ム
  6
CONTINUOUS
 62
    7
 10
8.2057823537626291
 20
14.049375263558659
 11
8.8669279717605605
 21
14.049375263558659
  0
ARC
  8
_0-0_フレ__ム
  6
CONTINUOUS
 62
    7
 10
8.8669279717610152
 20
13.799375263558204
 40
0.2500000000004363
 50
353.62062979164426
 51
90.00000000010759
  0
ARC
  8
_0-0_フレ__ム
  6
CONTINUOUS
 62
    7
 10
10.655782353761708
 20
13.599375263557931
 40
1.5500000000004461
 50
173.62062979153541
 51
109.47122063443334
  0
ARC
  8
_0-0_フレ__ム
  6
CONTINUOUS
 62
    7
 10
10.105782353763232
 20
15.155010182169804
 40
0.1000000000004879
 50
179.99999999977254
 51
289.47122063424615
  0
LINE
  8
_0-0_フレ__ム
  6
CONTINUOUS
 62
    7
 10
10.005782353762754
 20
15.155010182170258
 11
10.005782353762754
 21
15.749375263558818
  0
ARC
  8
_0-0_フレ__ム
  6
CONTINUOUS
 62
    7
 10
10.305782353762766
 20
15.749375263558818
 40
0.2999999999999971
 50
90.000000000002672
 51
180.00000000000276
  0
LINE
  8
_0-0_フレ__ム
  6
CONTINUOUS
 62
    7
 10
10.305782353762766
 20
16.049375263558773
 11
12.705782353762743
 21
16.049375263558545
  0
ARC
  8
_0-0_フレ__ム
  6
CONTINUOUS
 62
    7
 10
12.705782353762743
 20
15.549375263558545
 40
0.5000000000000142
 50
0.0000000000016284
 51
89.999999999998352
  0
LINE
  8
_0-0_フレ__ム
  6
CONTINUOUS
 62
    7
 10
13.205782353762743
 20
15.549375263558545
 11
13.205782353762686
 21
13.249375263558591
  0
ARC
  8
_0-0_フレ__ム
  6
CONTINUOUS
 62
    7
 10
11.005782353762697
 20
13.249375263558818
 40
2.1999999999999882
 50
269.9999999999992
 51
359.99999999999704
  0
LINE
  8
_0-0_フレ__ム
  6
CONTINUOUS
 62
    7
 10
11.00578235376264
 20
11.049375263558773
 11
4.9057823537627314
 21
11.049375263558659
  0
ARC
  8
_0-0_フレ__ム
  6
CONTINUOUS
 62
    7
 10
4.9057823537627314
 20
13.249375263558818
 40
2.2000000000000881
 50
179.99999999999963
 51
269.99999999999972
  0
LINE
  8
_0-0_フレ__ム
  6
CONTINUOUS
 62
    7
 10
2.7057823537626291
 20
13.249375263558818
 11
2.7057823537630838
 21
27.049375263558545
  0
ARC
  8
_0-0_フレ__ム
  6
CONTINUOUS
 62
    7
 10
4.7057823537631407
 20
27.049375263558545
 40
2.0000000000000853
 50
89.999999999999986
 51
180
  0
LINE
  8
_0-0_フレ__ム
  6
CONTINUOUS
 62
    7
 10
4.7057823537631407
 20
29.049375263558659
 11
5.4557823537629702
 21
29.049375263558659
  0
LINE
  8
_0-0_フレ__ム
  6
CONTINUOUS
 62
    7
 10
5.4557823537629702
 20
29.049375263558659
 11
5.4557823537628565
 21
32.049375263558545
  0
LINE
  8
_0-0_フレ__ム
  6
CONTINUOUS
 62
    7
 10
5.4557823537628565
 20
32.049375263558545
 11
3.5057823537629247
 21
32.049375263558545
  0
ARC
  8
_0-0_フレ__ム
  6
CONTINUOUS
 62
    7
 10
3.5057823537630384
 20
32.849375263558727
 40
0.8000000000000682
 50
179.99999999999795
 51
269.99999999999591
  0
LINE
  8
_0-0_フレ__ム
  6
CONTINUOUS
 62
    7
 10
2.7057823537629702
 20
32.849375263558727
 11
2.7057823537629702
 21
33.249375263558818
  0
ARC
  8
_0-0_フレ__ム
  6
CONTINUOUS
 62
    7
 10
3.5057823537629247
 20
33.249375263558818
 40
0.8000000000000112
 50
89.999999999999986
 51
180
  0
LINE
  8
_0-0_フレ__ム
  6
CONTINUOUS
 62
    7
 10
3.5057823537629247
 20
34.049375263558773
 11
8.7057823537629702
 21
34.049375263558545
  0
LINE
  8
_0-0_フレ__ム
  6
CONTINUOUS
 62
    7
 10
8.7057823537629702
 20
34.049375263558545
 11
9.2610886111772288
 21
33.549375263558773
  0
LINE
  8
_0-0_フレ__ム
  6
CONTINUOUS
 62
    7
 10
9.2610886111772288
 20
33.549375263558773
 11
14.650476096348541
 21
33.549375263558773
  0
LINE
  8
_0-0_フレ__ム
  6
CONTINUOUS
 62
    7
 10
14.650476096348541
 20
33.549375263558773
 11
15.20578235376297
 21
34.049375263558545
  0
LINE
  8
_0-0_フレ__ム
  6
CONTINUOUS
 62
    7
 10
15.20578235376297
 20
34.049375263558545
 11
20.205782353762686
 21
34.049375263558773
  0
LINE
  8
_0-0_フレ__ム
  6
CONTINUOUS
 62
    7
 10
20.205782353762686
 20
34.049375263558773
 11
20.761088611177442
 21
33.549375263558545
  0
LINE
  8
_0-0_フレ__ム
  6
CONTINUOUS
 62
    7
 10
20.761088611177442
 20
33.549375263558545
 11
26.15047609634847
 21
33.549375263558545
  0
LINE
  8
_0-0_フレ__ム
  6
CONTINUOUS
 62
    7
 10
26.15047609634847
 20
33.549375263558545
 11
26.705782353762956
 21
34.049375263558545
  0
LINE
  8
_0-0_フレ__ム
  6
CONTINUOUS
 62
    7
 10
26.705782353762956
 20
34.049375263558545
 11
31.905782353762831
 21
34.049375263558773
  0
ARC
  8
_0-0_フレ__ム
  6
CONTINUOUS
 62
    7
 10
31.905782353762888
 20
33.249375263558704
 40
0.800000000000054
 50
0.0000000000030406
 51
90.00000000000307
  0
LINE
  8
_0-0_フレ__ム
  6
CONTINUOUS
 62
    7
 10
32.705782353762956
 20
33.249375263558818
 11
32.705782353762956
 21
32.849375263558727
  0
ARC
  8
_0-0_フレ__ム
  6
CONTINUOUS
 62
    7
 10
31.905782353762888
 20
32.849375263558727
 40
0.8000000000000682
 50
270.00000000000404
 51
0.0000000000020355
  0
LINE
  8
_0-0_フレ__ム
  6
CONTINUOUS
 62
    7
 10
31.905782353762888
 20
32.049375263558545
 11
29.955782353762956
 21
32.049375263558545
  0
LINE
  8
_0-0_フレ__ム
  6
CONTINUOUS
 62
    7
 10
29.955782353762956
 20
32.049375263558545
 11
29.955782353762956
 21
29.049375263558659
  0
LINE
  8
_0-0_フレ__ム
  6
CONTINUOUS
 62
    7
 10
29.955782353762956
 20
29.049375263558659
 11
30.705782353762729
 21
29.049375263558659
  0
ARC
  8
_0-0_フレ__ム
  6
CONTINUOUS
 62
    7
 10
30.705782353762729
 20
27.049375263558545
 40
2.0000000000000995
 50
0.0000000000003943
 51
90.000000000000426
  0
LINE
  8
_0-0_フレ__ム
  6
CONTINUOUS
 62
    7
 10
32.705782353762842
 20
27.049375263558545
 11
32.705782353762956
 21
13.249375263558591
  0
ARC
  8
_0-0_フレ__ム
  6
CONTINUOUS
 62
    7
 10
30.505782353762967
 20
13.249375263558591
 40
2.1999999999999456
 50
270.00000000000108
 51
0.0000000000010686
  0
LINE
  8
_0-0_フレ__ム
  6
CONTINUOUS
 62
    7
 10
30.505782353763024
 20
11.049375263558659
 11
24.405782353763229
 21
11.049375263558773
  0
ARC
  8
_0-0_フレ__ム
  6
CONTINUOUS
 62
    7
 10
24.405782353763229
 20
13.249375263558818
 40
2.1999999999999607
 50
180.00000000000219
 51
270.00000000000068
  0
LINE
  8
_0-0_フレ__ム
  6
CONTINUOUS
 62
    7
 10
22.20578235376324
 20
13.249375263558591
 11
22.205782353763126
 21
15.549375263558545
  0
ARC
  8
_0-0_フレ__ム
  6
CONTINUOUS
 62
    7
 10
22.705782353763126
 20
15.549375263558545
 40
0.5000000000000141
 50
90.000000000001606
 51
179.99999999999838
  0
LINE
  8
_0-0_フレ__ム
  6
CONTINUOUS
 62
    7
 10
22.705782353763126
 20
16.049375263558545
 11
25.105782353763047
 21
16.049375263558773
  0
ARC
  8
_0-0_フレ__ム
  6
CONTINUOUS
 62
    7
 10
25.105782353763047
 20
15.749375263558704
 40
0.3000000000000682
 50
0.0000000000108393
 51
90.000000000010871
  0
LINE
  8
_0-0_フレ__ム
  6
CONTINUOUS
 62
    7
 10
25.405782353763115
 20
15.749375263558818
 11
25.405782353763115
 21
15.155010182170258
  0
ARC
  8
_0-0_フレ__ム
  6
CONTINUOUS
 62
    7
 10
25.305782353762581
 20
15.155010182169917
 40
0.1000000000005592
 50
250.5287793657252
 51
0.0000000001984793
  0
ARC
  8
_0-0_フレ__ム
  6
CONTINUOUS
 62
    7
 10
24.755782353764104
 20
13.599375263557818
 40
1.5500000000004635
 50
70.528779365567488
 51
6.3793702084653887
  0
ARC
  8
_0-0_フレ__ム
  6
CONTINUOUS
 62
    7
 10
26.544636735764797
 20
13.799375263558318
 40
0.2500000000004238
 50
89.999999999895692
 51
186.37937020835895
  0
LINE
  8
_0-0_フレ__ム
  6
CONTINUOUS
 62
    7
 10
26.544636735765252
 20
14.049375263558659
 11
27.20578235376324
 21
14.049375263558659
  0
ARC
  8
_0-0_フレ__ム
  6
CONTINUOUS
 62
    7
 10
27.20578235376324
 20
13.749375263558591
 40
0.2999999999999971
 50
359.99999999999733
 51
89.9999999999973
  0
LINE
  8
_0-0_フレ__ム
  6
CONTINUOUS
 62
    7
 10
27.505782353763252
 20
13.749375263558591
 11
27.505782353763252
 21
12.549375263558545
  0
ARC
  8
_0-0_フレ__ム
  6
CONTINUOUS
 62
    7
 10
27.805782353763206
 20
12.549375263558545
 40
0.2999999999999686
 50
180.00000000000816
 51
270.00000000000819
  0
LINE
  8
_0-0_フレ__ム
  6
CONTINUOUS
 62
    7
 10
27.805782353763206
 20
12.249375263558591
 11
30.505782353763252
 21
12.249375263558591
  0
ARC
  8
_0-0_フレ__ム
  6
CONTINUOUS
 62
    7
 10
30.505782353763252
 20
13.249375263558591
 40
0.9999999999999849
 50
269.9999999999992
 51
0.0000000000008905
  0
LINE
  8
_0-0_フレ__ム
  6
CONTINUOUS
 62
    7
 10
31.505782353763252
 20
13.249375263558591
 11
31.505782353762797
 21
27.049375263558545
  0
ARC
  8
_0-0_フレ__ム
  6
CONTINUOUS
 62
    7
 10
30.705782353762785
 20
27.049375263558545
 40
0.8000000000000254
 50
0.0000000000030581
 51
90.000000000005087
  0
LINE
  8
_0-0_フレ__ム
  6
CONTINUOUS
 62
    7
 10
30.705782353762729
 20
27.8493752635585
 11
29.75578235376291
 21
27.8493752635585
  0
LINE
  8
_0-0_フレ__ム
  6
CONTINUOUS
 62
    7
 10
29.75578235376291
 20
27.8493752635585
 11
28.75578235376291
 21
28.8493752635585
  0
ENDSEC
  0
EOF
