  0
SECTION
  2
HEADER
  9
$ACADVER
  1
AC1009
  9
$INSBASE
 10
0
 20
0
 30
0
  9
$EXTMIN
 10
0
 20
0
  9
$EXTMAX
 10
1189
 20
841
  9
$LIMMIN
 10
0
 20
0
  9
$LIMMAX
 10
1189
 20
841
  9
$LTSCALE
 40
1
  0
ENDSEC
  0
SECTION
  2
TABLES
  0
TABLE
  2
LTYPE
 70
     9
  0
LTYPE
  2
CONTINUOUS
 70
    64
  3
実線
 72
    65
 73
     0
 40
0.0
  0
LTYPE
  2
DASHED1
 70
    64
  3
--  --  --  --  --  --  --  --  
 72
    65
 73
     2
 40
2.5
 49
1.25
 49
-1.25
  0
LTYPE
  2
DASHED2
 70
    64
  3
----    ----    ----    ----    
 72
    65
 73
     2
 40
5.0
 49
2.5
 49
-2.5
  0
LTYPE
  2
DASHED3
 70
    64
  3
------  ------  ------  ------  
 72
    65
 73
     2
 40
5.0
 49
3.75
 49
-1.25
  0
LTYPE
  2
CENTER1
 70
    64
  3
----- - ----- - ----- - ----- - 
 72
    65
 73
     4
 40
10.0
 49
6.25
 49
-1.25
 49
1.25
 49
-1.25
  0
LTYPE
  2
CENTER2
 70
    64
  3
----------  --  ----------  --  
 72
    65
 73
     4
 40
20.0
 49
12.5
 49
-2.5
 49
2.5
 49
-2.5
  0
LTYPE
  2
PHANTOM1
 70
    64
  3
--- - - --- - - --- - - --- - - 
 72
    65
 73
     6
 40
10.0
 49
3.25
 49
-1.25
 49
1.25
 49
-1.25
 49
1.25
 49
-1.25
  0
LTYPE
  2
PHANTOM2
 70
    64
  3
--------  -  -  --------  -  -  
 72
    65
 73
     6
 40
20.0
 49
10.0
 49
-2.5
 49
1.25
 49
-2.5
 49
1.25
 49
-2.5
  0
LTYPE
  2
DOT
 70
    64
  3
-   -   -   -   -   -   -   -   
 72
    65
 73
     2
 40
2.5
 49
0.625
 49
-1.875
  0
LTYPE
  2
DUMMY
 70
    64
  3
ダミー
 72
    65
 73
     0
 40
0.0
  0
LTYPE
  2
RAND1
 70
    64
  3
ランダム線1
 72
    65
 73
     4
 40
10.0
 49
1.0
 49
-2.0
 49
3.0
 49
-4.0
  0
LTYPE
  2
RAND2
 70
    64
  3
ランダム線2
 72
    65
 73
     4
 40
14.0
 49
2.0
 49
-3.0
 49
4.0
 49
-5.0
  0
LTYPE
  2
RAND3
 70
    64
  3
ランダム線3
 72
    65
 73
     4
 40
18.0
 49
3.0
 49
-4.0
 49
5.0
 49
-6.0
  0
LTYPE
  2
RAND4
 70
    64
  3
ランダム線4
 72
    65
 73
     4
 40
22.0
 49
4.0
 49
-5.0
 49
6.0
 49
-7.0
  0
LTYPE
  2
RAND5
 70
    64
  3
ランダム線5
 72
    65
 73
     4
 40
26.0
 49
5.0
 49
-6.0
 49
7.0
 49
-8.0
  0
LTYPE
  2
LONG1
 70
    64
  3
----------  --  ----------  --  
 72
    65
 73
     4
 40
40.0
 49
32.5
 49
-2.5
 49
2.5
 49
-2.5
  0
LTYPE
  2
LONG2
 70
    64
  3
--------  -  -  --------  -  -  
 72
    65
 73
     6
 40
40.0
 49
30.0
 49
-2.5
 49
1.25
 49
-2.5
 49
1.25
 49
-2.5
  0
LTYPE
  2
LONG3
 70
    64
  3
+++++++++++++++..+++++++++++++++
 72
    65
 73
     2
 40
40.0
 49
37.5
 49
-2.5
  0
LTYPE
  2
LONG4
 70
    64
  3
+++++++++++++++..+++++++++++++++
 72
    65
 73
     2
 40
80.0
 49
75.0
 49
-5.0
  0
LTYPE
  2
LONG5
 70
    64
  3
----------  --  ----------  --  
 72
    65
 73
     4
 40
60.0
 49
37.5
 49
-7.5
 49
7.5
 49
-7.5
  0
LTYPE
  2
dashed
 70
   64
  3
-------   -------------   ------
 72
   65
 73
    2
 40
7.5
 49
6
 49
-1.5
  0
LTYPE
  2
dashed_spaced
 70
   64
  3
----        --------        ----
 72
   65
 73
    2
 40
12
 49
6
 49
-6
  0
LTYPE
  2
long_dashed_dotted
 70
   64
  3
------------- --- --------------
 72
   65
 73
    4
 40
15.25
 49
12
 49
-1.5
 49
0.25
 49
-1.5
  0
LTYPE
  2
long_dashed_double-dotted
 70
   64
  3
----------- --- --- ------------
 72
   65
 73
    6
 40
17
 49
12
 49
-1.5
 49
0.25
 49
-1.5
 49
0.25
 49
-1.5
  0
LTYPE
  2
long_dashed_triplicate-dotted
 70
   64
  3
--------- --- --- --- ----------
 72
   65
 73
    8
 40
18.75
 49
12
 49
-1.5
 49
0.25
 49
-1.5
 49
0.25
 49
-1.5
 49
0.25
 49
-1.5
  0
LTYPE
  2
dotted
 70
   64
  3
   -       -       -       -    
 72
   65
 73
    2
 40
1.75
 49
0.25
 49
-1.5
  0
LTYPE
  2
chain
 70
   64
  3
-------------- -- --------------
 72
   65
 73
    4
 40
18.5
 49
12
 49
-1.5
 49
3.5
 49
-1.5
  0
LTYPE
  2
chain_double_dash
 70
   64
  3
------------ -- -- -------------
 72
   65
 73
    6
 40
23.5
 49
12
 49
-1.5
 49
3.5
 49
-1.5
 49
3.5
 49
-1.5
  0
LTYPE
  2
dashed_dotted
 70
   64
  3
-----------     -     ----------
 72
   65
 73
    4
 40
9.25
 49
6
 49
-1.5
 49
0.25
 49
-1.5
  0
LTYPE
  2
double-dashed_dotted
 70
   64
  3
------   -----------   -   -----
 72
   65
 73
    6
 40
16.75
 49
6
 49
-1.5
 49
6
 49
-1.5
 49
0.25
 49
-1.5
  0
LTYPE
  2
dashed_double-dotted
 70
   64
  3
---------    -    -    ---------
 72
   65
 73
    6
 40
11
 49
6
 49
-1.5
 49
0.25
 49
-1.5
 49
0.25
 49
-1.5
  0
LTYPE
  2
double-dashed_double-dotted
 70
   64
  3
-----   ---------   -   -   ----
 72
   65
 73
    8
 40
18.5
 49
6
 49
-1.5
 49
6
 49
-1.5
 49
0.25
 49
-1.5
 49
0.25
 49
-1.5
  0
LTYPE
  2
dashed_triplicate-dotted
 70
   64
  3
-------    -    -    -    ------
 72
   65
 73
    8
 40
12.75
 49
6
 49
-1.5
 49
0.25
 49
-1.5
 49
0.25
 49
-1.5
 49
0.25
 49
-1.5
  0
LTYPE
  2
double-dashed_triplicate-dotted
 70
   64
  3
-----  ---------  -  -  -  -----
 72
   65
 73
   10
 40
20.25
 49
6
 49
-1.5
 49
6
 49
-1.5
 49
0.25
 49
-1.5
 49
0.25
 49
-1.5
 49
0.25
 49
-1.5
  0
LTYPE
  2
undefined
 70
   64
  3
--------------------------------
 72
   65
 73
    0
 40
0
  0
ENDTAB
  0
TABLE
  2
STYLE
  5
3
100
AcDbSymbolTable
 70
     1
  0
STYLE
  5
10
100
AcDbSymbolTableRecord
100
AcDbTextStyleTableRecord
  2
STANDARD
 70
     0
 40
0.0
 41
1.0
 50
0.0
 71
     0
 42
0.2
  3
txt
  4
bigfont.shx
  0
STYLE
  5
26
100
AcDbSymbolTableRecord
100
AcDbTextStyleTableRecord
  2
TATEGAKI
 70
    68
 40
0.0
 41
1.0
 50
0.0
 71
     0
 42
1.0
  3
txt
  4
bigfont.shx
  0
ENDTAB
  0
TABLE
  2
LAYER
 70
    3
  0
LAYER
  2
_0-0_
 70
   64
 62
    7
  6
CONTINUOUS
  0
LAYER
  2
_0-1_
 70
   64
 62
    7
  6
CONTINUOUS
  0
LAYER
  2
ADD_LINE
 70
   64
 62
    7
  6
CONTINUOUS
  0
ENDTAB
  0
ENDSEC
  0
SECTION
  2
BLOCKS
  0
ENDSEC
  0
SECTION
  2
ENTITIES
  0
ARC
  8
_0-0_
  6
CONTINUOUS
 62
    7
 10
30.81919775931874
 20
32.107847889077107
 40
17.300000000000001
 50
10.685754202634222
 51
41.2842887166873
  0
ARC
  8
_0-0_
  6
CONTINUOUS
 62
    7
 10
30.81919775931874
 20
32.107847889077107
 40
17.300000000000001
 50
138.71571128331516
 51
353.80936537870764
  0
LINE
  8
_0-0_
  6
CONTINUOUS
 62
    7
 10
14.319212759318816
 20
49.607847889077107
 11
14.319212759318816
 21
56.607847889077107
  0
LINE
  8
_0-0_
  6
CONTINUOUS
 62
    7
 10
15.819212023612408
 20
56.357764501223642
 11
15.319182023611802
 21
57.707835501223485
  0
LINE
  8
_0-0_
  6
CONTINUOUS
 62
    7
 10
15.319212759318816
 20
57.70785191355651
 11
15.319212759318816
 21
48.507849889076965
  0
LINE
  8
_0-0_
  6
CONTINUOUS
 62
    7
 10
15.319182759318664
 20
48.50796288806157
 11
15.819212759319271
 21
49.858033888061414
  0
LINE
  8
_0-0_
  6
CONTINUOUS
 62
    7
 10
15.819212759318816
 20
44.252412516916024
 11
15.819212759318816
 21
63.162013535483652
  0
LINE
  8
_0-0_
  6
CONTINUOUS
 62
    7
 10
15.819212759318816
 20
63.162013535483652
 11
17.81919775931874
 21
63.162013535483652
  0
LINE
  8
_0-0_
  6
CONTINUOUS
 62
    7
 10
17.81919775931874
 20
63.407846540011064
 11
17.81919775931874
 21
42.807848889077263
  0
LINE
  8
_0-0_
  6
CONTINUOUS
 62
    7
 10
19.281172759318679
 20
40.881571889077236
 11
20.619200759318574
 21
40.507845889076975
  0
LINE
  8
_0-0_
  6
CONTINUOUS
 62
    7
 10
20.619200759318574
 20
37.107847889077107
 11
20.619200759318574
 21
69.107847889077107
  0
LINE
  8
_0-0_
  6
CONTINUOUS
 62
    7
 10
20.619200759318574
 20
69.107847889077107
 11
20.81919775931874
 21
69.107847889077107
  0
LINE
  8
_0-0_
  6
CONTINUOUS
 62
    7
 10
20.619192759318594
 20
65.707847889077016
 11
19.281164759318699
 21
65.334120889077326
  0
LINE
  8
_0-0_
  6
CONTINUOUS
 62
    7
 10
20.81919775931874
 20
75.443502889077422
 11
20.81919775931874
 21
30.772192889076791
  0
LINE
  8
_0-0_
  6
CONTINUOUS
 62
    7
 10
20.81919775931874
 20
37.107847889077107
 11
20.619200759318574
 21
37.107847889077107
  0
LINE
  8
_0-0_
  6
CONTINUOUS
 62
    7
 10
40.819197759318286
 20
42.607847889076652
 11
41.81919775931874
 21
42.607847889076652
  0
LINE
  8
_0-0_
  6
CONTINUOUS
 62
    7
 10
42.819197759318286
 20
43.607847889076652
 11
42.819197759318286
 21
62.607847889077561
  0
LINE
  8
_0-0_
  6
CONTINUOUS
 62
    7
 10
43.81919775931874
 20
63.162013535483652
 11
45.819182759318664
 21
63.162013535483652
  0
LINE
  8
_0-0_
  6
CONTINUOUS
 62
    7
 10
43.81919775931874
 20
63.162013535483652
 11
43.81919775931874
 21
43.522312396884786
  0
LINE
  8
_0-0_
  6
CONTINUOUS
 62
    7
 10
45.819182759318664
 20
42.946920536499761
 11
45.819182759318664
 21
73.099704445319162
  0
LINE
  8
_0-0_
  6
CONTINUOUS
 62
    7
 10
47.819197241190295
 20
73.016398435444785
 11
47.819197241190295
 21
43.602276872435937
  0
LINE
  8
_0-0_
  6
CONTINUOUS
 62
    7
 10
48.065707435423519
 20
43.171297849312737
 11
49.772673565085825
 21
42.167308120246503
  0
LINE
  8
_0-0_
  6
CONTINUOUS
 62
    7
 10
50.019183759318821
 20
41.736329097123303
 11
50.019183759318821
 21
26.499585118624395
  0
LINE
  8
_0-0_
  6
CONTINUOUS
 62
    7
 10
48.019183759318821
 20
29.238564025383653
 11
48.019183759318821
 21
41.080964243355425
  0
LINE
  8
_0-0_
  6
CONTINUOUS
 62
    7
 10
47.772673565085597
 20
41.511943266478625
 11
46.065692953551888
 21
42.515941513376561
  0
LINE
  8
_0-0_
  6
CONTINUOUS
 62
    7
 10
50.597933429730347
 20
40.139920086246889
 11
58.158330647704133
 21
40.139920086246889
  0
LINE
  8
_0-0_
  6
CONTINUOUS
 62
    7
 10
55.660010759318538
 20
46.638662889076727
 11
63.478368759318528
 21
33.173257889076808
  0
LINE
  8
_0-0_
  6
CONTINUOUS
 62
    7
 10
64.019183759318366
 20
31.164766889076759
 11
64.019183759318366
 21
29.164768889076981
  0
LINE
  8
_0-0_
  6
CONTINUOUS
 62
    7
 10
40.819197759318286
 20
30.772192889076791
 11
40.819197759318286
 21
75.443502889077422
  0
LINE
  8
_0-0_
  6
CONTINUOUS
 62
    7
 10
40.819197759318286
 20
63.607847889077561
 11
41.81919775931874
 21
63.607847889077561
  0
LINE
  8
_0-0_
  6
CONTINUOUS
 62
    7
 10
42.819197759318286
 20
56.357847889077107
 11
43.819197759318286
 21
56.357847889077107
  0
LINE
  8
_0-0_
  6
CONTINUOUS
 62
    7
 10
47.819197241190295
 20
56.357847889077107
 11
49.719199759318144
 21
56.357847889077107
  0
LINE
  8
_0-0_
  6
CONTINUOUS
 62
    7
 10
49.719199759318144
 20
59.107847889077107
 11
49.719199759318144
 21
47.107847889077107
  0
LINE
  8
_0-0_
  6
CONTINUOUS
 62
    7
 10
49.719199759318144
 20
47.107847889077107
 11
50.219199759318144
 21
47.107847889077107
  0
LINE
  8
_0-0_
  6
CONTINUOUS
 62
    7
 10
49.719199759318144
 20
49.857847889077107
 11
47.819197241190295
 21
49.857847889077107
  0
LINE
  8
_0-0_
  6
CONTINUOUS
 62
    7
 10
43.819197759318286
 20
49.857847889077107
 11
42.819197759318286
 21
49.857847889077107
  0
LINE
  8
_0-0_
  6
CONTINUOUS
 62
    7
 10
52.719199759318144
 20
49.607847889077107
 11
52.719199759318144
 21
56.607847889077107
  0
LINE
  8
_0-0_
  6
CONTINUOUS
 62
    7
 10
55.119196759318584
 20
57.568541889077437
 11
55.119196759318584
 21
49.107847889077107
  0
LINE
  8
_0-0_
  6
CONTINUOUS
 62
    7
 10
55.155181177284476
 20
58.103873996643301
 11
55.918917894667402
 21
59.426704794756347
  0
LINE
  8
_0-0_
  6
CONTINUOUS
 62
    7
 10
55.918917894667402
 20
59.426704794756347
 11
63.737275894667391
 21
72.892109794756266
  0
LINE
  8
_0-0_
  6
CONTINUOUS
 62
    7
 10
63.737275894667391
 20
72.892109794756266
 11
63.903387981383275
 21
74.095440761839086
  0
LINE
  8
_0-0_
  6
CONTINUOUS
 62
    7
 10
63.478368759318528
 20
73.042437889077405
 11
55.660010759318538
 21
59.577032889077486
  0
LINE
  8
_0-0_
  6
CONTINUOUS
 62
    7
 10
53.874399467158355
 20
61.538980165992029
 11
49.425701702745528
 21
61.538980165992029
  0
LINE
  8
_0-0_
  6
CONTINUOUS
 62
    7
 10
49.719199759318144
 20
59.107847889077107
 11
50.219199759318144
 21
59.107847889077107
  0
ARC
  8
_0-0_
  6
CONTINUOUS
 62
    7
 10
47.719197241190386
 20
73.016398435444785
 40
0.1
 50
0
 51
80.04872772935029
  0
ARC
  8
_0-0_
  6
CONTINUOUS
 62
    7
 10
49.519183759318821
 20
41.736329097123303
 40
0.5
 50
0
 51
59.537148218916208
  0
ARC
  8
_0-0_
  6
CONTINUOUS
 62
    7
 10
48.319197241190295
 20
43.602276872435937
 40
0.5
 50
180
 51
239.5371482189172
  0
ARC
  8
_0-0_
  6
CONTINUOUS
 62
    7
 10
47.519183759318821
 20
41.080964243355425
 40
0.5
 50
0
 51
59.537148218918283
  0
ARC
  8
_0-0_
  6
CONTINUOUS
 62
    7
 10
46.319182759318664
 20
42.946920536499761
 40
0.5
 50
180
 51
239.53714821891904
  0
ARC
  8
_0-0_
  6
CONTINUOUS
 62
    7
 10
55.247753629525505
 20
71.010584116584482
 40
9.6572445553815349
 50
24.732004757483335
 51
167.50662354833159
  0
ARC
  8
_0-0_
  6
CONTINUOUS
 62
    7
 10
30.81919775931874
 20
32.107847889077107
 40
19.299999999999986
 50
26.976710939114437
 51
29.45834584615519
  0
ARC
  8
_0-0_
  6
CONTINUOUS
 62
    7
 10
47.819197241190295
 20
53.107847889077107
 40
1.9000025181278488
 50
270
 51
90
  0
ARC
  8
_0-0_
  6
CONTINUOUS
 62
    7
 10
56.028022759318446
 20
32.118140889076926
 40
8.2264400000000002
 50
223.07754101628427
 51
346.26387799999998
  0
ARC
  8
_0-0_
  6
CONTINUOUS
 62
    7
 10
50.219199759318144
 20
49.607847889077107
 40
2.5
 50
270
 51
0
  0
ARC
  8
_0-0_
  6
CONTINUOUS
 62
    7
 10
50.219199759318144
 20
56.607847889077107
 40
2.5
 50
0
 51
90
  0
ARC
  8
_0-0_
  6
CONTINUOUS
 62
    7
 10
16.969817759318857
 20
51.013041888061593
 40
3
 50
207.92826000000002
 51
236.61914999999993
  0
ARC
  8
_0-0_
  6
CONTINUOUS
 62
    7
 10
19.81919775931874
 20
63.40784688907695
 40
2
 50
105.60568999999988
 51
180.00000999999997
  0
ARC
  8
_0-0_
  6
CONTINUOUS
 62
    7
 10
19.81919775931874
 20
42.807848889077263
 40
2
 50
179.99998999999991
 51
254.39430000000002
  0
ARC
  8
_0-0_
  6
CONTINUOUS
 62
    7
 10
60.019183759318366
 20
31.164766889076759
 40
4
 50
0
 51
30.14054299999998
  0
ARC
  8
_0-0_
  6
CONTINUOUS
 62
    7
 10
59.119196759318584
 20
48.647153889076776
 40
4
 50
180
 51
210.14054299999989
  0
ARC
  8
_0-0_
  6
CONTINUOUS
 62
    7
 10
22.81919775931874
 20
30.772192889076791
 40
2
 50
180
 51
260.50576000000001
  0
ARC
  8
_0-0_
  6
CONTINUOUS
 62
    7
 10
38.81919775931874
 20
30.772192889076791
 40
2
 50
279.49423999999993
 51
0.0000000000000127
  0
ARC
  8
_0-0_
  6
CONTINUOUS
 62
    7
 10
30.81919775931874
 20
78.607849889076874
 40
50.5
 50
260.50576000000001
 51
279.49423999999988
  0
ARC
  8
_0-0_
  6
CONTINUOUS
 62
    7
 10
30.81919775931874
 20
27.607845889077339
 40
50.5
 50
80.505760000000109
 51
99.494240000000005
  0
ARC
  8
_0-0_
  6
CONTINUOUS
 62
    7
 10
22.81919775931874
 20
75.443502889077422
 40
2
 50
99.494240000000005
 51
180.00001
  0
ARC
  8
_0-0_
  6
CONTINUOUS
 62
    7
 10
38.81919775931874
 20
75.443502889077422
 40
2
 50
0
 51
80.50576000000008
  0
ARC
  8
_0-0_
  6
CONTINUOUS
 62
    7
 10
41.81919775931874
 20
62.607847889077561
 40
1
 50
0
 51
90
  0
ARC
  8
_0-0_
  6
CONTINUOUS
 62
    7
 10
60.019183759318366
 20
75.050928889077454
 40
4
 50
329.85945700000002
 51
0
  0
ARC
  8
_0-0_
  6
CONTINUOUS
 62
    7
 10
41.81919775931874
 20
43.607847889076652
 40
1
 50
270
 51
0
  0
ARC
  8
_0-0_
  6
CONTINUOUS
 62
    7
 10
16.969817023611995
 20
55.202756501223462
 40
3
 50
123.38085000000007
 51
152.07173999999998
  0
ARC
  8
_0-0_
  6
CONTINUOUS
 62
    7
 10
59.119196759318584
 20
57.568541889077437
 40
4
 50
149.85945700000011
 51
180
  0
ARC
  8
_0-0_
  6
CONTINUOUS
 62
    7
 10
56.028022759318446
 20
31.11814188907681
 40
8.2264400000000002
 50
193.20760559869365
 51
346.26387799999998
  0
ARC
  8
_0-0_
  6
CONTINUOUS
 62
    7
 10
30.81919775931874
 20
32.107847889077107
 40
19.300000000000001
 50
141.00503808547685
 51
342.90054476873377
  0
ARC
  8
_0-0_
  6
CONTINUOUS
 62
    7
 10
46.81919000025573
 20
67.886696758088306
 40
5.3080564832198212
 50
80.048727729321016
 51
100.85908840718213
  0
LINE
  8
_0-0_
  6
CONTINUOUS
 62
    7
 10
2.866430191692416
 20
38.450592180786771
 11
2.6062771216122655
 21
67.400284850470825
  0
CIRCLE
  8
_0-0_
  6
CONTINUOUS
 62
    7
 10
9.6059943237219159
 20
67.463186948404825
 40
2.6000000000000001
  0
ARC
  8
_0-0_
  6
CONTINUOUS
 62
    7
 10
9.6059943237219159
 20
67.463186948404825
 40
7
 50
44.999989999999961
 51
180.51486899999998
  0
ARC
  8
_0-0_
  6
CONTINUOUS
 62
    7
 10
8.8661880965464661
 20
38.504508365745323
 40
6
 50
180.514869
 51
225
  0
CIRCLE
  8
_0-0_
  6
CONTINUOUS
 62
    7
 10
9.6059943237223706
 20
39.178915700942582
 40
2.6000000000000001
  0
LINE
  8
_0-0_
  6
CONTINUOUS
 62
    7
 10
12.337345410688613
 20
26.548069677364708
 11
4.6235474094271467
 21
34.261867678626004
  0
ARC
  8
_0-0_
  6
CONTINUOUS
 62
    7
 10
37.890265571184273
 20
10.89464445348068
 40
2.6000000000000001
 50
43.816584468067092
 51
346.11924930276734
  0
LINE
  8
_0-0_
  6
CONTINUOUS
 62
    7
 10
32.973216841760632
 20
5.9121982462925757
 11
25.259419547606285
 21
13.625995540446922
  0
ARC
  8
_0-0_
  6
CONTINUOUS
 62
    7
 10
37.215857528879951
 20
10.154838933411895
 40
6
 50
225
 51
269.48513100000008
  0
LINE
  8
_0-0_
  6
CONTINUOUS
 62
    7
 10
66.111634720712118
 20
3.8949272513710298
 11
37.161941343921399
 21
4.1550810285577313
  0
ARC
  8
_0-0_
  6
CONTINUOUS
 62
    7
 10
66.174536818646175
 20
10.89464445348068
 40
7
 50
269.48513100000002
 51
45.000010000000088
  0
CIRCLE
  8
_0-0_
  6
CONTINUOUS
 62
    7
 10
66.174536818646175
 20
10.89464445348068
 40
2.6000000000000001
  0
LINE
  8
_0-0_
  6
CONTINUOUS
 62
    7
 10
14.555741792027902
 20
72.412934416710641
 11
20.619200759318574
 21
66.349475449419913
  0
LINE
  8
_0-0_
  6
CONTINUOUS
 62
    7
 10
61.755573064378495
 20
25.213103144359991
 11
71.124284286951934
 21
15.844391921786496
  0
LINE
  8
_0-0_
  6
CONTINUOUS
 62
    7
 10
47.119196759318584
 20
148.41720941555138
 11
47.119196759318584
 21
146.81720941555147
  0
LINE
  8
_0-0_
  6
CONTINUOUS
 62
    7
 10
47.119196759318584
 20
146.81720941555147
 11
14.51919475931868
 21
146.81720941555147
  0
LINE
  8
_0-0_
  6
CONTINUOUS
 62
    7
 10
14.51919475931868
 20
146.81720941555147
 11
14.51919475931868
 21
148.41720941555138
  0
LINE
  8
_0-0_
  6
CONTINUOUS
 62
    7
 10
14.51919475931868
 20
148.41720941555138
 11
47.119196759318584
 21
148.41720941555138
  0
LINE
  8
_0-0_
  6
CONTINUOUS
 62
    7
 10
46.561629759318748
 20
146.1772064155515
 11
15.076765759318732
 21
146.1772064155515
  0
LINE
  8
_0-0_
  6
CONTINUOUS
 62
    7
 10
12.07758275931883
 20
143.24740841555138
 11
11.76895775931871
 21
130.06245141555144
  0
LINE
  8
_0-0_
  6
CONTINUOUS
 62
    7
 10
20.619200759318574
 20
128.21720641555152
 11
20.81919775931874
 21
128.21720641555152
  0
LINE
  8
_0-0_
  6
CONTINUOUS
 62
    7
 10
20.619200759318574
 20
128.21720641555152
 11
20.619200759318574
 21
96.217206415551516
  0
LINE
  8
_0-0_
  6
CONTINUOUS
 62
    7
 10
20.619200759318574
 20
96.217206415551516
 11
20.81919775931874
 21
96.217206415551516
  0
LINE
  8
_0-0_
  6
CONTINUOUS
 62
    7
 10
20.619200759318574
 20
99.617204415551384
 11
19.281172759318679
 21
99.990930415551645
  0
LINE
  8
_0-0_
  6
CONTINUOUS
 62
    7
 10
17.81919775931874
 20
101.91720741555167
 11
17.81919775931874
 21
107.75806941555169
  0
LINE
  8
_0-0_
  6
CONTINUOUS
 62
    7
 10
15.819212759318816
 20
107.86121841555172
 11
15.819212759318816
 21
105.26910141555157
  0
LINE
  8
_0-0_
  6
CONTINUOUS
 62
    7
 10
15.819212759318816
 20
105.26910141555157
 11
17.819212759318816
 21
105.26910141555157
  0
LINE
  8
_0-0_
  6
CONTINUOUS
 62
    7
 10
15.319212759318816
 20
107.61720841555137
 11
15.319212759318816
 21
108.13545741555157
  0
LINE
  8
_0-0_
  6
CONTINUOUS
 62
    7
 10
15.466872759318676
 20
108.01598141555172
 11
15.319182759318664
 21
107.61722341555145
  0
LINE
  8
_0-0_
  6
CONTINUOUS
 62
    7
 10
14.319212759318816
 20
108.71720641555152
 11
14.319212759318816
 21
115.71720641555152
  0
LINE
  8
_0-0_
  6
CONTINUOUS
 62
    7
 10
15.319212759318816
 20
116.08767441555159
 11
15.319212759318816
 21
110.21961741555145
  0
LINE
  8
_0-0_
  6
CONTINUOUS
 62
    7
 10
15.819212759318816
 20
118.08880741555134
 11
15.819212759318816
 21
140.22057141555149
  0
LINE
  8
_0-0_
  6
CONTINUOUS
 62
    7
 10
17.81919775931874
 20
140.22057241555137
 11
17.81919775931874
 21
118.59998841555165
  0
LINE
  8
_0-0_
  6
CONTINUOUS
 62
    7
 10
19.281164759318699
 20
124.44347941555174
 11
20.619192759318594
 21
124.81720641555142
  0
LINE
  8
_0-0_
  6
CONTINUOUS
 62
    7
 10
20.81919775931874
 20
134.54584641555164
 11
20.81919775931874
 21
89.888566415551338
  0
LINE
  8
_0-0_
  6
CONTINUOUS
 62
    7
 10
40.81919775931874
 20
89.888566415551338
 11
40.81919775931874
 21
134.54584641555164
  0
LINE
  8
_0-0_
  6
CONTINUOUS
 62
    7
 10
42.096091759318824
 20
138.90966541555133
 11
42.649100759318571
 21
140.14344741555158
  0
LINE
  8
_0-0_
  6
CONTINUOUS
 62
    7
 10
43.81919775931874
 20
140.22057241555137
 11
43.81919775931874
 21
127.73343941555135
  0
LINE
  8
_0-0_
  6
CONTINUOUS
 62
    7
 10
43.219183759318639
 20
127.34541041555161
 11
43.219183759318639
 21
125.2454104155517
  0
LINE
  8
_0-0_
  6
CONTINUOUS
 62
    7
 10
43.219183759318639
 20
125.2454104155517
 11
43.619177759318745
 21
123.79616841555156
  0
LINE
  8
_0-0_
  6
CONTINUOUS
 62
    7
 10
43.619185759318498
 20
123.79617041555133
 11
43.619185759318498
 21
125.89616941555136
  0
LINE
  8
_0-0_
  6
CONTINUOUS
 62
    7
 10
43.619185759318498
 20
125.89616941555136
 11
43.219183759318639
 21
127.34540841555139
  0
LINE
  8
_0-0_
  6
CONTINUOUS
 62
    7
 10
45.136710759318703
 20
128.03823041555137
 11
45.819182759318664
 21
128.03823041555137
  0
LINE
  8
_0-0_
  6
CONTINUOUS
 62
    7
 10
45.819182759318664
 20
126.31335941555147
 11
45.145315759318692
 21
126.31335941555147
  0
LINE
  8
_0-0_
  6
CONTINUOUS
 62
    7
 10
45.145315759318692
 20
124.21335941555157
 11
45.819182759318664
 21
124.21335941555157
  0
LINE
  8
_0-0_
  6
CONTINUOUS
 62
    7
 10
43.81919775931874
 20
123.90434641555152
 11
43.81919775931874
 21
105.26909741555158
  0
LINE
  8
_0-0_
  6
CONTINUOUS
 62
    7
 10
43.819182759318664
 20
105.26910141555157
 11
45.819182759318664
 21
105.26910141555157
  0
LINE
  8
_0-0_
  6
CONTINUOUS
 62
    7
 10
45.819182759318664
 20
104.1313984155517
 11
45.319182759318664
 21
104.1313984155517
  0
LINE
  8
_0-0_
  6
CONTINUOUS
 62
    7
 10
45.319182759318664
 20
104.1313984155517
 11
45.319182759318664
 21
101.63226841555155
  0
LINE
  8
_0-0_
  6
CONTINUOUS
 62
    7
 10
45.319182759318664
 20
101.63226841555155
 11
45.819182759318664
 21
101.63226841555155
  0
LINE
  8
_0-0_
  6
CONTINUOUS
 62
    7
 10
45.819182759318664
 20
101.39707741555134
 11
47.81919775931874
 21
101.39707741555134
  0
LINE
  8
_0-0_
  6
CONTINUOUS
 62
    7
 10
47.81919775931874
 20
101.20058941555175
 11
47.81919775931874
 21
133.04733441555152
  0
LINE
  8
_0-0_
  6
CONTINUOUS
 62
    7
 10
49.718523759318487
 20
136.50958041555157
 11
49.560808759318661
 21
143.24740941555126
  0
LINE
  8
_0-0_
  6
CONTINUOUS
 62
    7
 10
45.819182759318664
 20
140.22057141555149
 11
45.819182759318664
 21
101.20058941555175
  0
LINE
  8
_0-0_
  6
CONTINUOUS
 62
    7
 10
46.086783759318678
 20
100.7578784155516
 11
47.483973759318815
 21
100.02444941555171
  0
LINE
  8
_0-0_
  6
CONTINUOUS
 62
    7
 10
48.086802759318743
 20
100.75788241555159
 11
49.483973759318815
 21
100.0244534155517
  0
LINE
  8
_0-0_
  6
CONTINUOUS
 62
    7
 10
50.019183759318821
 20
98.238545415551414
 11
50.019183759318821
 21
106.21720641555152
  0
LINE
  8
_0-0_
  6
CONTINUOUS
 62
    7
 10
50.219199759318599
 20
106.21720641555152
 11
49.719199759318599
 21
106.21720641555152
  0
LINE
  8
_0-0_
  6
CONTINUOUS
 62
    7
 10
49.719199759318599
 20
104.61720841555137
 11
49.719199759318599
 21
119.81720441555166
  0
LINE
  8
_0-0_
  6
CONTINUOUS
 62
    7
 10
49.719199759318599
 20
118.21720641555152
 11
50.219199759318599
 21
118.21720641555152
  0
LINE
  8
_0-0_
  6
CONTINUOUS
 62
    7
 10
49.719195759318609
 20
115.91720741555167
 11
47.81920175931873
 21
114.71720641555152
  0
LINE
  8
_0-0_
  6
CONTINUOUS
 62
    7
 10
49.00669775931874
 20
115.46720641555152
 11
49.719199759318599
 21
115.46720641555152
  0
LINE
  8
_0-0_
  6
CONTINUOUS
 62
    7
 10
52.719199759318599
 20
115.71720641555152
 11
52.719199759318599
 21
108.71720641555152
  0
LINE
  8
_0-0_
  6
CONTINUOUS
 62
    7
 10
49.719199759318599
 20
108.51720541555136
 11
47.81919775931874
 21
109.71720641555152
  0
LINE
  8
_0-0_
  6
CONTINUOUS
 62
    7
 10
49.00669775931874
 20
108.96720641555152
 11
49.719199759318599
 21
108.96720641555152
  0
LINE
  8
_0-0_
  6
CONTINUOUS
 62
    7
 10
43.81919775931874
 20
108.96720641555152
 11
42.81919775931874
 21
108.96720641555152
  0
LINE
  8
_0-0_
  6
CONTINUOUS
 62
    7
 10
42.81919775931874
 20
115.46720641555152
 11
43.81919775931874
 21
115.46720641555152
  0
LINE
  8
_0-0_
  6
CONTINUOUS
 62
    7
 10
42.81919775931874
 20
122.21720641555152
 11
42.81919775931874
 21
102.21720641555152
  0
LINE
  8
_0-0_
  6
CONTINUOUS
 62
    7
 10
41.81919775931874
 20
101.21720641555152
 11
40.81919775931874
 21
101.21720641555152
  0
LINE
  8
_0-0_
  6
CONTINUOUS
 62
    7
 10
48.019183759318821
 20
99.139028415551309
 11
48.019183759318821
 21
98.238545415551414
  0
LINE
  8
_0-0_
  6
CONTINUOUS
 62
    7
 10
48.019183759318821
 20
98.238545415551414
 11
50.019183759318821
 21
98.238545415551414
  0
LINE
  8
_0-0_
  6
CONTINUOUS
 62
    7
 10
58.1137417593186
 20
110.27473241555157
 11
66.197787759318771
 21
105.09758941555168
  0
LINE
  8
_0-0_
  6
CONTINUOUS
 62
    7
 10
67.119181759318963
 20
105.14541041555134
 11
67.119181759318963
 21
103.4133584155515
  0
LINE
  8
_0-0_
  6
CONTINUOUS
 62
    7
 10
66.197787759318771
 20
106.82963741555153
 11
58.11373775931861
 21
112.00678341555152
  0
LINE
  8
_0-0_
  6
CONTINUOUS
 62
    7
 10
55.119196759318584
 20
115.7484644155515
 11
55.119196759318584
 21
123.42553641555145
  0
LINE
  8
_0-0_
  6
CONTINUOUS
 62
    7
 10
56.81919775931874
 20
123.42553641555145
 11
47.81919775931874
 21
123.42553641555145
  0
LINE
  8
_0-0_
  6
CONTINUOUS
 62
    7
 10
41.81919775931874
 20
123.21720641555152
 11
40.81919775931874
 21
123.21720641555152
  0
LINE
  8
_0-0_
  6
CONTINUOUS
 62
    7
 10
56.81919775931874
 20
123.42553841555167
 11
63.618017759318718
 21
130.74230541555141
  0
LINE
  8
_0-0_
  6
CONTINUOUS
 62
    7
 10
64.019183759318821
 20
131.76335841555135
 11
64.019183759318821
 21
133.49540841555142
  0
LINE
  8
_0-0_
  6
CONTINUOUS
 62
    7
 10
42.0961067593189
 20
138.90966341555156
 11
19.542288759318581
 21
138.90966341555156
  0
LINE
  8
_0-0_
  6
CONTINUOUS
 62
    7
 10
19.542280759318601
 20
138.90965841555169
 11
18.989271759318854
 21
140.1434394155516
  0
ARC
  8
_0-0_
  6
CONTINUOUS
 62
    7
 10
15.076765759318732
 20
143.1772064155515
 40
3
 50
89.99998199999996
 51
178.65911999999997
  0
ARC
  8
_0-0_
  6
CONTINUOUS
 62
    7
 10
30.81919775931874
 20
328.48853641555155
 40
188.71625
 50
266.04995000000008
 51
273.95002999999997
  0
ARC
  8
_0-0_
  6
CONTINUOUS
 62
    7
 10
17.81919775931874
 20
140.22057141555149
 40
2
 50
112.02638999999991
 51
179.99998999999991
  0
ARC
  8
_0-0_
  6
CONTINUOUS
 62
    7
 10
30.81919775931874
 20
426.01920641555165
 40
284.27733999999998
 50
267.22758999999991
 51
272.77238999999992
  0
ARC
  8
_0-0_
  6
CONTINUOUS
 62
    7
 10
30.81919775931874
 20
235.75546041555157
 40
92.611762999999996
 50
261.46176000000003
 51
278.53822000000002
  0
ARC
  8
_0-0_
  6
CONTINUOUS
 62
    7
 10
43.760199759318766
 20
129.31362141555149
 40
32
 50
178.65912
 51
204.29943
  0
ARC
  8
_0-0_
  6
CONTINUOUS
 62
    7
 10
43.81919775931874
 20
140.22057141555149
 40
2
 50
359.99997000000002
 51
67.973571000000007
  0
ARC
  8
_0-0_
  6
CONTINUOUS
 62
    7
 10
46.561629759318748
 20
143.1772064155515
 40
3
 50
1.340848
 51
89.999981999999974
  0
ARC
  8
_0-0_
  6
CONTINUOUS
 62
    7
 10
30.81919775931874
 20
147.20170941555159
 40
1.984499999999999
 50
191.17178000000004
 51
211.08122000000003
  0
ARC
  8
_0-0_
  6
CONTINUOUS
 62
    7
 10
18.31919775931874
 20
147.20170941555159
 40
1.984499999999999
 50
191.17178999999996
 51
211.08122
  0
ARC
  8
_0-0_
  6
CONTINUOUS
 62
    7
 10
14.51919475931868
 20
148.71720941555157
 40
0.2999999999999998
 50
270.00002000000006
 51
342.99647999999991
  0
ARC
  8
_0-0_
  6
CONTINUOUS
 62
    7
 10
18.153090759318729
 20
147.60597241555149
 40
3.5
 50
108.90309999999999
 51
162.9964699999999
  0
ARC
  8
_0-0_
  6
CONTINUOUS
 62
    7
 10
26.760451759318585
 20
147.20170941555159
 40
1.984499999999999
 50
191.17178000000004
 51
211.08122000000003
  0
ARC
  8
_0-0_
  6
CONTINUOUS
 62
    7
 10
23.141539759318675
 20
147.20170941555159
 40
1.984499999999999
 50
191.17178999999996
 51
211.08122
  0
ARC
  8
_0-0_
  6
CONTINUOUS
 62
    7
 10
20.354613759318909
 20
147.20170941555159
 40
1.984499999999999
 50
191.17178999999996
 51
211.08122
  0
ARC
  8
_0-0_
  6
CONTINUOUS
 62
    7
 10
18.701689759318697
 20
147.20170941555159
 40
1.984499999999999
 50
191.17178999999996
 51
211.08122
  0
ARC
  8
_0-0_
  6
CONTINUOUS
 62
    7
 10
30.81919775931874
 20
147.20170941555159
 40
1.984499999999999
 50
328.91877999999991
 51
348.82819999999992
  0
ARC
  8
_0-0_
  6
CONTINUOUS
 62
    7
 10
43.31919775931874
 20
147.20170941555159
 40
1.984499999999999
 50
328.91877999999991
 51
348.82817999999992
  0
ARC
  8
_0-0_
  6
CONTINUOUS
 62
    7
 10
47.119196759318584
 20
148.71720941555157
 40
0.2999999999999998
 50
197.00351000000001
 51
269.99995999999987
  0
ARC
  8
_0-0_
  6
CONTINUOUS
 62
    7
 10
43.485304759318751
 20
147.60597241555149
 40
3.5
 50
17.003495999999998
 51
71.096859999999978
  0
ARC
  8
_0-0_
  6
CONTINUOUS
 62
    7
 10
34.877943759318896
 20
147.20170941555159
 40
1.984499999999999
 50
191.17178000000004
 51
211.08122000000003
  0
ARC
  8
_0-0_
  6
CONTINUOUS
 62
    7
 10
38.496855759318805
 20
147.20170941555159
 40
1.984499999999999
 50
204.24534999999997
 51
211.08122000000003
  0
ARC
  8
_0-0_
  6
CONTINUOUS
 62
    7
 10
41.283781759318572
 20
147.20170941555159
 40
1.984499999999999
 50
328.91877999999991
 51
348.82819000000001
  0
ARC
  8
_0-0_
  6
CONTINUOUS
 62
    7
 10
42.936705759318784
 20
147.20170941555159
 40
1.984499999999999
 50
328.91877999999991
 51
348.82819000000001
  0
ARC
  8
_0-0_
  6
CONTINUOUS
 62
    7
 10
23.141539759318675
 20
147.20170941555159
 40
1.984499999999999
 50
328.91877999999991
 51
335.75463999999988
  0
ARC
  8
_0-0_
  6
CONTINUOUS
 62
    7
 10
26.760451759318585
 20
147.20170941555159
 40
1.984499999999999
 50
328.91877999999991
 51
348.82819999999992
  0
ARC
  8
_0-0_
  6
CONTINUOUS
 62
    7
 10
34.877943759318896
 20
147.20170941555159
 40
1.984499999999999
 50
328.91877999999991
 51
348.82819999999992
  0
ARC
  8
_0-0_
  6
CONTINUOUS
 62
    7
 10
38.496855759318805
 20
147.20170941555159
 40
1.984499999999999
 50
328.91877999999991
 51
348.82819000000001
  0
ARC
  8
_0-0_
  6
CONTINUOUS
 62
    7
 10
22.81919775931874
 20
89.888566415551338
 40
2
 50
179.99997999999991
 51
260.40582999999981
  0
ARC
  8
_0-0_
  6
CONTINUOUS
 62
    7
 10
38.81919775931874
 20
89.888566415551338
 40
2
 50
279.59415000000001
 51
0
  0
ARC
  8
_0-0_
  6
CONTINUOUS
 62
    7
 10
30.81919775931874
 20
137.21720641555146
 40
50
 50
260.40591000000001
 51
279.59406999999999
  0
ARC
  8
_0-0_
  6
CONTINUOUS
 62
    7
 10
41.81919775931874
 20
102.21720641555152
 40
1
 50
270.00002000000006
 51
0.0000000000000127
  0
ARC
  8
_0-0_
  6
CONTINUOUS
 62
    7
 10
41.81919775931874
 20
122.21720641555152
 40
1
 50
0
 51
89.99998199999996
  0
ARC
  8
_0-0_
  6
CONTINUOUS
 62
    7
 10
38.81919775931874
 20
134.54584641555164
 40
2
 50
0
 51
80.405854000000005
  0
ARC
  8
_0-0_
  6
CONTINUOUS
 62
    7
 10
22.81919775931874
 20
134.54584641555164
 40
2
 50
99.594164000000035
 51
180.00002000000003
  0
ARC
  8
_0-0_
  6
CONTINUOUS
 62
    7
 10
30.81919775931874
 20
87.217206415551516
 40
50
 50
80.405929000000015
 51
99.594088999999997
  0
ARC
  8
_0-0_
  6
CONTINUOUS
 62
    7
 10
16.96981775931863
 20
114.31211641555132
 40
3
 50
126.64931999999992
 51
152.0717699999999
  0
ARC
  8
_0-0_
  6
CONTINUOUS
 62
    7
 10
19.81919775931874
 20
101.91720741555167
 40
2
 50
179.99998999999991
 51
254.39430000000002
  0
ARC
  8
_0-0_
  6
CONTINUOUS
 62
    7
 10
16.96981775931863
 20
110.1223044155517
 40
3
 50
207.92826000000002
 51
236.61914999999993
  0
ARC
  8
_0-0_
  6
CONTINUOUS
 62
    7
 10
61.619196759318584
 20
115.7484644155515
 40
6.5
 50
179.99998999999991
 51
237.36387999999997
  0
ARC
  8
_0-0_
  6
CONTINUOUS
 62
    7
 10
65.119181759318963
 20
103.4133584155515
 40
2
 50
307.07021999999989
 51
57.363896999999994
  0
ARC
  8
_0-0_
  6
CONTINUOUS
 62
    7
 10
45.145315759318692
 20
121.21335941555157
 40
3
 50
90.000003000000007
 51
120.57807000000001
  0
ARC
  8
_0-0_
  6
CONTINUOUS
 62
    7
 10
47.81919775931874
 20
104.61720841555137
 40
1.8999999999999999
 50
270
 51
0
  0
ARC
  8
_0-0_
  6
CONTINUOUS
 62
    7
 10
65.119181759318963
 20
105.14541041555134
 40
2
 50
0
 51
57.363897000000009
  0
ARC
  8
_0-0_
  6
CONTINUOUS
 62
    7
 10
19.81919775931874
 20
122.51720541555136
 40
2
 50
105.60568999999988
 51
180.00000999999997
  0
ARC
  8
_0-0_
  6
CONTINUOUS
 62
    7
 10
15.619200759318801
 20
117.40250941555172
 40
0.5999999999999998
 50
107.0587799999999
 51
195.80493000000001
  0
ARC
  8
_0-0_
  6
CONTINUOUS
 62
    7
 10
16.019194759318907
 20
108.84961841555145
 40
1
 50
164.39512999999991
 51
266.05076000000003
  0
ARC
  8
_0-0_
  6
CONTINUOUS
 62
    7
 10
19.39395775931871
 20
157.73326641555138
 40
50
 50
266.05076000000003
 51
269.79973999999987
  0
ARC
  8
_0-0_
  6
CONTINUOUS
 62
    7
 10
24.243765759318649
 20
89.295979415551699
 40
30
 50
99.641648000000018
 51
107.05877999999991
  0
ARC
  8
_0-0_
  6
CONTINUOUS
 62
    7
 10
0.6089577593188551
 20
113.15364641555146
 40
15
 50
344.39513000000005
 51
15.804926000000066
  0
ARC
  8
_0-0_
  6
CONTINUOUS
 62
    7
 10
47.81919775931874
 20
119.81720441555166
 40
1.8999999999999999
 50
0
 51
90.000003000000007
  0
ARC
  8
_0-0_
  6
CONTINUOUS
 62
    7
 10
55.576407759318499
 20
123.24552241555142
 40
14.5
 50
90.22610899999998
 51
128.35833999999991
  0
ARC
  8
_0-0_
  6
CONTINUOUS
 62
    7
 10
48.31919775931874
 20
133.04733441555152
 40
0.5
 50
124.67272999999999
 51
180.00000999999997
  0
ARC
  8
_0-0_
  6
CONTINUOUS
 62
    7
 10
47.819182759318664
 20
133.04733441555152
 40
2
 50
128.35833999999991
 51
180.00000999999997
  0
ARC
  8
_0-0_
  6
CONTINUOUS
 62
    7
 10
56.283629759318501
 20
121.53352541555154
 40
14.5
 50
93.022068000000019
 51
124.67273000000004
  0
ARC
  8
_0-0_
  6
CONTINUOUS
 62
    7
 10
55.512930759318806
 20
124.21336141555133
 40
11.800000000000001
 50
47.139285000000001
 51
90.030349000000015
  0
ARC
  8
_0-0_
  6
CONTINUOUS
 62
    7
 10
62.519183759318821
 20
131.76335841555135
 40
1.5
 50
317.10140999999987
 51
47.139284999999994
  0
ARC
  8
_0-0_
  6
CONTINUOUS
 62
    7
 10
62.519183759318821
 20
133.49540841555142
 40
1.5
 50
0
 51
47.139285000000001
  0
ARC
  8
_0-0_
  6
CONTINUOUS
 62
    7
 10
55.512930759318806
 20
125.94541341555163
 40
11.800000000000001
 50
47.139285000000001
 51
90.030349000000015
  0
ARC
  8
_0-0_
  6
CONTINUOUS
 62
    7
 10
45.136710759318703
 20
125.03823041555137
 40
3
 50
90.000003000000007
 51
129.73046999999991
  0
ARC
  8
_0-0_
  6
CONTINUOUS
 62
    7
 10
49.019183759318821
 20
99.139028415551309
 40
1
 50
0
 51
62.303291999999992
  0
ARC
  8
_0-0_
  6
CONTINUOUS
 62
    7
 10
61.619196759318584
 20
117.48051241555135
 40
6.5
 50
179.99998999999991
 51
237.36387999999997
  0
ARC
  8
_0-0_
  6
CONTINUOUS
 62
    7
 10
45.145315759318692
 20
123.31335941555147
 40
3
 50
90.000003000000007
 51
120.57807000000001
  0
ARC
  8
_0-0_
  6
CONTINUOUS
 62
    7
 10
48.31919775931874
 20
101.20058941555175
 40
0.5
 50
179.99998999999991
 51
242.30327999999989
  0
ARC
  8
_0-0_
  6
CONTINUOUS
 62
    7
 10
47.019183759318821
 20
99.139028415551309
 40
1
 50
0
 51
62.303455999999997
  0
ARC
  8
_0-0_
  6
CONTINUOUS
 62
    7
 10
58.339873759318834
 20
112.38690341555133
 40
13.246487999999999
 50
239.07874999999999
 51
307.07021999999984
  0
ARC
  8
_0-0_
  6
CONTINUOUS
 62
    7
 10
46.319182759318664
 20
101.20058941555175
 40
0.5
 50
179.99998999999991
 51
242.30344999999988
  0
ARC
  8
_0-0_
  6
CONTINUOUS
 62
    7
 10
51.019183759318821
 20
100.16520441555161
 40
1
 50
59.078745999999981
 51
180.00000999999997
  0
ARC
  8
_0-0_
  6
CONTINUOUS
 62
    7
 10
50.219199759318599
 20
115.71720641555152
 40
2.5
 50
0
 51
90
  0
ARC
  8
_0-0_
  6
CONTINUOUS
 62
    7
 10
50.219199759318599
 20
108.71720641555152
 40
2.5
 50
270
 51
0
  0
LINE
  8
_0-0_
  6
CONTINUOUS
 62
    7
 10
73.17453683914141
 20
150.91720941555138
 11
2.6062769710199518
 21
150.91720941555138
  0
LINE
  8
_0-0_
  6
CONTINUOUS
 62
    7
 10
2.6062769710199518
 20
150.91720941555138
 11
2.6062769710199518
 21
153.21720841555123
  0
LINE
  8
_0-0_
  6
CONTINUOUS
 62
    7
 10
2.6062769710199518
 20
153.21720841555123
 11
73.17453683914141
 21
153.21720841555123
  0
LINE
  8
_0-0_
  6
CONTINUOUS
 62
    7
 10
73.17453683914141
 20
153.21720841555123
 11
73.17453683914141
 21
150.91720941555138
  0
LINE
  8
_0-0_
  6
CONTINUOUS
 62
    7
 10
111.87081141330532
 20
106.58634741555164
 11
112.83432041330502
 21
105.86029141555167
  0
LINE
  8
_0-0_
  6
CONTINUOUS
 62
    7
 10
115.78260841330507
 20
111.77747841555168
 11
116.74611641330489
 21
111.0514234155516
  0
LINE
  8
_0-0_
  6
CONTINUOUS
 62
    7
 10
123.86997241330505
 20
112.08249841555147
 11
119.30081241330504
 21
122.84675741555151
  0
LINE
  8
_0-0_
  6
CONTINUOUS
 62
    7
 10
120.24937441330508
 20
123.17139541555156
 11
141.05278441330506
 21
132.00192041555135
  0
LINE
  8
_0-0_
  6
CONTINUOUS
 62
    7
 10
141.05278441330506
 20
132.00192041555135
 11
140.27132441330491
 21
133.84293141555133
  0
LINE
  8
_0-0_
  6
CONTINUOUS
 62
    7
 10
140.27132441330491
 20
133.84293141555133
 11
119.46791141330482
 21
125.01240441555132
  0
LINE
  8
_0-0_
  6
CONTINUOUS
 62
    7
 10
116.54734041330516
 20
124.70931741555154
 11
113.23323041330491
 21
125.36254041555134
  0
LINE
  8
_0-0_
  6
CONTINUOUS
 62
    7
 10
112.84646641330505
 20
123.40029441555174
 11
116.16056841330533
 21
122.74706941555172
  0
LINE
  8
_0-0_
  6
CONTINUOUS
 62
    7
 10
122.45474241330498
 20
123.09447641555147
 11
125.85929941330483
 21
115.07383841555151
  0
LINE
  8
_0-0_
  6
CONTINUOUS
 62
    7
 10
127.17710141330531
 20
117.85570641555154
 11
125.27764141330522
 21
119.32269041555168
  0
LINE
  8
_0-0_
  6
CONTINUOUS
 62
    7
 10
125.27764141330522
 20
119.32269041555168
 11
130.39533241330514
 21
125.94909641555154
  0
LINE
  8
_0-0_
  6
CONTINUOUS
 62
    7
 10
130.39533241330514
 20
125.94909641555154
 11
132.2947844133048
 21
124.48211441555162
  0
LINE
  8
_0-0_
  6
CONTINUOUS
 62
    7
 10
132.2947844133048
 20
124.48211441555162
 11
127.17710141330531
 21
117.85570641555154
  0
LINE
  8
_0-0_
  6
CONTINUOUS
 62
    7
 10
127.40023041330483
 20
122.07103341555143
 11
129.29969041330492
 21
120.60405141555151
  0
LINE
  8
_0-0_
  6
CONTINUOUS
 62
    7
 10
130.15543341330499
 20
121.71206841555153
 11
128.25597441330524
 21
123.17904941555156
  0
LINE
  8
_0-0_
  6
CONTINUOUS
 62
    7
 10
136.02797441330517
 20
127.20417341555134
 11
136.0463344133052
 21
127.16090741555166
  0
LINE
  8
_0-0_
  6
CONTINUOUS
 62
    7
 10
91.576618413305141
 20
113.17325341555164
 11
91.264030413304909
 21
113.9096614155514
  0
LINE
  8
_0-0_
  6
CONTINUOUS
 62
    7
 10
91.264030413304909
 20
113.9096614155514
 11
95.130150413305046
 21
115.55072941555176
  0
LINE
  8
_0-0_
  6
CONTINUOUS
 62
    7
 10
95.130150413305046
 20
115.55072941555176
 11
95.326347413305257
 21
115.08851741555139
  0
LINE
  8
_0-0_
  6
CONTINUOUS
 62
    7
 10
96.124702413305158
 20
116.04042141555141
 11
97.956985413304892
 21
118.87815641555147
  0
LINE
  8
_0-0_
  6
CONTINUOUS
 62
    7
 10
99.637176413304815
 20
117.79328341555168
 11
97.804897413305071
 21
114.95554841555162
  0
LINE
  8
_0-0_
  6
CONTINUOUS
 62
    7
 10
96.142315413305141
 20
113.16621941555144
 11
97.474537413305143
 21
110.02769941555147
  0
LINE
  8
_0-0_
  6
CONTINUOUS
 62
    7
 10
97.474537413305143
 20
110.02769941555147
 11
93.608417413305006
 21
108.38663241555145
  0
LINE
  8
_0-0_
  6
CONTINUOUS
 62
    7
 10
93.608417413305006
 20
108.38663241555145
 11
92.358082413304828
 21
111.33224241555166
  0
LINE
  8
_0-0_
  6
CONTINUOUS
 62
    7
 10
102.85137941330481
 20
113.38298141555146
 11
103.81488041330499
 21
112.65693041555136
  0
LINE
  8
_0-0_
  6
CONTINUOUS
 62
    7
 10
106.76317641330502
 20
118.57410941555139
 11
107.7266774133052
 21
117.84805841555175
  0
LINE
  8
_0-0_
  6
CONTINUOUS
 62
    7
 10
106.42120341330497
 20
122.73348741555168
 11
104.58019241330499
 21
121.9520254155513
  0
LINE
  8
_0-0_
  6
CONTINUOUS
 62
    7
 10
103.79872941330495
 20
123.7930354155514
 11
105.63974041330493
 21
124.57449641555144
  0
LINE
  8
_0-0_
  6
CONTINUOUS
 62
    7
 10
126.10229541330523
 20
108.65577841555154
 11
121.74564341330529
 21
101.10983841555156
  0
ARC
  8
_0-0_
  6
CONTINUOUS
 62
    7
 10
105.65699041330504
 20
121.97455741555171
 40
20
 50
257.53532999999987
 51
328.46465999999998
  0
ARC
  8
_0-0_
  6
CONTINUOUS
 62
    7
 10
111.46364641330479
 20
136.06339241555168
 40
27
 50
294.60028
 51
335.29295999999988
  0
ARC
  8
_0-0_
  6
CONTINUOUS
 62
    7
 10
91.488693413304873
 20
127.58452741555169
 40
27
 50
250.70703999999989
 51
291.39972
  0
ARC
  8
_0-0_
  6
CONTINUOUS
 62
    7
 10
110.7192464133052
 20
112.60793841555136
 40
13
 50
78.849698000000004
 51
113
  0
ARC
  8
_0-0_
  6
CONTINUOUS
 62
    7
 10
108.87824241330486
 20
111.82647441555167
 40
13
 50
113
 51
147.15030999999999
  0
ARC
  8
_0-0_
  6
CONTINUOUS
 62
    7
 10
117.51425941330513
 20
129.61493241555166
 40
5
 50
258.84969999999993
 51
293
  0
ARC
  8
_0-0_
  6
CONTINUOUS
 62
    7
 10
91.924225413304839
 20
118.75260641555172
 40
5
 50
293
 51
327.15030000000002
  0
ARC
  8
_0-0_
  6
CONTINUOUS
 62
    7
 10
91.924225413304839
 20
118.75260641555172
 40
7
 50
293
 51
327.15030000000002
  0
ARC
  8
_0-0_
  6
CONTINUOUS
 62
    7
 10
108.87824241330486
 20
111.82647441555167
 40
11
 50
113
 51
147.15030999999999
  0
ARC
  8
_0-0_
  6
CONTINUOUS
 62
    7
 10
110.7192464133052
 20
112.60793841555136
 40
11
 50
78.849698000000004
 51
113
  0
ARC
  8
_0-0_
  6
CONTINUOUS
 62
    7
 10
117.51425941330513
 20
129.61493241555166
 40
7
 50
258.84969999999993
 51
293
  0
ARC
  8
_0-0_
  6
CONTINUOUS
 62
    7
 10
104.80727441330487
 20
115.97855141555141
 40
3.25
 50
53
 51
232.99998999999997
  0
ARC
  8
_0-0_
  6
CONTINUOUS
 62
    7
 10
114.79021441330519
 20
108.45586141555162
 40
3.25
 50
233.00000999999992
 51
52.999999999999986
  0
ARC
  8
_0-0_
  6
CONTINUOUS
 62
    7
 10
133.26645641330492
 20
126.03197841555169
 40
3
 50
335.29295999999988
 51
23.000000000000025
  0
ARC
  8
_0-0_
  6
CONTINUOUS
 62
    7
 10
138.34760441330513
 20
128.13773441555162
 40
2.5
 50
113
 51
202.51039999999998
  0
LINE
  8
_0-0_
  6
CONTINUOUS
 62
    7
 10
114.49874141330497
 20
148.41720941555138
 11
147.09874441330498
 21
148.41720941555138
  0
LINE
  8
_0-0_
  6
CONTINUOUS
 62
    7
 10
147.09874441330498
 20
148.41720941555138
 11
147.09874441330498
 21
146.81720941555147
  0
LINE
  8
_0-0_
  6
CONTINUOUS
 62
    7
 10
147.09874441330498
 20
146.81720941555147
 11
114.49874141330497
 21
146.81720941555147
  0
LINE
  8
_0-0_
  6
CONTINUOUS
 62
    7
 10
114.49874141330497
 20
146.81720941555147
 11
114.49874141330497
 21
148.41720941555138
  0
LINE
  8
_0-0_
  6
CONTINUOUS
 62
    7
 10
115.05631241330525
 20
146.1772064155515
 11
146.54117441330504
 21
146.1772064155515
  0
LINE
  8
_0-0_
  6
CONTINUOUS
 62
    7
 10
149.52010441330481
 20
143.53225341555151
 11
150.09874441330498
 21
138.67727341555144
  0
LINE
  8
_0-0_
  6
CONTINUOUS
 62
    7
 10
150.09874441330498
 20
138.67727441555132
 11
150.09874441330498
 21
137.94415641555167
  0
LINE
  8
_0-0_
  6
CONTINUOUS
 62
    7
 10
150.09874441330498
 20
137.94415641555167
 11
141.14878441330507
 21
137.63161741555166
  0
LINE
  8
_0-0_
  6
CONTINUOUS
 62
    7
 10
134.99824441330497
 20
134.39575941555165
 11
122.38109641330516
 21
117.35008041555142
  0
LINE
  8
_0-0_
  6
CONTINUOUS
 62
    7
 10
122.3639984133049
 20
117.3853624155517
 11
123.83679241330515
 21
114.34547941555132
  0
LINE
  8
_0-0_
  6
CONTINUOUS
 62
    7
 10
122.03691141330523
 20
113.47345841555165
 11
120.56411741330498
 21
116.51334141555157
  0
LINE
  8
_0-0_
  6
CONTINUOUS
 62
    7
 10
113.04874441330526
 20
117.26076641555159
 11
113.04874441330526
 21
118.46720641555152
  0
LINE
  8
_0-0_
  6
CONTINUOUS
 62
    7
 10
114.43271641330489
 20
122.24348541555167
 11
116.16476441330519
 21
121.24348541555167
  0
LINE
  8
_0-0_
  6
CONTINUOUS
 62
    7
 10
117.16476441330519
 20
122.97553541555175
 11
115.43271641330489
 21
123.97553541555175
  0
LINE
  8
_0-0_
  6
CONTINUOUS
 62
    7
 10
117.79874441330526
 20
122.58488641555135
 11
117.79874441330526
 21
142.45782641555149
  0
LINE
  8
_0-0_
  6
CONTINUOUS
 62
    7
 10
114.94368041330495
 20
143.72468341555157
 11
103.69873041330516
 21
141.7418964155512
  0
LINE
  8
_0-0_
  6
CONTINUOUS
 62
    7
 10
103.69874641330512
 20
141.74189341555154
 11
104.04603641330505
 21
139.77227641555135
  0
LINE
  8
_0-0_
  6
CONTINUOUS
 62
    7
 10
104.04603641330505
 20
139.77228141555167
 11
106.50805641330498
 21
140.20640241555145
  0
LINE
  8
_0-0_
  6
CONTINUOUS
 62
    7
 10
106.52477241330507
 20
140.11161141555147
 11
106.16075941330496
 21
142.17601341555144
  0
LINE
  8
_0-0_
  6
CONTINUOUS
 62
    7
 10
106.53068541330504
 20
139.80206641555139
 11
104.55985241330495
 21
125.4340774155516
  0
LINE
  8
_0-0_
  6
CONTINUOUS
 62
    7
 10
104.62285641330504
 20
125.43864741555166
 11
107.99186741330527
 21
125.68311441555164
  0
LINE
  8
_0-0_
  6
CONTINUOUS
 62
    7
 10
108.13661241330487
 20
123.6883614155517
 11
104.7676014133051
 21
123.44389441555171
  0
LINE
  8
_0-0_
  6
CONTINUOUS
 62
    7
 10
102.33802041330523
 20
123.69484641555158
 11
100.63323241330477
 21
120.74207641555171
  0
LINE
  8
_0-0_
  6
CONTINUOUS
 62
    7
 10
100.63323241330477
 20
120.74207641555171
 11
96.995933413305238
 21
122.84207441555139
  0
LINE
  8
_0-0_
  6
CONTINUOUS
 62
    7
 10
96.995933413305238
 20
122.84207441555139
 11
98.595932413305036
 21
125.61335741555143
  0
LINE
  8
_0-0_
  6
CONTINUOUS
 62
    7
 10
99.595932413304809
 20
127.34540741555151
 11
99.995933413305238
 21
128.03822641555138
  0
LINE
  8
_0-0_
  6
CONTINUOUS
 62
    7
 10
99.995933413305238
 20
128.03822641555138
 11
103.6332404133052
 21
125.93822841555169
  0
LINE
  8
_0-0_
  6
CONTINUOUS
 62
    7
 10
103.6332404133052
 20
125.93822841555169
 11
103.38217141330483
 21
125.50337341555172
  0
LINE
  8
_0-0_
  6
CONTINUOUS
 62
    7
 10
101.76099441330484
 20
126.09540741555151
 11
81.582599413304933
 21
137.74541141555153
  0
LINE
  8
_0-0_
  6
CONTINUOUS
 62
    7
 10
81.582596413305055
 20
137.74540941555131
 11
80.582596413305055
 21
136.01335841555135
  0
LINE
  8
_0-0_
  6
CONTINUOUS
 62
    7
 10
80.582599413304933
 20
136.01336041555157
 11
100.76099441330507
 21
124.36335741555143
  0
LINE
  8
_0-0_
  6
CONTINUOUS
 62
    7
 10
106.5487444133048
 20
118.46720641555152
 11
106.5487444133048
 21
117.26076641555159
  0
LINE
  8
_0-0_
  6
CONTINUOUS
 62
    7
 10
106.5487444133048
 20
107.17364641555145
 11
106.5487444133048
 21
105.96720641555152
  0
LINE
  8
_0-0_
  6
CONTINUOUS
 62
    7
 10
113.04874441330526
 20
105.96720641555152
 11
113.04874441330526
 21
107.17364641555145
  0
LINE
  8
_0-0_
  6
CONTINUOUS
 62
    7
 10
118.15943941330511
 20
100.89835541555152
 11
124.00637041330515
 21
111.0255374155517
  0
LINE
  8
_0-0_
  6
CONTINUOUS
 62
    7
 10
124.83649441330522
 20
110.46335741555134
 11
144.40866441330513
 21
99.1633584155515
  0
LINE
  8
_0-0_
  6
CONTINUOUS
 62
    7
 10
144.40866441330513
 20
99.1633584155515
 11
145.40866441330513
 21
100.89541041555134
  0
LINE
  8
_0-0_
  6
CONTINUOUS
 62
    7
 10
145.40866441330513
 20
100.89541041555134
 11
125.83649441330522
 21
112.19540941555164
  0
LINE
  8
_0-0_
  6
CONTINUOUS
 62
    7
 10
124.78887241330517
 20
104.1313984155517
 11
133.16085841330528
 21
104.03210241555138
  0
LINE
  8
_0-0_
  6
CONTINUOUS
 62
    7
 10
133.16085841330528
 20
104.03210241555138
 11
133.13240041330505
 21
101.63226841555155
  0
LINE
  8
_0-0_
  6
CONTINUOUS
 62
    7
 10
133.13240041330505
 20
101.63226841555155
 11
124.76040641330496
 21
101.73156541555176
  0
LINE
  8
_0-0_
  6
CONTINUOUS
 62
    7
 10
124.76040641330496
 20
101.73156541555176
 11
124.78887241330517
 21
104.1313984155517
  0
LINE
  8
_0-0_
  6
CONTINUOUS
 62
    7
 10
128.2612074133051
 20
104.09021541555143
 11
128.23274241330478
 21
101.6903814155516
  0
LINE
  8
_0-0_
  6
CONTINUOUS
 62
    7
 10
129.63263741330525
 20
101.67377941555145
 11
129.66110241330512
 21
104.07360941555174
  0
LINE
  8
_0-0_
  6
CONTINUOUS
 62
    7
 10
137.55300441330496
 20
100.28899941555159
 11
137.52950441330518
 21
100.24829641555147
  0
LINE
  8
_0-0_
  6
CONTINUOUS
 62
    7
 10
111.64874241330494
 20
143.1436924155513
 11
112.40139841330506
 21
144.57413841555115
  0
LINE
  8
_0-0_
  6
CONTINUOUS
 62
    7
 10
88.443405353977823
 20
150.91720941555138
 11
159.01166522209928
 21
150.91720941555138
  0
LINE
  8
_0-0_
  6
CONTINUOUS
 62
    7
 10
159.01166522209928
 20
150.91720941555138
 11
159.01166522209928
 21
153.21720841555123
  0
LINE
  8
_0-0_
  6
CONTINUOUS
 62
    7
 10
159.01166522209928
 20
153.21720841555123
 11
88.443405353977823
 21
153.21720841555123
  0
LINE
  8
_0-0_
  6
CONTINUOUS
 62
    7
 10
88.443405353977823
 20
153.21720841555123
 11
88.443405353977823
 21
150.91720941555138
  0
LINE
  8
_0-0_
  6
CONTINUOUS
 62
    7
 10
86.317978413305127
 20
131.54733641555129
 11
85.591476413305145
 21
130.2890014155513
  0
ARC
  8
_0-0_
  6
CONTINUOUS
 62
    7
 10
115.05631241330525
 20
143.1772064155515
 40
3
 50
89.99998199999996
 51
152.24815000000001
  0
ARC
  8
_0-0_
  6
CONTINUOUS
 62
    7
 10
146.54117441330504
 20
143.1772064155515
 40
3
 50
6.7968019999999996
 51
89.99998199999996
  0
ARC
  8
_0-0_
  6
CONTINUOUS
 62
    7
 10
105.5399634133048
 20
139.93796241555162
 40
1
 50
352.18957999999992
 51
10.000000000000023
  0
ARC
  8
_0-0_
  6
CONTINUOUS
 62
    7
 10
141.42798441330501
 20
129.63648941555169
 40
8
 50
92.000031999999976
 51
143.32581999999996
  0
ARC
  8
_0-0_
  6
CONTINUOUS
 62
    7
 10
126.7399984133051
 20
147.20170941555159
 40
1.984499999999999
 50
191.17178000000004
 51
211.08122000000003
  0
ARC
  8
_0-0_
  6
CONTINUOUS
 62
    7
 10
118.13263741330479
 20
147.60597241555149
 40
3.5
 50
108.90309999999999
 51
162.9964699999999
  0
ARC
  8
_0-0_
  6
CONTINUOUS
 62
    7
 10
114.49874141330497
 20
148.71720941555157
 40
0.2999999999999998
 50
270.00002000000006
 51
342.99647999999991
  0
ARC
  8
_0-0_
  6
CONTINUOUS
 62
    7
 10
118.29874441330526
 20
147.20170941555159
 40
1.984499999999999
 50
191.17178999999996
 51
211.08122
  0
ARC
  8
_0-0_
  6
CONTINUOUS
 62
    7
 10
130.79874441330526
 20
147.20170941555159
 40
1.984499999999999
 50
191.17178000000004
 51
211.08122000000003
  0
ARC
  8
_0-0_
  6
CONTINUOUS
 62
    7
 10
120.33416041330497
 20
147.20170941555159
 40
1.984499999999999
 50
191.17178999999996
 51
211.08122
  0
ARC
  8
_0-0_
  6
CONTINUOUS
 62
    7
 10
118.68123641330499
 20
147.20170941555159
 40
1.984499999999999
 50
191.17178999999996
 51
211.08122
  0
ARC
  8
_0-0_
  6
CONTINUOUS
 62
    7
 10
142.9162544133053
 20
147.20170941555159
 40
1.984499999999999
 50
328.91877999999991
 51
348.82819000000001
  0
ARC
  8
_0-0_
  6
CONTINUOUS
 62
    7
 10
143.29874441330526
 20
147.20170941555159
 40
1.984499999999999
 50
328.91877999999991
 51
348.82817999999992
  0
ARC
  8
_0-0_
  6
CONTINUOUS
 62
    7
 10
138.47640441330509
 20
147.20170941555159
 40
1.984499999999999
 50
204.24534999999997
 51
211.08122000000003
  0
ARC
  8
_0-0_
  6
CONTINUOUS
 62
    7
 10
143.46485441330492
 20
147.60597241555149
 40
3.5
 50
17.003495999999998
 51
71.096859999999978
  0
ARC
  8
_0-0_
  6
CONTINUOUS
 62
    7
 10
147.09874441330498
 20
148.71720941555157
 40
0.2999999999999998
 50
197.00351000000001
 51
269.99995999999987
  0
ARC
  8
_0-0_
  6
CONTINUOUS
 62
    7
 10
134.85749441330495
 20
147.20170941555159
 40
1.984499999999999
 50
191.17178000000004
 51
211.08122000000003
  0
ARC
  8
_0-0_
  6
CONTINUOUS
 62
    7
 10
130.79874441330526
 20
147.20170941555159
 40
1.984499999999999
 50
328.91877999999991
 51
348.82819999999992
  0
ARC
  8
_0-0_
  6
CONTINUOUS
 62
    7
 10
123.12108641330519
 20
147.20170941555159
 40
1.984499999999999
 50
328.91877999999991
 51
335.75463999999988
  0
ARC
  8
_0-0_
  6
CONTINUOUS
 62
    7
 10
126.7399984133051
 20
147.20170941555159
 40
1.984499999999999
 50
328.91877999999991
 51
348.82819999999992
  0
ARC
  8
_0-0_
  6
CONTINUOUS
 62
    7
 10
134.85749441330495
 20
147.20170941555159
 40
1.984499999999999
 50
328.91877999999991
 51
348.82819999999992
  0
ARC
  8
_0-0_
  6
CONTINUOUS
 62
    7
 10
138.47640441330509
 20
147.20170941555159
 40
1.984499999999999
 50
328.91877999999991
 51
348.82819000000001
  0
ARC
  8
_0-0_
  6
CONTINUOUS
 62
    7
 10
123.12108641330519
 20
147.20170941555159
 40
1.984499999999999
 50
191.17178999999996
 51
211.08122
  0
ARC
  8
_0-0_
  6
CONTINUOUS
 62
    7
 10
141.2633244133051
 20
147.20170941555159
 40
1.984499999999999
 50
328.91877999999991
 51
348.82819000000001
  0
ARC
  8
_0-0_
  6
CONTINUOUS
 62
    7
 10
109.79874441330526
 20
112.21720641555152
 40
25
 50
98.382604999999998
 51
131.33707999999999
  0
ARC
  8
_0-0_
  6
CONTINUOUS
 62
    7
 10
109.79874441330526
 20
112.21720641555152
 40
25
 50
153.97267999999991
 51
326.02733000000001
  0
ARC
  8
_0-0_
  6
CONTINUOUS
 62
    7
 10
109.79874441330526
 20
112.21720641555152
 40
25
 50
348.6629299999999
 51
36.964796
  0
ARC
  8
_0-0_
  6
CONTINUOUS
 62
    7
 10
115.09874741330509
 20
121.39707541555157
 40
20
 50
204.53532999999999
 51
275.46465999999998
  0
ARC
  8
_0-0_
  6
CONTINUOUS
 62
    7
 10
129.84511541330517
 20
125.23854741555164
 40
27
 50
241.60027999999994
 51
282.29295999999999
  0
ARC
  8
_0-0_
  6
CONTINUOUS
 62
    7
 10
111.0523684133052
 20
136.08854841555137
 40
27
 50
197.70704000000001
 51
238.39972
  0
ARC
  8
_0-0_
  6
CONTINUOUS
 62
    7
 10
110.66477241330517
 20
111.71720641555152
 40
13
 50
25.849695999999991
 51
59.999994999999991
  0
ARC
  8
_0-0_
  6
CONTINUOUS
 62
    7
 10
108.93271641330489
 20
112.71720641555152
 40
13
 50
59.999994999999998
 51
94.150299000000004
  0
ARC
  8
_0-0_
  6
CONTINUOUS
 62
    7
 10
128.33649441330522
 20
116.5255374155517
 40
5
 50
205.84970999999999
 51
239.99999999999989
  0
ARC
  8
_0-0_
  6
CONTINUOUS
 62
    7
 10
104.26099441330484
 20
130.42553641555139
 40
5
 50
239.99999999999989
 51
274.15030000000002
  0
ARC
  8
_0-0_
  6
CONTINUOUS
 62
    7
 10
104.26099441330484
 20
130.42553641555139
 40
7
 50
239.99999999999989
 51
274.15030000000002
  0
ARC
  8
_0-0_
  6
CONTINUOUS
 62
    7
 10
108.93271641330489
 20
112.71720641555152
 40
11
 50
59.999994999999998
 51
94.150299000000004
  0
ARC
  8
_0-0_
  6
CONTINUOUS
 62
    7
 10
110.66477241330517
 20
111.71720641555152
 40
11
 50
25.849695999999991
 51
59.999994999999991
  0
ARC
  8
_0-0_
  6
CONTINUOUS
 62
    7
 10
128.33649441330522
 20
116.5255374155517
 40
7
 50
205.84970999999999
 51
239.99999999999989
  0
ARC
  8
_0-0_
  6
CONTINUOUS
 62
    7
 10
109.79874441330526
 20
118.46720641555152
 40
3.25
 50
0
 51
180.00000999999997
  0
ARC
  8
_0-0_
  6
CONTINUOUS
 62
    7
 10
109.79874441330526
 20
105.96720641555152
 40
3.25
 50
180.00001
 51
0
  0
ARC
  8
_0-0_
  6
CONTINUOUS
 62
    7
 10
134.95493441330495
 20
101.78899941555159
 40
3
 50
282.29295999999999
 51
330
  0
ARC
  8
_0-0_
  6
CONTINUOUS
 62
    7
 10
88.189560413304889
 20
128.78899941555159
 40
3
 50
150.00001
 51
197.70704000000001
  0
ARC
  8
_0-0_
  6
CONTINUOUS
 62
    7
 10
139.69457441330519
 20
98.998296415551465
 40
2.5
 50
59.999994999999998
 51
149.51039999999989
  0
ARC
  8
_0-0_
  6
CONTINUOUS
 62
    7
 10
85.451958413304965
 20
132.04733441555152
 40
1
 50
330
 51
59.999994999999998
  0
CIRCLE
  8
_0-0_
  6
CONTINUOUS
 62
    7
 10
109.79874441330526
 20
112.21720641555152
 40
2
  0
CIRCLE
  8
_0-0_
  6
CONTINUOUS
 62
    7
 10
109.79874441330526
 20
112.21720641555152
 40
6
  0
ARC
  8
_0-0_
  6
CONTINUOUS
 62
    7
 10
109.79874441330526
 20
112.21720641555152
 40
11
 50
195.6087399999999
 51
284.39122999999989
  0
ARC
  8
_0-0_
  6
CONTINUOUS
 62
    7
 10
109.79874441330526
 20
112.21720641555152
 40
18
 50
356.38780000000003
 51
30.275818000000015
  0
ARC
  8
_0-0_
  6
CONTINUOUS
 62
    7
 10
109.79874441330526
 20
112.21720641555152
 40
18
 50
165.84379999999999
 51
314.15618999999992
  0
ARC
  8
_0-0_
  6
CONTINUOUS
 62
    7
 10
109.79874441330526
 20
112.21720641555152
 40
18
 50
104.9932
 51
120.73242
  0
LINE
  8
_0-0_
  6
CONTINUOUS
 62
    7
 10
158.75151127382446
 20
196.9537048156534
 11
159.01166505101128
 21
168.00401143886245
  0
LINE
  8
_0-0_
  6
CONTINUOUS
 62
    7
 10
147.06220038059587
 20
162.99136187262263
 11
90.493657885671837
 21
219.55990436754644
  0
LINE
  8
_0-0_
  6
CONTINUOUS
 62
    7
 10
95.506307451911653
 20
231.50936903796207
 11
124.45600012159571
 21
231.24921596788215
  0
LINE
  8
_0-0_
  6
CONTINUOUS
 62
    7
 10
128.64472462375625
 20
229.49209875014765
 11
156.99439405608973
 21
201.14242931781371
  0
CIRCLE
  8
_0-0_
  6
CONTINUOUS
 62
    7
 10
95.443405353977823
 20
224.5096518358522
 40
2.6000000000000001
  0
ARC
  8
_0-0_
  6
CONTINUOUS
 62
    7
 10
152.01194784890163
 20
167.94110934092839
 40
7
 50
224.99998999999988
 51
0.5148689999999079
  0
CIRCLE
  8
_0-0_
  6
CONTINUOUS
 62
    7
 10
152.01194784890163
 20
167.94110934092839
 40
2.6000000000000001
  0
ARC
  8
_0-0_
  6
CONTINUOUS
 62
    7
 10
95.443405353977823
 20
224.5096518358522
 40
7
 50
89.485130999999996
 51
225.00001000000003
  0
CIRCLE
  8
_0-0_
  6
CONTINUOUS
 62
    7
 10
130.79874441330526
 20
203.29644840025583
 40
5.75
  0
CIRCLE
  8
_0-0_
  6
CONTINUOUS
 62
    7
 10
123.72767660143973
 20
224.5096518358522
 40
2.6000000000000001
  0
CIRCLE
  8
_0-0_
  6
CONTINUOUS
 62
    7
 10
152.01194784890163
 20
196.22538058839052
 40
2.6000000000000001
  0
CIRCLE
  8
_0-0_
  6
CONTINUOUS
 62
    7
 10
130.79874441330526
 20
203.29644840025583
 40
7.5
  0
ARC
  8
_0-0_
  6
CONTINUOUS
 62
    7
 10
130.79874441330526
 20
203.29644840025583
 40
19.300000000000001
 50
16.742528999999976
 51
73.257470999999995
  0
ARC
  8
_0-0_
  6
CONTINUOUS
 62
    7
 10
152.75175336897041
 20
196.89978863069462
 40
6
 50
0.5148689999999078
 51
44.999999999999986
  0
ARC
  8
_0-0_
  6
CONTINUOUS
 62
    7
 10
124.40208393663693
 20
225.2494580630281
 40
6
 50
45
 51
89.485130999999996
  0
ARC
  8
_0-0_
  6
CONTINUOUS
 62
    7
 10
80.656555413305227
 20
178.08762340025612
 40
8.2264400000000002
 50
93.750111000000004
 51
256.26387799999998
  0
LINE
  8
_0-0_
  6
CONTINUOUS
 62
    7
 10
113.79874441330526
 20
178.99644940025593
 11
105.33805041330521
 21
178.99644940025593
  0
LINE
  8
_0-0_
  6
CONTINUOUS
 62
    7
 10
103.63323241330522
 20
188.29646340025582
 11
113.79874441330509
 21
188.29646340025582
  0
LINE
  8
_0-0_
  6
CONTINUOUS
 62
    7
 10
105.81341941330527
 20
190.29644840025588
 11
103.3284424133052
 21
190.29644840025588
  0
LINE
  8
_0-0_
  6
CONTINUOUS
 62
    7
 10
102.94041141330513
 20
190.8964664002558
 11
99.303108413305154
 21
190.89646240025581
  0
LINE
  8
_0-0_
  6
CONTINUOUS
 62
    7
 10
99.303108413305154
 20
190.89646240025581
 11
99.178746413305078
 21
190.49646040025573
  0
LINE
  8
_0-0_
  6
CONTINUOUS
 62
    7
 10
100.29874441330492
 20
191.29644840025597
 11
105.49340841330536
 21
191.29644840025597
  0
LINE
  8
_0-0_
  6
CONTINUOUS
 62
    7
 10
104.93644541330502
 20
193.29644840025591
 11
87.463089413305397
 21
193.29644840025591
  0
LINE
  8
_0-0_
  6
CONTINUOUS
 62
    7
 10
86.021489413305346
 20
188.29646340025582
 11
99.595932413304922
 21
188.29646340025582
  0
LINE
  8
_0-0_
  6
CONTINUOUS
 62
    7
 10
99.595932413304922
 20
188.29646340025573
 11
99.995926413305028
 21
186.0700644002558
  0
LINE
  8
_0-0_
  6
CONTINUOUS
 62
    7
 10
99.995926413305142
 20
186.0700644002558
 11
99.995926413305142
 21
188.97893540025609
  0
LINE
  8
_0-0_
  6
CONTINUOUS
 62
    7
 10
99.595932413304922
 20
188.97033040025593
 11
99.595932413304922
 21
188.29646340025573
  0
LINE
  8
_0-0_
  6
CONTINUOUS
 62
    7
 10
99.29874441330503
 20
192.29644840025583
 11
99.29874441330503
 21
193.296448400256
  0
LINE
  8
_0-0_
  6
CONTINUOUS
 62
    7
 10
89.270985413305254
 20
186.29644840025594
 11
86.021489413305062
 21
186.29644840025594
  0
LINE
  8
_0-0_
  6
CONTINUOUS
 62
    7
 10
86.021489413305176
 20
186.29644840025577
 11
86.021489413305176
 21
188.2964634002559
  0
LINE
  8
_0-0_
  6
CONTINUOUS
 62
    7
 10
103.32955941330511
 20
178.45563540025591
 11
89.8641544133053
 21
170.63727740025593
  0
LINE
  8
_0-0_
  6
CONTINUOUS
 62
    7
 10
87.855663413305308
 20
170.09646240025586
 11
86.855664413305135
 21
170.09646240025586
  0
LINE
  8
_0-0_
  6
CONTINUOUS
 62
    7
 10
93.798744413305087
 20
213.49644540025596
 11
93.798744413305087
 21
213.29644840025583
  0
ARC
  8
_0-0_
  6
CONTINUOUS
 62
    7
 10
135.29874641330503
 20
203.29644840025577
 40
50.5
 50
170.50576000000001
 51
189.49423999999988
  0
ARC
  8
_0-0_
  6
CONTINUOUS
 62
    7
 10
87.463089413305227
 20
211.29644840025597
 40
2
 50
89.999989999999983
 51
170.50576000000001
  0
ARC
  8
_0-0_
  6
CONTINUOUS
 62
    7
 10
87.463089413305227
 20
195.29644840025585
 40
2
 50
189.49423999999991
 51
270
  0
ARC
  8
_0-0_
  6
CONTINUOUS
 62
    7
 10
100.29874441330526
 20
192.29644840025583
 40
1
 50
180
 51
270
  0
ARC
  8
_0-0_
  6
CONTINUOUS
 62
    7
 10
100.633232413305
 20
188.97893540025592
 40
3
 50
0.000003
 51
39.730469999999997
  0
ARC
  8
_0-0_
  6
CONTINUOUS
 62
    7
 10
96.995926413305313
 20
188.97893540025609
 40
3
 50
0.000003
 51
39.730469999999997
  0
ARC
  8
_0-0_
  6
CONTINUOUS
 62
    7
 10
96.595932413305036
 20
188.97033040025593
 40
3
 50
0.000003
 51
30.57807
  0
ARC
  8
_0-0_
  6
CONTINUOUS
 62
    7
 10
89.809036413305307
 20
178.08762340025612
 40
8.2264400000000002
 50
93.750111000000004
 51
256.26387799999998
  0
ARC
  8
_0-0_
  6
CONTINUOUS
 62
    7
 10
88.809037413305134
 20
178.08762340025595
 40
8.2264400000000002
 50
93.750111000000004
 51
256.26387799999998
  0
ARC
  8
_0-0_
  6
CONTINUOUS
 62
    7
 10
87.855663413305308
 20
174.09646240025597
 40
4
 50
270
 51
300.14054299999998
  0
ARC
  8
_0-0_
  6
CONTINUOUS
 62
    7
 10
105.33805041330521
 20
174.9964494002559
 40
4
 50
90
 51
120.14054299999989
  0
ARC
  8
_0-0_
  6
CONTINUOUS
 62
    7
 10
88.520970413305236
 20
187.29645640025606
 40
1.250014999999999
 50
306.87024100000002
 51
53.129759000000007
  0
LINE
  8
_0-0_
  6
CONTINUOUS
 62
    7
 10
96.557116852962508
 20
213.49644540025582
 11
93.798744413305087
 21
213.49644540025582
  0
LINE
  8
_0-0_
  6
CONTINUOUS
 62
    7
 10
87.463089413305056
 20
213.29644840025583
 11
96.757113852962448
 21
213.29644840025583
  0
ARC
  8
_0-0_
  6
CONTINUOUS
 62
    7
 10
144.71498441330505
 20
203.29644840025608
 40
41.016238000000001
 50
175.87276923476497
 51
201.45118899999994
  0
LINE
  8
_0-0_
  6
CONTINUOUS
 62
    7
 10
116.26792941330541
 20
178.45563540025591
 11
129.73333441330522
 21
170.63727740025593
  0
LINE
  8
_0-0_
  6
CONTINUOUS
 62
    7
 10
131.74182541330515
 20
170.09646240025586
 11
132.74182441330532
 21
170.09646240025586
  0
ARC
  8
_0-0_
  6
CONTINUOUS
 62
    7
 10
118.96425641330546
 20
188.97893540025592
 40
3
 50
140.26953
 51
179.99999700000001
  0
ARC
  8
_0-0_
  6
CONTINUOUS
 62
    7
 10
131.74182541330515
 20
174.09646240025597
 40
4
 50
239.85945700000002
 51
270
  0
ARC
  8
_0-0_
  6
CONTINUOUS
 62
    7
 10
114.25943841330525
 20
174.9964494002559
 40
4
 50
59.859457000000106
 51
90
  0
ARC
  8
_0-0_
  6
CONTINUOUS
 62
    7
 10
130.78845141330532
 20
178.08762340025595
 40
8.2264400000000002
 50
283.73612200000008
 51
320.80893144283027
  0
LINE
  8
_0-0_
  6
CONTINUOUS
 62
    7
 10
116.65707741330527
 20
190.8964664002558
 11
119.15709860227565
 21
190.89646365094271
  0
LINE
  8
_0-0_
  6
CONTINUOUS
 62
    7
 10
115.96425641330552
 20
179.59465140025569
 11
115.96425641330552
 21
188.97893540025592
  0
LINE
  8
_0-0_
  6
CONTINUOUS
 62
    7
 10
103.633232413305
 20
179.59465140025569
 11
103.633232413305
 21
188.97893540025592
  0
LINE
  8
_0-0_
  6
CONTINUOUS
 62
    7
 10
359.38268703585294
 20
196.9537048156534
 11
359.64284081303975
 21
168.00401143886245
  0
LINE
  8
_0-0_
  6
CONTINUOUS
 62
    7
 10
347.69337614262434
 20
162.99136187262263
 11
291.12483364770031
 21
219.55990436754644
  0
LINE
  8
_0-0_
  6
CONTINUOUS
 62
    7
 10
296.13748321394013
 20
231.50936903796207
 11
325.08717588362418
 21
231.24921596788215
  0
LINE
  8
_0-0_
  6
CONTINUOUS
 62
    7
 10
329.27590038578472
 20
229.49209875014765
 11
357.62556981811821
 21
201.14242931781371
  0
CIRCLE
  8
_0-0_
  6
CONTINUOUS
 62
    7
 10
296.0745811160063
 20
224.5096518358522
 40
2.6000000000000001
  0
ARC
  8
_0-0_
  6
CONTINUOUS
 62
    7
 10
352.6431236109301
 20
167.94110934092839
 40
7
 50
224.99998999999988
 51
0.5148689999999079
  0
CIRCLE
  8
_0-0_
  6
CONTINUOUS
 62
    7
 10
352.6431236109301
 20
167.94110934092839
 40
2.6000000000000001
  0
ARC
  8
_0-0_
  6
CONTINUOUS
 62
    7
 10
296.0745811160063
 20
224.5096518358522
 40
7
 50
89.485130999999996
 51
225.00001000000003
  0
CIRCLE
  8
_0-0_
  6
CONTINUOUS
 62
    7
 10
331.42992017533373
 20
203.29644840025583
 40
5.75
  0
CIRCLE
  8
_0-0_
  6
CONTINUOUS
 62
    7
 10
324.3588523634682
 20
224.5096518358522
 40
2.6000000000000001
  0
CIRCLE
  8
_0-0_
  6
CONTINUOUS
 62
    7
 10
352.6431236109301
 20
196.22538058839052
 40
2.6000000000000001
  0
CIRCLE
  8
_0-0_
  6
CONTINUOUS
 62
    7
 10
331.42992017533373
 20
203.29644840025583
 40
7.5
  0
ARC
  8
_0-0_
  6
CONTINUOUS
 62
    7
 10
331.42992017533373
 20
203.29644840025583
 40
19.300000000000001
 50
16.742528999999976
 51
73.257470999999995
  0
ARC
  8
_0-0_
  6
CONTINUOUS
 62
    7
 10
353.38292913099889
 20
196.89978863069462
 40
6
 50
0.5148689999999078
 51
44.999999999999986
  0
ARC
  8
_0-0_
  6
CONTINUOUS
 62
    7
 10
325.0332596986654
 20
225.2494580630281
 40
6
 50
45
 51
89.485130999999996
  0
ARC
  8
_0-0_
  6
CONTINUOUS
 62
    7
 10
281.2877311753337
 20
178.08762340025612
 40
8.2264400000000002
 50
93.750111000000004
 51
256.26387799999998
  0
LINE
  8
_0-0_
  6
CONTINUOUS
 62
    7
 10
314.42992017533373
 20
178.99644940025593
 11
305.96922617533369
 21
178.99644940025593
  0
LINE
  8
_0-0_
  6
CONTINUOUS
 62
    7
 10
304.2644081753337
 20
188.29646340025582
 11
314.42992017533356
 21
188.29646340025582
  0
LINE
  8
_0-0_
  6
CONTINUOUS
 62
    7
 10
306.44459517533375
 20
190.29644840025588
 11
303.95961817533367
 21
190.29644840025588
  0
LINE
  8
_0-0_
  6
CONTINUOUS
 62
    7
 10
303.5715871753336
 20
190.8964664002558
 11
299.93428417533363
 21
190.89646240025581
  0
LINE
  8
_0-0_
  6
CONTINUOUS
 62
    7
 10
299.93428417533363
 20
190.89646240025581
 11
299.80992217533355
 21
190.49646040025573
  0
LINE
  8
_0-0_
  6
CONTINUOUS
 62
    7
 10
300.92992017533339
 20
191.29644840025597
 11
306.12458417533384
 21
191.29644840025597
  0
LINE
  8
_0-0_
  6
CONTINUOUS
 62
    7
 10
305.5676211753335
 20
193.29644840025591
 11
288.09426517533387
 21
193.29644840025591
  0
LINE
  8
_0-0_
  6
CONTINUOUS
 62
    7
 10
286.65266517533382
 20
188.29646340025582
 11
300.2271081753334
 21
188.29646340025582
  0
LINE
  8
_0-0_
  6
CONTINUOUS
 62
    7
 10
300.2271081753334
 20
188.29646340025573
 11
300.6271021753335
 21
186.0700644002558
  0
LINE
  8
_0-0_
  6
CONTINUOUS
 62
    7
 10
300.62710217533362
 20
186.0700644002558
 11
300.62710217533362
 21
188.97893540025609
  0
LINE
  8
_0-0_
  6
CONTINUOUS
 62
    7
 10
300.2271081753334
 20
188.97033040025593
 11
300.2271081753334
 21
188.29646340025573
  0
LINE
  8
_0-0_
  6
CONTINUOUS
 62
    7
 10
299.92992017533351
 20
192.29644840025583
 11
299.92992017533351
 21
193.296448400256
  0
LINE
  8
_0-0_
  6
CONTINUOUS
 62
    7
 10
289.90216117533373
 20
186.29644840025594
 11
286.65266517533354
 21
186.29644840025594
  0
LINE
  8
_0-0_
  6
CONTINUOUS
 62
    7
 10
286.65266517533365
 20
186.29644840025577
 11
286.65266517533365
 21
188.2964634002559
  0
LINE
  8
_0-0_
  6
CONTINUOUS
 62
    7
 10
303.96073517533358
 20
178.45563540025591
 11
290.49533017533378
 21
170.63727740025593
  0
LINE
  8
_0-0_
  6
CONTINUOUS
 62
    7
 10
288.48683917533378
 20
170.09646240025586
 11
287.48684017533361
 21
170.09646240025586
  0
LINE
  8
_0-0_
  6
CONTINUOUS
 62
    7
 10
294.42992017533356
 20
213.49644540025596
 11
294.42992017533356
 21
213.29644840025583
  0
ARC
  8
_0-0_
  6
CONTINUOUS
 62
    7
 10
335.9299221753335
 20
203.29644840025577
 40
50.5
 50
170.50576000000001
 51
189.49423999999988
  0
ARC
  8
_0-0_
  6
CONTINUOUS
 62
    7
 10
288.0942651753337
 20
211.29644840025597
 40
2
 50
89.999989999999983
 51
170.50576000000001
  0
ARC
  8
_0-0_
  6
CONTINUOUS
 62
    7
 10
288.0942651753337
 20
195.29644840025585
 40
2
 50
189.49423999999991
 51
270
  0
ARC
  8
_0-0_
  6
CONTINUOUS
 62
    7
 10
300.92992017533373
 20
192.29644840025583
 40
1
 50
180
 51
270
  0
ARC
  8
_0-0_
  6
CONTINUOUS
 62
    7
 10
301.26440817533347
 20
188.97893540025592
 40
3
 50
0.000003
 51
39.730469999999997
  0
ARC
  8
_0-0_
  6
CONTINUOUS
 62
    7
 10
297.62710217533379
 20
188.97893540025609
 40
3
 50
0.000003
 51
39.730469999999997
  0
ARC
  8
_0-0_
  6
CONTINUOUS
 62
    7
 10
297.22710817533351
 20
188.97033040025593
 40
3
 50
0.000003
 51
30.57807
  0
ARC
  8
_0-0_
  6
CONTINUOUS
 62
    7
 10
290.44021217533378
 20
178.08762340025612
 40
8.2264400000000002
 50
93.750111000000004
 51
256.26387799999998
  0
ARC
  8
_0-0_
  6
CONTINUOUS
 62
    7
 10
289.44021317533361
 20
178.08762340025595
 40
8.2264400000000002
 50
93.750111000000004
 51
256.26387799999998
  0
ARC
  8
_0-0_
  6
CONTINUOUS
 62
    7
 10
288.48683917533378
 20
174.09646240025597
 40
4
 50
270
 51
300.14054299999998
  0
ARC
  8
_0-0_
  6
CONTINUOUS
 62
    7
 10
305.96922617533369
 20
174.9964494002559
 40
4
 50
90
 51
120.14054299999989
  0
ARC
  8
_0-0_
  6
CONTINUOUS
 62
    7
 10
289.15214617533371
 20
187.29645640025606
 40
1.250014999999999
 50
306.87024100000002
 51
53.129759000000007
  0
LINE
  8
_0-0_
  6
CONTINUOUS
 62
    7
 10
297.18829261499098
 20
213.49644540025582
 11
294.42992017533356
 21
213.49644540025582
  0
LINE
  8
_0-0_
  6
CONTINUOUS
 62
    7
 10
288.09426517533353
 20
213.29644840025583
 11
297.38828961499092
 21
213.29644840025583
  0
ARC
  8
_0-0_
  6
CONTINUOUS
 62
    7
 10
345.34616017533352
 20
203.29644840025608
 40
41.016238000000001
 50
175.87276923476497
 51
201.45118899999994
  0
LINE
  8
_0-0_
  6
CONTINUOUS
 62
    7
 10
316.89910517533389
 20
178.45563540025591
 11
330.36451017533369
 21
170.63727740025593
  0
LINE
  8
_0-0_
  6
CONTINUOUS
 62
    7
 10
332.37300117533363
 20
170.09646240025586
 11
333.3730001753338
 21
170.09646240025586
  0
ARC
  8
_0-0_
  6
CONTINUOUS
 62
    7
 10
319.59543217533394
 20
188.97893540025592
 40
3
 50
140.26953
 51
179.99999700000001
  0
ARC
  8
_0-0_
  6
CONTINUOUS
 62
    7
 10
332.37300117533363
 20
174.09646240025597
 40
4
 50
239.85945700000002
 51
270
  0
ARC
  8
_0-0_
  6
CONTINUOUS
 62
    7
 10
314.89061417533372
 20
174.9964494002559
 40
4
 50
59.859457000000106
 51
90
  0
ARC
  8
_0-0_
  6
CONTINUOUS
 62
    7
 10
331.4196271753338
 20
178.08762340025595
 40
8.2264400000000002
 50
283.73612200000008
 51
320.80893144283027
  0
LINE
  8
_0-0_
  6
CONTINUOUS
 62
    7
 10
317.28825317533375
 20
190.8964664002558
 11
319.78827436430413
 21
190.89646365094271
  0
LINE
  8
_0-0_
  6
CONTINUOUS
 62
    7
 10
316.595432175334
 20
179.59465140025569
 11
316.595432175334
 21
188.97893540025592
  0
LINE
  8
_0-0_
  6
CONTINUOUS
 62
    7
 10
304.26440817533347
 20
179.59465140025569
 11
304.26440817533347
 21
188.97893540025592
  0
LINE
  8
_0-0_
  6
CONTINUOUS
 62
    7
 10
256.57169142953131
 20
196.9537048156534
 11
256.83184520671813
 21
168.00401143886245
  0
LINE
  8
_0-0_
  6
CONTINUOUS
 62
    7
 10
244.88238053630272
 20
162.99136187262263
 11
188.31383804137869
 21
219.55990436754644
  0
LINE
  8
_0-0_
  6
CONTINUOUS
 62
    7
 10
193.3264876076185
 20
231.50936903796207
 11
222.27618027730256
 21
231.24921596788215
  0
LINE
  8
_0-0_
  6
CONTINUOUS
 62
    7
 10
226.4649047794631
 20
229.49209875014765
 11
254.81457421179658
 21
201.14242931781371
  0
CIRCLE
  8
_0-0_
  6
CONTINUOUS
 62
    7
 10
193.26358550968467
 20
224.5096518358522
 40
2.6000000000000001
  0
ARC
  8
_0-0_
  6
CONTINUOUS
 62
    7
 10
249.83212800460848
 20
167.94110934092839
 40
7
 50
224.99998999999988
 51
0.5148689999999079
  0
CIRCLE
  8
_0-0_
  6
CONTINUOUS
 62
    7
 10
249.83212800460848
 20
167.94110934092839
 40
2.6000000000000001
  0
ARC
  8
_0-0_
  6
CONTINUOUS
 62
    7
 10
193.26358550968467
 20
224.5096518358522
 40
7
 50
89.485130999999996
 51
225.00001000000003
  0
CIRCLE
  8
_0-0_
  6
CONTINUOUS
 62
    7
 10
228.61892456901211
 20
203.29644840025583
 40
5.75
  0
CIRCLE
  8
_0-0_
  6
CONTINUOUS
 62
    7
 10
221.54785675714658
 20
224.5096518358522
 40
2.6000000000000001
  0
CIRCLE
  8
_0-0_
  6
CONTINUOUS
 62
    7
 10
249.83212800460848
 20
196.22538058839052
 40
2.6000000000000001
  0
CIRCLE
  8
_0-0_
  6
CONTINUOUS
 62
    7
 10
228.61892456901211
 20
203.29644840025583
 40
7.5
  0
ARC
  8
_0-0_
  6
CONTINUOUS
 62
    7
 10
228.61892456901211
 20
203.29644840025583
 40
19.300000000000001
 50
16.742528999999976
 51
73.257470999999995
  0
ARC
  8
_0-0_
  6
CONTINUOUS
 62
    7
 10
250.57193352467726
 20
196.89978863069462
 40
6
 50
0.5148689999999078
 51
44.999999999999986
  0
ARC
  8
_0-0_
  6
CONTINUOUS
 62
    7
 10
222.22226409234378
 20
225.2494580630281
 40
6
 50
45
 51
89.485130999999996
  0
ARC
  8
_0-0_
  6
CONTINUOUS
 62
    7
 10
178.47673556901208
 20
178.08762340025612
 40
8.2264400000000002
 50
93.750111000000004
 51
256.26387799999998
  0
LINE
  8
_0-0_
  6
CONTINUOUS
 62
    7
 10
211.61892456901211
 20
178.99644940025593
 11
203.15823056901212
 21
178.99644940025593
  0
LINE
  8
_0-0_
  6
CONTINUOUS
 62
    7
 10
201.45341256901207
 20
188.29646340025582
 11
211.61892456901199
 21
188.29646340025582
  0
LINE
  8
_0-0_
  6
CONTINUOUS
 62
    7
 10
203.63359956901212
 20
190.29644840025588
 11
201.14862256901205
 21
190.29644840025588
  0
LINE
  8
_0-0_
  6
CONTINUOUS
 62
    7
 10
200.76059156901198
 20
190.8964664002558
 11
197.123288569012
 21
190.89646240025581
  0
LINE
  8
_0-0_
  6
CONTINUOUS
 62
    7
 10
197.123288569012
 20
190.89646240025581
 11
196.99892656901199
 21
190.49646040025573
  0
LINE
  8
_0-0_
  6
CONTINUOUS
 62
    7
 10
198.11892456901177
 20
191.29644840025597
 11
203.31358856901221
 21
191.29644840025597
  0
LINE
  8
_0-0_
  6
CONTINUOUS
 62
    7
 10
202.75662556901187
 20
193.29644840025591
 11
185.28326956901225
 21
193.29644840025591
  0
LINE
  8
_0-0_
  6
CONTINUOUS
 62
    7
 10
183.84166956901225
 20
188.29646340025582
 11
197.41611256901177
 21
188.29646340025582
  0
LINE
  8
_0-0_
  6
CONTINUOUS
 62
    7
 10
197.41611256901177
 20
188.29646340025573
 11
197.81610656901188
 21
186.0700644002558
  0
LINE
  8
_0-0_
  6
CONTINUOUS
 62
    7
 10
197.81610656901199
 20
186.0700644002558
 11
197.81610656901199
 21
188.97893540025609
  0
LINE
  8
_0-0_
  6
CONTINUOUS
 62
    7
 10
197.41611256901177
 20
188.97033040025593
 11
197.41611256901177
 21
188.29646340025573
  0
LINE
  8
_0-0_
  6
CONTINUOUS
 62
    7
 10
197.11892456901188
 20
192.29644840025583
 11
197.11892456901188
 21
193.296448400256
  0
LINE
  8
_0-0_
  6
CONTINUOUS
 62
    7
 10
187.09116556901216
 20
186.29644840025594
 11
183.84166956901191
 21
186.29644840025594
  0
LINE
  8
_0-0_
  6
CONTINUOUS
 62
    7
 10
183.84166956901203
 20
186.29644840025577
 11
183.84166956901203
 21
188.2964634002559
  0
LINE
  8
_0-0_
  6
CONTINUOUS
 62
    7
 10
201.14973956901196
 20
178.45563540025591
 11
187.68433456901215
 21
170.63727740025593
  0
LINE
  8
_0-0_
  6
CONTINUOUS
 62
    7
 10
185.67584356901222
 20
170.09646240025586
 11
184.67584456901199
 21
170.09646240025586
  0
LINE
  8
_0-0_
  6
CONTINUOUS
 62
    7
 10
191.61892456901199
 20
213.49644540025596
 11
191.61892456901199
 21
213.29644840025583
  0
ARC
  8
_0-0_
  6
CONTINUOUS
 62
    7
 10
233.11892656901188
 20
203.29644840025577
 40
50.5
 50
170.50576000000001
 51
189.49423999999988
  0
ARC
  8
_0-0_
  6
CONTINUOUS
 62
    7
 10
185.28326956901213
 20
211.29644840025597
 40
2
 50
89.999989999999983
 51
170.50576000000001
  0
ARC
  8
_0-0_
  6
CONTINUOUS
 62
    7
 10
185.28326956901213
 20
195.29644840025585
 40
2
 50
189.49423999999991
 51
270
  0
ARC
  8
_0-0_
  6
CONTINUOUS
 62
    7
 10
198.11892456901211
 20
192.29644840025583
 40
1
 50
180
 51
270
  0
ARC
  8
_0-0_
  6
CONTINUOUS
 62
    7
 10
198.45341256901185
 20
188.97893540025592
 40
3
 50
0.000003
 51
39.730469999999997
  0
ARC
  8
_0-0_
  6
CONTINUOUS
 62
    7
 10
194.81610656901222
 20
188.97893540025609
 40
3
 50
0.000003
 51
39.730469999999997
  0
ARC
  8
_0-0_
  6
CONTINUOUS
 62
    7
 10
194.41611256901189
 20
188.97033040025593
 40
3
 50
0.000003
 51
30.57807
  0
ARC
  8
_0-0_
  6
CONTINUOUS
 62
    7
 10
187.62921656901216
 20
178.08762340025612
 40
8.2264400000000002
 50
93.750111000000004
 51
256.26387799999998
  0
ARC
  8
_0-0_
  6
CONTINUOUS
 62
    7
 10
186.62921756901204
 20
178.08762340025595
 40
8.2264400000000002
 50
93.750111000000004
 51
256.26387799999998
  0
ARC
  8
_0-0_
  6
CONTINUOUS
 62
    7
 10
185.67584356901222
 20
174.09646240025597
 40
4
 50
270
 51
300.14054299999998
  0
ARC
  8
_0-0_
  6
CONTINUOUS
 62
    7
 10
203.15823056901212
 20
174.9964494002559
 40
4
 50
90
 51
120.14054299999989
  0
ARC
  8
_0-0_
  6
CONTINUOUS
 62
    7
 10
186.34115056901209
 20
187.29645640025606
 40
1.250014999999999
 50
306.87024100000002
 51
53.129759000000007
  0
LINE
  8
_0-0_
  6
CONTINUOUS
 62
    7
 10
194.37729700866936
 20
213.49644540025582
 11
191.61892456901199
 21
213.49644540025582
  0
LINE
  8
_0-0_
  6
CONTINUOUS
 62
    7
 10
185.28326956901191
 20
213.29644840025583
 11
194.5772940086693
 21
213.29644840025583
  0
ARC
  8
_0-0_
  6
CONTINUOUS
 62
    7
 10
242.5351645690119
 20
203.29644840025608
 40
41.016238000000001
 50
175.87276923476497
 51
201.45118899999994
  0
LINE
  8
_0-0_
  6
CONTINUOUS
 62
    7
 10
214.08810956901226
 20
178.45563540025591
 11
227.55351456901207
 21
170.63727740025593
  0
LINE
  8
_0-0_
  6
CONTINUOUS
 62
    7
 10
229.562005569012
 20
170.09646240025586
 11
230.56200456901223
 21
170.09646240025586
  0
ARC
  8
_0-0_
  6
CONTINUOUS
 62
    7
 10
216.78443656901237
 20
188.97893540025592
 40
3
 50
140.26953
 51
179.99999700000001
  0
ARC
  8
_0-0_
  6
CONTINUOUS
 62
    7
 10
229.562005569012
 20
174.09646240025597
 40
4
 50
239.85945700000002
 51
270
  0
ARC
  8
_0-0_
  6
CONTINUOUS
 62
    7
 10
212.0796185690121
 20
174.9964494002559
 40
4
 50
59.859457000000106
 51
90
  0
ARC
  8
_0-0_
  6
CONTINUOUS
 62
    7
 10
228.60863156901218
 20
178.08762340025595
 40
8.2264400000000002
 50
283.73612200000008
 51
320.80893144283027
  0
LINE
  8
_0-0_
  6
CONTINUOUS
 62
    7
 10
214.47725756901212
 20
190.8964664002558
 11
216.97727875798256
 21
190.89646365094271
  0
LINE
  8
_0-0_
  6
CONTINUOUS
 62
    7
 10
213.78443656901237
 20
179.59465140025569
 11
213.78443656901237
 21
188.97893540025592
  0
LINE
  8
_0-0_
  6
CONTINUOUS
 62
    7
 10
201.45341256901185
 20
179.59465140025569
 11
201.45341256901185
 21
188.97893540025592
  0
LINE
  8
_0-0_
  6
CONTINUOUS
 62
    7
 10
312.5019871753338
 20
65.890745711821808
 11
313.4654961753335
 21
65.164689711821836
  0
LINE
  8
_0-0_
  6
CONTINUOUS
 62
    7
 10
316.41378417533355
 20
71.081876711821849
 11
317.37729217533337
 21
70.355821711821761
  0
LINE
  8
_0-0_
  6
CONTINUOUS
 62
    7
 10
324.50114817533353
 20
71.386896711821635
 11
319.93198817533352
 21
82.151155711821673
  0
LINE
  8
_0-0_
  6
CONTINUOUS
 62
    7
 10
320.88055017533355
 20
82.475793711821723
 11
341.68396017533354
 21
91.306318711821518
  0
LINE
  8
_0-0_
  6
CONTINUOUS
 62
    7
 10
341.68396017533354
 20
91.306318711821518
 11
340.90250017533339
 21
93.147329711821499
  0
LINE
  8
_0-0_
  6
CONTINUOUS
 62
    7
 10
340.90250017533339
 20
93.147329711821499
 11
320.0990871753333
 21
84.316802711821481
  0
LINE
  8
_0-0_
  6
CONTINUOUS
 62
    7
 10
317.17851617533364
 20
84.013715711821703
 11
313.86440617533339
 21
84.666938711821501
  0
LINE
  8
_0-0_
  6
CONTINUOUS
 62
    7
 10
313.47764217533353
 20
82.704692711821906
 11
316.7917441753338
 21
82.051467711821886
  0
LINE
  8
_0-0_
  6
CONTINUOUS
 62
    7
 10
323.08591817533346
 20
82.398874711821634
 11
326.4904751753333
 21
74.378236711821671
  0
LINE
  8
_0-0_
  6
CONTINUOUS
 62
    7
 10
327.80827717533379
 20
77.160104711821702
 11
325.9088171753337
 21
78.627088711821841
  0
LINE
  8
_0-0_
  6
CONTINUOUS
 62
    7
 10
325.9088171753337
 20
78.627088711821841
 11
331.02650817533362
 21
85.253494711821702
  0
LINE
  8
_0-0_
  6
CONTINUOUS
 62
    7
 10
331.02650817533362
 20
85.253494711821702
 11
332.92596017533327
 21
83.786512711821786
  0
LINE
  8
_0-0_
  6
CONTINUOUS
 62
    7
 10
332.92596017533327
 20
83.786512711821786
 11
327.80827717533379
 21
77.160104711821702
  0
LINE
  8
_0-0_
  6
CONTINUOUS
 62
    7
 10
328.0314061753333
 20
81.375431711821591
 11
329.93086617533339
 21
79.908449711821675
  0
LINE
  8
_0-0_
  6
CONTINUOUS
 62
    7
 10
330.78660917533347
 20
81.016466711821693
 11
328.88715017533372
 21
82.483447711821725
  0
LINE
  8
_0-0_
  6
CONTINUOUS
 62
    7
 10
336.65915017533365
 20
86.508571711821503
 11
336.67751017533368
 21
86.465305711821827
  0
LINE
  8
_0-0_
  6
CONTINUOUS
 62
    7
 10
292.20779417533362
 20
72.477651711821807
 11
291.89520617533339
 21
73.214059711821562
  0
LINE
  8
_0-0_
  6
CONTINUOUS
 62
    7
 10
291.89520617533339
 20
73.214059711821562
 11
295.76132617533352
 21
74.855127711821922
  0
LINE
  8
_0-0_
  6
CONTINUOUS
 62
    7
 10
295.76132617533352
 20
74.855127711821922
 11
295.95752317533373
 21
74.392915711821558
  0
LINE
  8
_0-0_
  6
CONTINUOUS
 62
    7
 10
296.75587817533363
 20
75.344819711821572
 11
298.58816117533337
 21
78.182554711821638
  0
LINE
  8
_0-0_
  6
CONTINUOUS
 62
    7
 10
300.26835217533329
 20
77.097681711821849
 11
298.43607317533355
 21
74.259946711821783
  0
LINE
  8
_0-0_
  6
CONTINUOUS
 62
    7
 10
296.77349117533362
 20
72.470617711821603
 11
298.10571317533362
 21
69.332097711821632
  0
LINE
  8
_0-0_
  6
CONTINUOUS
 62
    7
 10
298.10571317533362
 20
69.332097711821632
 11
294.23959317533348
 21
67.691030711821611
  0
LINE
  8
_0-0_
  6
CONTINUOUS
 62
    7
 10
294.23959317533348
 20
67.691030711821611
 11
292.9892581753333
 21
70.636640711821826
  0
LINE
  8
_0-0_
  6
CONTINUOUS
 62
    7
 10
303.48255517533329
 20
72.68737971182162
 11
304.44605617533347
 21
71.961328711821523
  0
LINE
  8
_0-0_
  6
CONTINUOUS
 62
    7
 10
307.39435217533349
 20
77.878507711821555
 11
308.35785317533367
 21
77.152456711821912
  0
LINE
  8
_0-0_
  6
CONTINUOUS
 62
    7
 10
307.05237917533344
 20
82.037885711821843
 11
305.21136817533346
 21
81.256423711821469
  0
LINE
  8
_0-0_
  6
CONTINUOUS
 62
    7
 10
304.42990517533343
 20
83.097433711821566
 11
306.27091617533341
 21
83.878894711821602
  0
LINE
  8
_0-0_
  6
CONTINUOUS
 62
    7
 10
326.7334711753337
 20
67.960176711821703
 11
322.37681917533376
 21
60.414236711821729
  0
ARC
  8
_0-0_
  6
CONTINUOUS
 62
    7
 10
306.28816617533352
 20
81.27895571182188
 40
20
 50
257.53532999999987
 51
328.46465999999998
  0
ARC
  8
_0-0_
  6
CONTINUOUS
 62
    7
 10
312.09482217533326
 20
95.36779071182184
 40
27
 50
294.60028
 51
335.29295999999988
  0
ARC
  8
_0-0_
  6
CONTINUOUS
 62
    7
 10
292.11986917533335
 20
86.888925711821855
 40
27
 50
250.70703999999989
 51
291.39972
  0
ARC
  8
_0-0_
  6
CONTINUOUS
 62
    7
 10
311.35042217533368
 20
71.912336711821524
 40
13
 50
78.849698000000004
 51
113
  0
ARC
  8
_0-0_
  6
CONTINUOUS
 62
    7
 10
309.50941817533334
 20
71.130872711821837
 40
13
 50
113
 51
147.15030999999999
  0
ARC
  8
_0-0_
  6
CONTINUOUS
 62
    7
 10
318.1454351753336
 20
88.919330711821829
 40
5
 50
258.84969999999993
 51
293
  0
ARC
  8
_0-0_
  6
CONTINUOUS
 62
    7
 10
292.55540117533332
 20
78.057004711821889
 40
5
 50
293
 51
327.15030000000002
  0
ARC
  8
_0-0_
  6
CONTINUOUS
 62
    7
 10
292.55540117533332
 20
78.057004711821889
 40
7
 50
293
 51
327.15030000000002
  0
ARC
  8
_0-0_
  6
CONTINUOUS
 62
    7
 10
309.50941817533334
 20
71.130872711821837
 40
11
 50
113
 51
147.15030999999999
  0
ARC
  8
_0-0_
  6
CONTINUOUS
 62
    7
 10
311.35042217533368
 20
71.912336711821524
 40
11
 50
78.849698000000004
 51
113
  0
ARC
  8
_0-0_
  6
CONTINUOUS
 62
    7
 10
318.1454351753336
 20
88.919330711821829
 40
7
 50
258.84969999999993
 51
293
  0
ARC
  8
_0-0_
  6
CONTINUOUS
 62
    7
 10
305.43845017533334
 20
75.282949711821573
 40
3.25
 50
53
 51
232.99998999999997
  0
ARC
  8
_0-0_
  6
CONTINUOUS
 62
    7
 10
315.42139017533367
 20
67.760259711821789
 40
3.25
 50
233.00000999999992
 51
52.999999999999986
  0
ARC
  8
_0-0_
  6
CONTINUOUS
 62
    7
 10
333.8976321753334
 20
85.336376711821856
 40
3
 50
335.29295999999988
 51
23.000000000000025
  0
ARC
  8
_0-0_
  6
CONTINUOUS
 62
    7
 10
338.97878017533361
 20
87.442132711821785
 40
2.5
 50
113
 51
202.51039999999998
  0
LINE
  8
_0-0_
  6
CONTINUOUS
 62
    7
 10
315.12991717533345
 20
107.72160771182155
 11
347.72992017533346
 21
107.72160771182155
  0
LINE
  8
_0-0_
  6
CONTINUOUS
 62
    7
 10
347.72992017533346
 20
107.72160771182155
 11
347.72992017533346
 21
106.12160771182164
  0
LINE
  8
_0-0_
  6
CONTINUOUS
 62
    7
 10
347.72992017533346
 20
106.12160771182164
 11
315.12991717533345
 21
106.12160771182164
  0
LINE
  8
_0-0_
  6
CONTINUOUS
 62
    7
 10
315.12991717533345
 20
106.12160771182164
 11
315.12991717533345
 21
107.72160771182155
  0
LINE
  8
_0-0_
  6
CONTINUOUS
 62
    7
 10
315.68748817533373
 20
105.48160471182166
 11
347.17235017533352
 21
105.48160471182166
  0
LINE
  8
_0-0_
  6
CONTINUOUS
 62
    7
 10
350.15128017533328
 20
102.83665171182167
 11
350.72992017533346
 21
97.981671711821605
  0
LINE
  8
_0-0_
  6
CONTINUOUS
 62
    7
 10
350.72992017533346
 20
97.981672711821489
 11
350.72992017533346
 21
97.248554711821839
  0
LINE
  8
_0-0_
  6
CONTINUOUS
 62
    7
 10
350.72992017533346
 20
97.248554711821839
 11
341.77996017533354
 21
96.936015711821824
  0
LINE
  8
_0-0_
  6
CONTINUOUS
 62
    7
 10
335.62942017533345
 20
93.700157711821817
 11
323.01227217533364
 21
76.654478711821582
  0
LINE
  8
_0-0_
  6
CONTINUOUS
 62
    7
 10
322.99517417533337
 20
76.689760711821862
 11
324.46796817533362
 21
73.649877711821489
  0
LINE
  8
_0-0_
  6
CONTINUOUS
 62
    7
 10
322.66808717533371
 20
72.777856711821812
 11
321.19529317533346
 21
75.81773971182173
  0
LINE
  8
_0-0_
  6
CONTINUOUS
 62
    7
 10
313.67992017533373
 20
76.565164711821751
 11
313.67992017533373
 21
77.771604711821681
  0
LINE
  8
_0-0_
  6
CONTINUOUS
 62
    7
 10
315.06389217533336
 20
81.547883711821839
 11
316.79594017533367
 21
80.547883711821839
  0
LINE
  8
_0-0_
  6
CONTINUOUS
 62
    7
 10
317.79594017533367
 20
82.279933711821911
 11
316.06389217533336
 21
83.279933711821911
  0
LINE
  8
_0-0_
  6
CONTINUOUS
 62
    7
 10
318.42992017533373
 20
81.889284711821517
 11
318.42992017533373
 21
101.76222471182166
  0
LINE
  8
_0-0_
  6
CONTINUOUS
 62
    7
 10
315.57485617533342
 20
103.02908171182173
 11
304.32990617533363
 21
101.04629471182136
  0
LINE
  8
_0-0_
  6
CONTINUOUS
 62
    7
 10
304.32992217533359
 20
101.04629171182171
 11
304.67721217533352
 21
99.076674711821511
  0
LINE
  8
_0-0_
  6
CONTINUOUS
 62
    7
 10
304.67721217533352
 20
99.076679711821839
 11
307.13923217533346
 21
99.510800711821616
  0
LINE
  8
_0-0_
  6
CONTINUOUS
 62
    7
 10
307.15594817533355
 20
99.41600971182163
 11
306.79193517533344
 21
101.4804117118216
  0
LINE
  8
_0-0_
  6
CONTINUOUS
 62
    7
 10
307.16186117533351
 20
99.106464711821559
 11
305.19102817533343
 21
84.738475711821764
  0
LINE
  8
_0-0_
  6
CONTINUOUS
 62
    7
 10
305.25403217533352
 20
84.743045711821821
 11
308.62304317533375
 21
84.987512711821807
  0
LINE
  8
_0-0_
  6
CONTINUOUS
 62
    7
 10
308.76778817533335
 20
82.992759711821861
 11
305.39877717533358
 21
82.748292711821875
  0
LINE
  8
_0-0_
  6
CONTINUOUS
 62
    7
 10
302.96919617533371
 20
82.999244711821746
 11
301.26440817533324
 21
80.046474711821872
  0
LINE
  8
_0-0_
  6
CONTINUOUS
 62
    7
 10
301.26440817533324
 20
80.046474711821872
 11
297.62710917533371
 21
82.146472711821559
  0
LINE
  8
_0-0_
  6
CONTINUOUS
 62
    7
 10
297.62710917533371
 20
82.146472711821559
 11
299.22710817533351
 21
84.917755711821599
  0
LINE
  8
_0-0_
  6
CONTINUOUS
 62
    7
 10
300.22710817533329
 20
86.649805711821671
 11
300.62710917533371
 21
87.342624711821543
  0
LINE
  8
_0-0_
  6
CONTINUOUS
 62
    7
 10
300.62710917533371
 20
87.342624711821543
 11
304.26441617533368
 21
85.242626711821856
  0
LINE
  8
_0-0_
  6
CONTINUOUS
 62
    7
 10
304.26441617533368
 20
85.242626711821856
 11
304.01334717533331
 21
84.807771711821886
  0
LINE
  8
_0-0_
  6
CONTINUOUS
 62
    7
 10
302.39217017533332
 20
85.399805711821671
 11
282.21377517533341
 21
97.049809711821695
  0
LINE
  8
_0-0_
  6
CONTINUOUS
 62
    7
 10
282.21377217533353
 20
97.049807711821472
 11
281.21377217533353
 21
95.317756711821517
  0
LINE
  8
_0-0_
  6
CONTINUOUS
 62
    7
 10
281.21377517533341
 20
95.317758711821739
 11
301.39217017533355
 21
83.667755711821599
  0
LINE
  8
_0-0_
  6
CONTINUOUS
 62
    7
 10
307.17992017533328
 20
77.771604711821681
 11
307.17992017533328
 21
76.565164711821751
  0
LINE
  8
_0-0_
  6
CONTINUOUS
 62
    7
 10
307.17992017533328
 20
66.47804471182161
 11
307.17992017533328
 21
65.271604711821681
  0
LINE
  8
_0-0_
  6
CONTINUOUS
 62
    7
 10
313.67992017533373
 20
65.271604711821681
 11
313.67992017533373
 21
66.47804471182161
  0
LINE
  8
_0-0_
  6
CONTINUOUS
 62
    7
 10
318.79061517533358
 20
60.202753711821686
 11
324.63754617533363
 21
70.329935711821861
  0
LINE
  8
_0-0_
  6
CONTINUOUS
 62
    7
 10
325.46767017533369
 20
69.767755711821508
 11
345.03984017533361
 21
58.467756711821664
  0
LINE
  8
_0-0_
  6
CONTINUOUS
 62
    7
 10
345.03984017533361
 20
58.467756711821664
 11
346.03984017533361
 21
60.199808711821504
  0
LINE
  8
_0-0_
  6
CONTINUOUS
 62
    7
 10
346.03984017533361
 20
60.199808711821504
 11
326.46767017533369
 21
71.499807711821802
  0
LINE
  8
_0-0_
  6
CONTINUOUS
 62
    7
 10
325.42004817533365
 20
63.435796711821865
 11
333.79203417533375
 21
63.336500711821543
  0
LINE
  8
_0-0_
  6
CONTINUOUS
 62
    7
 10
333.79203417533375
 20
63.336500711821543
 11
333.76357617533353
 21
60.936666711821715
  0
LINE
  8
_0-0_
  6
CONTINUOUS
 62
    7
 10
333.76357617533353
 20
60.936666711821715
 11
325.39158217533344
 21
61.035963711821921
  0
LINE
  8
_0-0_
  6
CONTINUOUS
 62
    7
 10
325.39158217533344
 20
61.035963711821921
 11
325.42004817533365
 21
63.435796711821865
  0
LINE
  8
_0-0_
  6
CONTINUOUS
 62
    7
 10
328.89238317533358
 20
63.394613711821592
 11
328.86391817533325
 21
60.994779711821764
  0
LINE
  8
_0-0_
  6
CONTINUOUS
 62
    7
 10
330.26381317533372
 20
60.978177711821616
 11
330.29227817533359
 21
63.378007711821908
  0
LINE
  8
_0-0_
  6
CONTINUOUS
 62
    7
 10
338.18418017533344
 20
59.593397711821751
 11
338.16068017533365
 21
59.55269471182163
  0
LINE
  8
_0-0_
  6
CONTINUOUS
 62
    7
 10
312.27991817533342
 20
102.44809071182146
 11
313.03257417533354
 21
103.87853671182131
  0
LINE
  8
_0-0_
  6
CONTINUOUS
 62
    7
 10
289.0745811160063
 20
110.22160771182155
 11
359.64284098412776
 21
110.22160771182155
  0
LINE
  8
_0-0_
  6
CONTINUOUS
 62
    7
 10
359.64284098412776
 20
110.22160771182155
 11
359.64284098412776
 21
112.52160671182145
  0
LINE
  8
_0-0_
  6
CONTINUOUS
 62
    7
 10
359.64284098412776
 20
112.52160671182145
 11
289.0745811160063
 21
112.52160671182145
  0
LINE
  8
_0-0_
  6
CONTINUOUS
 62
    7
 10
289.0745811160063
 20
112.52160671182145
 11
289.0745811160063
 21
110.22160771182155
  0
LINE
  8
_0-0_
  6
CONTINUOUS
 62
    7
 10
286.9491541753336
 20
90.85173471182145
 11
286.22265217533362
 21
89.593399711821462
  0
ARC
  8
_0-0_
  6
CONTINUOUS
 62
    7
 10
315.68748817533373
 20
102.48160471182166
 40
3
 50
89.99998199999996
 51
152.24815000000001
  0
ARC
  8
_0-0_
  6
CONTINUOUS
 62
    7
 10
347.17235017533352
 20
102.48160471182166
 40
3
 50
6.7968019999999996
 51
89.99998199999996
  0
ARC
  8
_0-0_
  6
CONTINUOUS
 62
    7
 10
306.17113917533328
 20
99.242360711821789
 40
1
 50
352.18957999999992
 51
10.000000000000023
  0
ARC
  8
_0-0_
  6
CONTINUOUS
 62
    7
 10
342.05916017533349
 20
88.940887711821858
 40
8
 50
92.000031999999976
 51
143.32581999999996
  0
ARC
  8
_0-0_
  6
CONTINUOUS
 62
    7
 10
327.37117417533358
 20
106.50610771182176
 40
1.984499999999999
 50
191.17178000000004
 51
211.08122000000003
  0
ARC
  8
_0-0_
  6
CONTINUOUS
 62
    7
 10
318.76381317533327
 20
106.91037071182166
 40
3.5
 50
108.90309999999999
 51
162.9964699999999
  0
ARC
  8
_0-0_
  6
CONTINUOUS
 62
    7
 10
315.12991717533345
 20
108.02160771182173
 40
0.2999999999999998
 50
270.00002000000006
 51
342.99647999999991
  0
ARC
  8
_0-0_
  6
CONTINUOUS
 62
    7
 10
318.92992017533373
 20
106.50610771182176
 40
1.984499999999999
 50
191.17178999999996
 51
211.08122
  0
ARC
  8
_0-0_
  6
CONTINUOUS
 62
    7
 10
331.42992017533373
 20
106.50610771182176
 40
1.984499999999999
 50
191.17178000000004
 51
211.08122000000003
  0
ARC
  8
_0-0_
  6
CONTINUOUS
 62
    7
 10
320.96533617533345
 20
106.50610771182176
 40
1.984499999999999
 50
191.17178999999996
 51
211.08122
  0
ARC
  8
_0-0_
  6
CONTINUOUS
 62
    7
 10
319.31241217533346
 20
106.50610771182176
 40
1.984499999999999
 50
191.17178999999996
 51
211.08122
  0
ARC
  8
_0-0_
  6
CONTINUOUS
 62
    7
 10
343.54743017533377
 20
106.50610771182176
 40
1.984499999999999
 50
328.91877999999991
 51
348.82819000000001
  0
ARC
  8
_0-0_
  6
CONTINUOUS
 62
    7
 10
343.92992017533373
 20
106.50610771182176
 40
1.984499999999999
 50
328.91877999999991
 51
348.82817999999992
  0
ARC
  8
_0-0_
  6
CONTINUOUS
 62
    7
 10
339.10758017533357
 20
106.50610771182176
 40
1.984499999999999
 50
204.24534999999997
 51
211.08122000000003
  0
ARC
  8
_0-0_
  6
CONTINUOUS
 62
    7
 10
344.0960301753334
 20
106.91037071182166
 40
3.5
 50
17.003495999999998
 51
71.096859999999978
  0
ARC
  8
_0-0_
  6
CONTINUOUS
 62
    7
 10
347.72992017533346
 20
108.02160771182173
 40
0.2999999999999998
 50
197.00351000000001
 51
269.99995999999987
  0
ARC
  8
_0-0_
  6
CONTINUOUS
 62
    7
 10
335.48867017533343
 20
106.50610771182176
 40
1.984499999999999
 50
191.17178000000004
 51
211.08122000000003
  0
ARC
  8
_0-0_
  6
CONTINUOUS
 62
    7
 10
331.42992017533373
 20
106.50610771182176
 40
1.984499999999999
 50
328.91877999999991
 51
348.82819999999992
  0
ARC
  8
_0-0_
  6
CONTINUOUS
 62
    7
 10
323.75226217533367
 20
106.50610771182176
 40
1.984499999999999
 50
328.91877999999991
 51
335.75463999999988
  0
ARC
  8
_0-0_
  6
CONTINUOUS
 62
    7
 10
327.37117417533358
 20
106.50610771182176
 40
1.984499999999999
 50
328.91877999999991
 51
348.82819999999992
  0
ARC
  8
_0-0_
  6
CONTINUOUS
 62
    7
 10
335.48867017533343
 20
106.50610771182176
 40
1.984499999999999
 50
328.91877999999991
 51
348.82819999999992
  0
ARC
  8
_0-0_
  6
CONTINUOUS
 62
    7
 10
339.10758017533357
 20
106.50610771182176
 40
1.984499999999999
 50
328.91877999999991
 51
348.82819000000001
  0
ARC
  8
_0-0_
  6
CONTINUOUS
 62
    7
 10
323.75226217533367
 20
106.50610771182176
 40
1.984499999999999
 50
191.17178999999996
 51
211.08122
  0
ARC
  8
_0-0_
  6
CONTINUOUS
 62
    7
 10
341.89450017533358
 20
106.50610771182176
 40
1.984499999999999
 50
328.91877999999991
 51
348.82819000000001
  0
ARC
  8
_0-0_
  6
CONTINUOUS
 62
    7
 10
310.42992017533373
 20
71.521604711821681
 40
25
 50
98.382604999999998
 51
131.33707999999999
  0
ARC
  8
_0-0_
  6
CONTINUOUS
 62
    7
 10
310.42992017533373
 20
71.521604711821681
 40
25
 50
153.97267999999991
 51
326.02733000000001
  0
ARC
  8
_0-0_
  6
CONTINUOUS
 62
    7
 10
310.42992017533373
 20
71.521604711821681
 40
25
 50
348.6629299999999
 51
36.964796
  0
ARC
  8
_0-0_
  6
CONTINUOUS
 62
    7
 10
315.72992317533357
 20
80.701473711821734
 40
20
 50
204.53532999999999
 51
275.46465999999998
  0
ARC
  8
_0-0_
  6
CONTINUOUS
 62
    7
 10
330.47629117533364
 20
84.542945711821801
 40
27
 50
241.60027999999994
 51
282.29295999999999
  0
ARC
  8
_0-0_
  6
CONTINUOUS
 62
    7
 10
311.68354417533368
 20
95.392946711821537
 40
27
 50
197.70704000000001
 51
238.39972
  0
ARC
  8
_0-0_
  6
CONTINUOUS
 62
    7
 10
311.29594817533365
 20
71.021604711821681
 40
13
 50
25.849695999999991
 51
59.999994999999991
  0
ARC
  8
_0-0_
  6
CONTINUOUS
 62
    7
 10
309.56389217533336
 20
72.021604711821681
 40
13
 50
59.999994999999998
 51
94.150299000000004
  0
ARC
  8
_0-0_
  6
CONTINUOUS
 62
    7
 10
328.96767017533369
 20
75.829935711821861
 40
5
 50
205.84970999999999
 51
239.99999999999989
  0
ARC
  8
_0-0_
  6
CONTINUOUS
 62
    7
 10
304.89217017533332
 20
89.729934711821556
 40
5
 50
239.99999999999989
 51
274.15030000000002
  0
ARC
  8
_0-0_
  6
CONTINUOUS
 62
    7
 10
304.89217017533332
 20
89.729934711821556
 40
7
 50
239.99999999999989
 51
274.15030000000002
  0
ARC
  8
_0-0_
  6
CONTINUOUS
 62
    7
 10
309.56389217533336
 20
72.021604711821681
 40
11
 50
59.999994999999998
 51
94.150299000000004
  0
ARC
  8
_0-0_
  6
CONTINUOUS
 62
    7
 10
311.29594817533365
 20
71.021604711821681
 40
11
 50
25.849695999999991
 51
59.999994999999991
  0
ARC
  8
_0-0_
  6
CONTINUOUS
 62
    7
 10
328.96767017533369
 20
75.829935711821861
 40
7
 50
205.84970999999999
 51
239.99999999999989
  0
ARC
  8
_0-0_
  6
CONTINUOUS
 62
    7
 10
310.42992017533373
 20
77.771604711821681
 40
3.25
 50
0
 51
180.00000999999997
  0
ARC
  8
_0-0_
  6
CONTINUOUS
 62
    7
 10
310.42992017533373
 20
65.271604711821681
 40
3.25
 50
180.00001
 51
0
  0
ARC
  8
_0-0_
  6
CONTINUOUS
 62
    7
 10
335.58611017533343
 20
61.093397711821751
 40
3
 50
282.29295999999999
 51
330
  0
ARC
  8
_0-0_
  6
CONTINUOUS
 62
    7
 10
288.82073617533337
 20
88.093397711821751
 40
3
 50
150.00001
 51
197.70704000000001
  0
ARC
  8
_0-0_
  6
CONTINUOUS
 62
    7
 10
340.32575017533367
 20
58.30269471182163
 40
2.5
 50
59.999994999999998
 51
149.51039999999989
  0
ARC
  8
_0-0_
  6
CONTINUOUS
 62
    7
 10
286.08313417533344
 20
91.351732711821683
 40
1
 50
330
 51
59.999994999999998
  0
CIRCLE
  8
_0-0_
  6
CONTINUOUS
 62
    7
 10
310.42992017533373
 20
71.521604711821681
 40
2
  0
CIRCLE
  8
_0-0_
  6
CONTINUOUS
 62
    7
 10
310.42992017533373
 20
71.521604711821681
 40
6
  0
ARC
  8
_0-0_
  6
CONTINUOUS
 62
    7
 10
310.42992017533373
 20
71.521604711821681
 40
11
 50
195.6087399999999
 51
284.39122999999989
  0
ARC
  8
_0-0_
  6
CONTINUOUS
 62
    7
 10
310.42992017533373
 20
71.521604711821681
 40
18
 50
356.38780000000003
 51
30.275818000000015
  0
ARC
  8
_0-0_
  6
CONTINUOUS
 62
    7
 10
310.42992017533373
 20
71.521604711821681
 40
18
 50
165.84379999999999
 51
314.15618999999992
  0
ARC
  8
_0-0_
  6
CONTINUOUS
 62
    7
 10
310.42992017533373
 20
71.521604711821681
 40
18
 50
104.9932
 51
120.73242
  0
LINE
  8
_0-0_
  6
CONTINUOUS
 62
    7
 10
209.69099156901217
 20
65.890745711821808
 11
210.65450056901187
 21
65.164689711821836
  0
LINE
  8
_0-0_
  6
CONTINUOUS
 62
    7
 10
213.60278856901192
 20
71.081876711821849
 11
214.56629656901174
 21
70.355821711821761
  0
LINE
  8
_0-0_
  6
CONTINUOUS
 62
    7
 10
221.6901525690119
 20
71.386896711821635
 11
217.12099256901189
 21
82.151155711821673
  0
LINE
  8
_0-0_
  6
CONTINUOUS
 62
    7
 10
218.06955456901193
 20
82.475793711821723
 11
238.87296456901191
 21
91.306318711821518
  0
LINE
  8
_0-0_
  6
CONTINUOUS
 62
    7
 10
238.87296456901191
 20
91.306318711821518
 11
238.09150456901176
 21
93.147329711821499
  0
LINE
  8
_0-0_
  6
CONTINUOUS
 62
    7
 10
238.09150456901176
 20
93.147329711821499
 11
217.28809156901167
 21
84.316802711821481
  0
LINE
  8
_0-0_
  6
CONTINUOUS
 62
    7
 10
214.36752056901202
 20
84.013715711821703
 11
211.05341056901176
 21
84.666938711821501
  0
LINE
  8
_0-0_
  6
CONTINUOUS
 62
    7
 10
210.6666465690119
 20
82.704692711821906
 11
213.98074856901218
 21
82.051467711821886
  0
LINE
  8
_0-0_
  6
CONTINUOUS
 62
    7
 10
220.27492256901184
 20
82.398874711821634
 11
223.67947956901168
 21
74.378236711821671
  0
LINE
  8
_0-0_
  6
CONTINUOUS
 62
    7
 10
224.99728156901216
 20
77.160104711821702
 11
223.09782156901207
 21
78.627088711821841
  0
LINE
  8
_0-0_
  6
CONTINUOUS
 62
    7
 10
223.09782156901207
 20
78.627088711821841
 11
228.21551256901199
 21
85.253494711821702
  0
LINE
  8
_0-0_
  6
CONTINUOUS
 62
    7
 10
228.21551256901199
 20
85.253494711821702
 11
230.11496456901165
 21
83.786512711821786
  0
LINE
  8
_0-0_
  6
CONTINUOUS
 62
    7
 10
230.11496456901165
 20
83.786512711821786
 11
224.99728156901216
 21
77.160104711821702
  0
LINE
  8
_0-0_
  6
CONTINUOUS
 62
    7
 10
225.22041056901168
 20
81.375431711821591
 11
227.11987056901177
 21
79.908449711821675
  0
LINE
  8
_0-0_
  6
CONTINUOUS
 62
    7
 10
227.97561356901184
 20
81.016466711821693
 11
226.07615456901209
 21
82.483447711821725
  0
LINE
  8
_0-0_
  6
CONTINUOUS
 62
    7
 10
233.84815456901202
 20
86.508571711821503
 11
233.86651456901205
 21
86.465305711821827
  0
LINE
  8
_0-0_
  6
CONTINUOUS
 62
    7
 10
189.39679856901199
 20
72.477651711821807
 11
189.08421056901176
 21
73.214059711821562
  0
LINE
  8
_0-0_
  6
CONTINUOUS
 62
    7
 10
189.08421056901176
 20
73.214059711821562
 11
192.9503305690119
 21
74.855127711821922
  0
LINE
  8
_0-0_
  6
CONTINUOUS
 62
    7
 10
192.9503305690119
 20
74.855127711821922
 11
193.14652756901211
 21
74.392915711821558
  0
LINE
  8
_0-0_
  6
CONTINUOUS
 62
    7
 10
193.94488256901201
 20
75.344819711821572
 11
195.77716556901174
 21
78.182554711821638
  0
LINE
  8
_0-0_
  6
CONTINUOUS
 62
    7
 10
197.45735656901167
 20
77.097681711821849
 11
195.62507756901192
 21
74.259946711821783
  0
LINE
  8
_0-0_
  6
CONTINUOUS
 62
    7
 10
193.96249556901199
 20
72.470617711821603
 11
195.29471756901199
 21
69.332097711821632
  0
LINE
  8
_0-0_
  6
CONTINUOUS
 62
    7
 10
195.29471756901199
 20
69.332097711821632
 11
191.42859756901186
 21
67.691030711821611
  0
LINE
  8
_0-0_
  6
CONTINUOUS
 62
    7
 10
191.42859756901186
 20
67.691030711821611
 11
190.17826256901168
 21
70.636640711821826
  0
LINE
  8
_0-0_
  6
CONTINUOUS
 62
    7
 10
200.67155956901166
 20
72.68737971182162
 11
201.63506056901184
 21
71.961328711821523
  0
LINE
  8
_0-0_
  6
CONTINUOUS
 62
    7
 10
204.58335656901187
 20
77.878507711821555
 11
205.54685756901205
 21
77.152456711821912
  0
LINE
  8
_0-0_
  6
CONTINUOUS
 62
    7
 10
204.24138356901182
 20
82.037885711821843
 11
202.40037256901184
 21
81.256423711821469
  0
LINE
  8
_0-0_
  6
CONTINUOUS
 62
    7
 10
201.61890956901181
 20
83.097433711821566
 11
203.45992056901179
 21
83.878894711821602
  0
LINE
  8
_0-0_
  6
CONTINUOUS
 62
    7
 10
223.92247556901208
 20
67.960176711821703
 11
219.56582356901214
 21
60.414236711821729
  0
ARC
  8
_0-0_
  6
CONTINUOUS
 62
    7
 10
203.47717056901189
 20
81.27895571182188
 40
20
 50
257.53532999999987
 51
328.46465999999998
  0
ARC
  8
_0-0_
  6
CONTINUOUS
 62
    7
 10
209.28382656901164
 20
95.36779071182184
 40
27
 50
294.60028
 51
335.29295999999988
  0
ARC
  8
_0-0_
  6
CONTINUOUS
 62
    7
 10
189.30887356901172
 20
86.888925711821855
 40
27
 50
250.70703999999989
 51
291.39972
  0
ARC
  8
_0-0_
  6
CONTINUOUS
 62
    7
 10
208.53942656901205
 20
71.912336711821524
 40
13
 50
78.849698000000004
 51
113
  0
ARC
  8
_0-0_
  6
CONTINUOUS
 62
    7
 10
206.69842256901171
 20
71.130872711821837
 40
13
 50
113
 51
147.15030999999999
  0
ARC
  8
_0-0_
  6
CONTINUOUS
 62
    7
 10
215.33443956901198
 20
88.919330711821829
 40
5
 50
258.84969999999993
 51
293
  0
ARC
  8
_0-0_
  6
CONTINUOUS
 62
    7
 10
189.74440556901169
 20
78.057004711821889
 40
5
 50
293
 51
327.15030000000002
  0
ARC
  8
_0-0_
  6
CONTINUOUS
 62
    7
 10
189.74440556901169
 20
78.057004711821889
 40
7
 50
293
 51
327.15030000000002
  0
ARC
  8
_0-0_
  6
CONTINUOUS
 62
    7
 10
206.69842256901171
 20
71.130872711821837
 40
11
 50
113
 51
147.15030999999999
  0
ARC
  8
_0-0_
  6
CONTINUOUS
 62
    7
 10
208.53942656901205
 20
71.912336711821524
 40
11
 50
78.849698000000004
 51
113
  0
ARC
  8
_0-0_
  6
CONTINUOUS
 62
    7
 10
215.33443956901198
 20
88.919330711821829
 40
7
 50
258.84969999999993
 51
293
  0
ARC
  8
_0-0_
  6
CONTINUOUS
 62
    7
 10
202.62745456901172
 20
75.282949711821573
 40
3.25
 50
53
 51
232.99998999999997
  0
ARC
  8
_0-0_
  6
CONTINUOUS
 62
    7
 10
212.61039456901204
 20
67.760259711821789
 40
3.25
 50
233.00000999999992
 51
52.999999999999986
  0
ARC
  8
_0-0_
  6
CONTINUOUS
 62
    7
 10
231.08663656901177
 20
85.336376711821856
 40
3
 50
335.29295999999988
 51
23.000000000000025
  0
ARC
  8
_0-0_
  6
CONTINUOUS
 62
    7
 10
236.16778456901199
 20
87.442132711821785
 40
2.5
 50
113
 51
202.51039999999998
  0
LINE
  8
_0-0_
  6
CONTINUOUS
 62
    7
 10
212.31892156901182
 20
107.72160771182155
 11
244.91892456901184
 21
107.72160771182155
  0
LINE
  8
_0-0_
  6
CONTINUOUS
 62
    7
 10
244.91892456901184
 20
107.72160771182155
 11
244.91892456901184
 21
106.12160771182164
  0
LINE
  8
_0-0_
  6
CONTINUOUS
 62
    7
 10
244.91892456901184
 20
106.12160771182164
 11
212.31892156901182
 21
106.12160771182164
  0
LINE
  8
_0-0_
  6
CONTINUOUS
 62
    7
 10
212.31892156901182
 20
106.12160771182164
 11
212.31892156901182
 21
107.72160771182155
  0
LINE
  8
_0-0_
  6
CONTINUOUS
 62
    7
 10
212.8764925690121
 20
105.48160471182166
 11
244.36135456901189
 21
105.48160471182166
  0
LINE
  8
_0-0_
  6
CONTINUOUS
 62
    7
 10
247.34028456901166
 20
102.83665171182167
 11
247.91892456901184
 21
97.981671711821605
  0
LINE
  8
_0-0_
  6
CONTINUOUS
 62
    7
 10
247.91892456901184
 20
97.981672711821489
 11
247.91892456901184
 21
97.248554711821839
  0
LINE
  8
_0-0_
  6
CONTINUOUS
 62
    7
 10
247.91892456901184
 20
97.248554711821839
 11
238.96896456901192
 21
96.936015711821824
  0
LINE
  8
_0-0_
  6
CONTINUOUS
 62
    7
 10
232.81842456901182
 20
93.700157711821817
 11
220.20127656901201
 21
76.654478711821582
  0
LINE
  8
_0-0_
  6
CONTINUOUS
 62
    7
 10
220.18417856901175
 20
76.689760711821862
 11
221.656972569012
 21
73.649877711821489
  0
LINE
  8
_0-0_
  6
CONTINUOUS
 62
    7
 10
219.85709156901208
 20
72.777856711821812
 11
218.38429756901184
 21
75.81773971182173
  0
LINE
  8
_0-0_
  6
CONTINUOUS
 62
    7
 10
210.86892456901211
 20
76.565164711821751
 11
210.86892456901211
 21
77.771604711821681
  0
LINE
  8
_0-0_
  6
CONTINUOUS
 62
    7
 10
212.25289656901174
 20
81.547883711821839
 11
213.98494456901204
 21
80.547883711821839
  0
LINE
  8
_0-0_
  6
CONTINUOUS
 62
    7
 10
214.98494456901204
 20
82.279933711821911
 11
213.25289656901174
 21
83.279933711821911
  0
LINE
  8
_0-0_
  6
CONTINUOUS
 62
    7
 10
215.61892456901211
 20
81.889284711821517
 11
215.61892456901211
 21
101.76222471182166
  0
LINE
  8
_0-0_
  6
CONTINUOUS
 62
    7
 10
212.7638605690118
 20
103.02908171182173
 11
201.51891056901201
 21
101.04629471182136
  0
LINE
  8
_0-0_
  6
CONTINUOUS
 62
    7
 10
201.51892656901197
 20
101.04629171182171
 11
201.8662165690119
 21
99.076674711821511
  0
LINE
  8
_0-0_
  6
CONTINUOUS
 62
    7
 10
201.8662165690119
 20
99.076679711821839
 11
204.32823656901184
 21
99.510800711821616
  0
LINE
  8
_0-0_
  6
CONTINUOUS
 62
    7
 10
204.34495256901192
 20
99.41600971182163
 11
203.98093956901181
 21
101.4804117118216
  0
LINE
  8
_0-0_
  6
CONTINUOUS
 62
    7
 10
204.35086556901189
 20
99.106464711821559
 11
202.3800325690118
 21
84.738475711821764
  0
LINE
  8
_0-0_
  6
CONTINUOUS
 62
    7
 10
202.44303656901189
 20
84.743045711821821
 11
205.81204756901212
 21
84.987512711821807
  0
LINE
  8
_0-0_
  6
CONTINUOUS
 62
    7
 10
205.95679256901172
 20
82.992759711821861
 11
202.58778156901195
 21
82.748292711821875
  0
LINE
  8
_0-0_
  6
CONTINUOUS
 62
    7
 10
200.15820056901208
 20
82.999244711821746
 11
198.45341256901162
 21
80.046474711821872
  0
LINE
  8
_0-0_
  6
CONTINUOUS
 62
    7
 10
198.45341256901162
 20
80.046474711821872
 11
194.81611356901209
 21
82.146472711821559
  0
LINE
  8
_0-0_
  6
CONTINUOUS
 62
    7
 10
194.81611356901209
 20
82.146472711821559
 11
196.41611256901189
 21
84.917755711821599
  0
LINE
  8
_0-0_
  6
CONTINUOUS
 62
    7
 10
197.41611256901166
 20
86.649805711821671
 11
197.81611356901209
 21
87.342624711821543
  0
LINE
  8
_0-0_
  6
CONTINUOUS
 62
    7
 10
197.81611356901209
 20
87.342624711821543
 11
201.45342056901205
 21
85.242626711821856
  0
LINE
  8
_0-0_
  6
CONTINUOUS
 62
    7
 10
201.45342056901205
 20
85.242626711821856
 11
201.20235156901168
 21
84.807771711821886
  0
LINE
  8
_0-0_
  6
CONTINUOUS
 62
    7
 10
199.58117456901169
 20
85.399805711821671
 11
179.40277956901178
 21
97.049809711821695
  0
LINE
  8
_0-0_
  6
CONTINUOUS
 62
    7
 10
179.40277656901191
 20
97.049807711821472
 11
178.40277656901191
 21
95.317756711821517
  0
LINE
  8
_0-0_
  6
CONTINUOUS
 62
    7
 10
178.40277956901178
 20
95.317758711821739
 11
198.58117456901192
 21
83.667755711821599
  0
LINE
  8
_0-0_
  6
CONTINUOUS
 62
    7
 10
204.36892456901165
 20
77.771604711821681
 11
204.36892456901165
 21
76.565164711821751
  0
LINE
  8
_0-0_
  6
CONTINUOUS
 62
    7
 10
204.36892456901165
 20
66.47804471182161
 11
204.36892456901165
 21
65.271604711821681
  0
LINE
  8
_0-0_
  6
CONTINUOUS
 62
    7
 10
210.86892456901211
 20
65.271604711821681
 11
210.86892456901211
 21
66.47804471182161
  0
LINE
  8
_0-0_
  6
CONTINUOUS
 62
    7
 10
215.97961956901196
 20
60.202753711821686
 11
221.826550569012
 21
70.329935711821861
  0
LINE
  8
_0-0_
  6
CONTINUOUS
 62
    7
 10
222.65667456901207
 20
69.767755711821508
 11
242.22884456901198
 21
58.467756711821664
  0
LINE
  8
_0-0_
  6
CONTINUOUS
 62
    7
 10
242.22884456901198
 20
58.467756711821664
 11
243.22884456901198
 21
60.199808711821504
  0
LINE
  8
_0-0_
  6
CONTINUOUS
 62
    7
 10
243.22884456901198
 20
60.199808711821504
 11
223.65667456901207
 21
71.499807711821802
  0
LINE
  8
_0-0_
  6
CONTINUOUS
 62
    7
 10
222.60905256901202
 20
63.435796711821865
 11
230.98103856901213
 21
63.336500711821543
  0
LINE
  8
_0-0_
  6
CONTINUOUS
 62
    7
 10
230.98103856901213
 20
63.336500711821543
 11
230.9525805690119
 21
60.936666711821715
  0
LINE
  8
_0-0_
  6
CONTINUOUS
 62
    7
 10
230.9525805690119
 20
60.936666711821715
 11
222.58058656901181
 21
61.035963711821921
  0
LINE
  8
_0-0_
  6
CONTINUOUS
 62
    7
 10
222.58058656901181
 20
61.035963711821921
 11
222.60905256901202
 21
63.435796711821865
  0
LINE
  8
_0-0_
  6
CONTINUOUS
 62
    7
 10
226.08138756901195
 20
63.394613711821592
 11
226.05292256901163
 21
60.994779711821764
  0
LINE
  8
_0-0_
  6
CONTINUOUS
 62
    7
 10
227.4528175690121
 20
60.978177711821616
 11
227.48128256901197
 21
63.378007711821908
  0
LINE
  8
_0-0_
  6
CONTINUOUS
 62
    7
 10
235.37318456901181
 20
59.593397711821751
 11
235.34968456901203
 21
59.55269471182163
  0
LINE
  8
_0-0_
  6
CONTINUOUS
 62
    7
 10
209.4689225690118
 20
102.44809071182146
 11
210.22157856901191
 21
103.87853671182131
  0
LINE
  8
_0-0_
  6
CONTINUOUS
 62
    7
 10
186.26358550968467
 20
110.22160771182155
 11
256.83184537780613
 21
110.22160771182155
  0
LINE
  8
_0-0_
  6
CONTINUOUS
 62
    7
 10
256.83184537780613
 20
110.22160771182155
 11
256.83184537780613
 21
112.52160671182145
  0
LINE
  8
_0-0_
  6
CONTINUOUS
 62
    7
 10
256.83184537780613
 20
112.52160671182145
 11
186.26358550968467
 21
112.52160671182145
  0
LINE
  8
_0-0_
  6
CONTINUOUS
 62
    7
 10
186.26358550968467
 20
112.52160671182145
 11
186.26358550968467
 21
110.22160771182155
  0
LINE
  8
_0-0_
  6
CONTINUOUS
 62
    7
 10
184.13815856901198
 20
90.85173471182145
 11
183.411656569012
 21
89.593399711821462
  0
ARC
  8
_0-0_
  6
CONTINUOUS
 62
    7
 10
212.8764925690121
 20
102.48160471182166
 40
3
 50
89.99998199999996
 51
152.24815000000001
  0
ARC
  8
_0-0_
  6
CONTINUOUS
 62
    7
 10
244.36135456901189
 20
102.48160471182166
 40
3
 50
6.7968019999999996
 51
89.99998199999996
  0
ARC
  8
_0-0_
  6
CONTINUOUS
 62
    7
 10
203.36014356901165
 20
99.242360711821789
 40
1
 50
352.18957999999992
 51
10.000000000000023
  0
ARC
  8
_0-0_
  6
CONTINUOUS
 62
    7
 10
239.24816456901186
 20
88.940887711821858
 40
8
 50
92.000031999999976
 51
143.32581999999996
  0
ARC
  8
_0-0_
  6
CONTINUOUS
 62
    7
 10
224.56017856901195
 20
106.50610771182176
 40
1.984499999999999
 50
191.17178000000004
 51
211.08122000000003
  0
ARC
  8
_0-0_
  6
CONTINUOUS
 62
    7
 10
215.95281756901164
 20
106.91037071182166
 40
3.5
 50
108.90309999999999
 51
162.9964699999999
  0
ARC
  8
_0-0_
  6
CONTINUOUS
 62
    7
 10
212.31892156901182
 20
108.02160771182173
 40
0.2999999999999998
 50
270.00002000000006
 51
342.99647999999991
  0
ARC
  8
_0-0_
  6
CONTINUOUS
 62
    7
 10
216.11892456901211
 20
106.50610771182176
 40
1.984499999999999
 50
191.17178999999996
 51
211.08122
  0
ARC
  8
_0-0_
  6
CONTINUOUS
 62
    7
 10
228.61892456901211
 20
106.50610771182176
 40
1.984499999999999
 50
191.17178000000004
 51
211.08122000000003
  0
ARC
  8
_0-0_
  6
CONTINUOUS
 62
    7
 10
218.15434056901182
 20
106.50610771182176
 40
1.984499999999999
 50
191.17178999999996
 51
211.08122
  0
ARC
  8
_0-0_
  6
CONTINUOUS
 62
    7
 10
216.50141656901184
 20
106.50610771182176
 40
1.984499999999999
 50
191.17178999999996
 51
211.08122
  0
ARC
  8
_0-0_
  6
CONTINUOUS
 62
    7
 10
240.73643456901215
 20
106.50610771182176
 40
1.984499999999999
 50
328.91877999999991
 51
348.82819000000001
  0
ARC
  8
_0-0_
  6
CONTINUOUS
 62
    7
 10
241.11892456901211
 20
106.50610771182176
 40
1.984499999999999
 50
328.91877999999991
 51
348.82817999999992
  0
ARC
  8
_0-0_
  6
CONTINUOUS
 62
    7
 10
236.29658456901194
 20
106.50610771182176
 40
1.984499999999999
 50
204.24534999999997
 51
211.08122000000003
  0
ARC
  8
_0-0_
  6
CONTINUOUS
 62
    7
 10
241.28503456901177
 20
106.91037071182166
 40
3.5
 50
17.003495999999998
 51
71.096859999999978
  0
ARC
  8
_0-0_
  6
CONTINUOUS
 62
    7
 10
244.91892456901184
 20
108.02160771182173
 40
0.2999999999999998
 50
197.00351000000001
 51
269.99995999999987
  0
ARC
  8
_0-0_
  6
CONTINUOUS
 62
    7
 10
232.6776745690118
 20
106.50610771182176
 40
1.984499999999999
 50
191.17178000000004
 51
211.08122000000003
  0
ARC
  8
_0-0_
  6
CONTINUOUS
 62
    7
 10
228.61892456901211
 20
106.50610771182176
 40
1.984499999999999
 50
328.91877999999991
 51
348.82819999999992
  0
ARC
  8
_0-0_
  6
CONTINUOUS
 62
    7
 10
220.94126656901204
 20
106.50610771182176
 40
1.984499999999999
 50
328.91877999999991
 51
335.75463999999988
  0
ARC
  8
_0-0_
  6
CONTINUOUS
 62
    7
 10
224.56017856901195
 20
106.50610771182176
 40
1.984499999999999
 50
328.91877999999991
 51
348.82819999999992
  0
ARC
  8
_0-0_
  6
CONTINUOUS
 62
    7
 10
232.6776745690118
 20
106.50610771182176
 40
1.984499999999999
 50
328.91877999999991
 51
348.82819999999992
  0
ARC
  8
_0-0_
  6
CONTINUOUS
 62
    7
 10
236.29658456901194
 20
106.50610771182176
 40
1.984499999999999
 50
328.91877999999991
 51
348.82819000000001
  0
ARC
  8
_0-0_
  6
CONTINUOUS
 62
    7
 10
220.94126656901204
 20
106.50610771182176
 40
1.984499999999999
 50
191.17178999999996
 51
211.08122
  0
ARC
  8
_0-0_
  6
CONTINUOUS
 62
    7
 10
239.08350456901195
 20
106.50610771182176
 40
1.984499999999999
 50
328.91877999999991
 51
348.82819000000001
  0
ARC
  8
_0-0_
  6
CONTINUOUS
 62
    7
 10
207.61892456901211
 20
71.521604711821681
 40
25
 50
98.382604999999998
 51
131.33707999999999
  0
ARC
  8
_0-0_
  6
CONTINUOUS
 62
    7
 10
207.61892456901211
 20
71.521604711821681
 40
25
 50
153.97267999999991
 51
326.02733000000001
  0
ARC
  8
_0-0_
  6
CONTINUOUS
 62
    7
 10
207.61892456901211
 20
71.521604711821681
 40
25
 50
348.6629299999999
 51
36.964796
  0
ARC
  8
_0-0_
  6
CONTINUOUS
 62
    7
 10
212.91892756901194
 20
80.701473711821734
 40
20
 50
204.53532999999999
 51
275.46465999999998
  0
ARC
  8
_0-0_
  6
CONTINUOUS
 62
    7
 10
227.66529556901202
 20
84.542945711821801
 40
27
 50
241.60027999999994
 51
282.29295999999999
  0
ARC
  8
_0-0_
  6
CONTINUOUS
 62
    7
 10
208.87254856901205
 20
95.392946711821537
 40
27
 50
197.70704000000001
 51
238.39972
  0
ARC
  8
_0-0_
  6
CONTINUOUS
 62
    7
 10
208.48495256901202
 20
71.021604711821681
 40
13
 50
25.849695999999991
 51
59.999994999999991
  0
ARC
  8
_0-0_
  6
CONTINUOUS
 62
    7
 10
206.75289656901174
 20
72.021604711821681
 40
13
 50
59.999994999999998
 51
94.150299000000004
  0
ARC
  8
_0-0_
  6
CONTINUOUS
 62
    7
 10
226.15667456901207
 20
75.829935711821861
 40
5
 50
205.84970999999999
 51
239.99999999999989
  0
ARC
  8
_0-0_
  6
CONTINUOUS
 62
    7
 10
202.08117456901169
 20
89.729934711821556
 40
5
 50
239.99999999999989
 51
274.15030000000002
  0
ARC
  8
_0-0_
  6
CONTINUOUS
 62
    7
 10
202.08117456901169
 20
89.729934711821556
 40
7
 50
239.99999999999989
 51
274.15030000000002
  0
ARC
  8
_0-0_
  6
CONTINUOUS
 62
    7
 10
206.75289656901174
 20
72.021604711821681
 40
11
 50
59.999994999999998
 51
94.150299000000004
  0
ARC
  8
_0-0_
  6
CONTINUOUS
 62
    7
 10
208.48495256901202
 20
71.021604711821681
 40
11
 50
25.849695999999991
 51
59.999994999999991
  0
ARC
  8
_0-0_
  6
CONTINUOUS
 62
    7
 10
226.15667456901207
 20
75.829935711821861
 40
7
 50
205.84970999999999
 51
239.99999999999989
  0
ARC
  8
_0-0_
  6
CONTINUOUS
 62
    7
 10
207.61892456901211
 20
77.771604711821681
 40
3.25
 50
0
 51
180.00000999999997
  0
ARC
  8
_0-0_
  6
CONTINUOUS
 62
    7
 10
207.61892456901211
 20
65.271604711821681
 40
3.25
 50
180.00001
 51
0
  0
ARC
  8
_0-0_
  6
CONTINUOUS
 62
    7
 10
232.77511456901181
 20
61.093397711821751
 40
3
 50
282.29295999999999
 51
330
  0
ARC
  8
_0-0_
  6
CONTINUOUS
 62
    7
 10
186.00974056901174
 20
88.093397711821751
 40
3
 50
150.00001
 51
197.70704000000001
  0
ARC
  8
_0-0_
  6
CONTINUOUS
 62
    7
 10
237.51475456901204
 20
58.30269471182163
 40
2.5
 50
59.999994999999998
 51
149.51039999999989
  0
ARC
  8
_0-0_
  6
CONTINUOUS
 62
    7
 10
183.27213856901182
 20
91.351732711821683
 40
1
 50
330
 51
59.999994999999998
  0
CIRCLE
  8
_0-0_
  6
CONTINUOUS
 62
    7
 10
207.61892456901211
 20
71.521604711821681
 40
2
  0
CIRCLE
  8
_0-0_
  6
CONTINUOUS
 62
    7
 10
207.61892456901211
 20
71.521604711821681
 40
6
  0
ARC
  8
_0-0_
  6
CONTINUOUS
 62
    7
 10
207.61892456901211
 20
71.521604711821681
 40
11
 50
195.6087399999999
 51
284.39122999999989
  0
ARC
  8
_0-0_
  6
CONTINUOUS
 62
    7
 10
207.61892456901211
 20
71.521604711821681
 40
18
 50
356.38780000000003
 51
30.275818000000015
  0
ARC
  8
_0-0_
  6
CONTINUOUS
 62
    7
 10
207.61892456901211
 20
71.521604711821681
 40
18
 50
165.84379999999999
 51
314.15618999999992
  0
ARC
  8
_0-0_
  6
CONTINUOUS
 62
    7
 10
207.61892456901211
 20
71.521604711821681
 40
18
 50
104.9932
 51
120.73242
  0
LINE
  8
_0-0_
  6
CONTINUOUS
 62
    7
 10
249.83212800460848
 20
110.22160771182155
 11
249.12502122342181
 21
110.9287144930081
  0
LINE
  8
_0-0_
  6
CONTINUOUS
 62
    7
 10
249.83212800460848
 20
110.22160771182155
 11
250.53923478579514
 21
110.9287144930081
  0
LINE
  8
_0-0_
  6
CONTINUOUS
 62
    7
 10
248.61784227329287
 20
105.72160771182155
 11
248.61784227329287
 21
110.22160771182155
  0
LINE
  8
_0-0_
  6
CONTINUOUS
 62
    7
 10
248.0106994672397
 20
105.72160771182155
 11
248.0106994672397
 21
110.22160771182155
  0
LINE
  8
_0-0_
  6
CONTINUOUS
 62
    7
 10
246.7964136167148
 20
105.72160771182155
 11
246.7964136167148
 21
110.22160771182155
  0
LINE
  8
_0-0_
  6
CONTINUOUS
 62
    7
 10
246.18927092987093
 20
105.72160771182155
 11
246.18927092987093
 21
110.22160771182155
  0
LINE
  8
_0-0_
  6
CONTINUOUS
 62
    7
 10
247.40355654197725
 20
105.72160771182155
 11
247.40355654197725
 21
110.22160771182155
  0
LINE
  8
_0-0_
  6
CONTINUOUS
 62
    7
 10
254.08212800460848
 20
105.72160771182155
 11
254.08212800460848
 21
110.22160771182155
  0
LINE
  8
_0-0_
  6
CONTINUOUS
 62
    7
 10
254.08212800460848
 20
105.72160771182155
 11
253.58212800460848
 21
105.22160771182155
  0
LINE
  8
_0-0_
  6
CONTINUOUS
 62
    7
 10
246.08212800460848
 20
105.22160771182155
 11
253.58212800460848
 21
105.22160771182155
  0
LINE
  8
_0-0_
  6
CONTINUOUS
 62
    7
 10
245.58212800460848
 20
105.72160771182155
 11
245.58212800460848
 21
110.22160771182155
  0
LINE
  8
_0-0_
  6
CONTINUOUS
 62
    7
 10
246.08212800460848
 20
105.22160771182155
 11
245.58212800460848
 21
105.72160771182155
  0
LINE
  8
_0-0_
  6
CONTINUOUS
 62
    7
 10
254.08212800460848
 20
105.72160771182155
 11
245.58212800460848
 21
105.72160771182155
  0
LINE
  8
_0-0_
  6
CONTINUOUS
 62
    7
 10
247.68212790924105
 20
118.22160771182155
 11
251.98212809997591
 21
118.22160771182155
  0
LINE
  8
_0-0_
  6
CONTINUOUS
 62
    7
 10
252.33212800460848
 20
117.87160733035182
 11
251.98212809997591
 21
118.22160771182155
  0
LINE
  8
_0-0_
  6
CONTINUOUS
 62
    7
 10
247.68212790924105
 20
118.22160771182155
 11
247.33212800460848
 21
117.87160733035182
  0
LINE
  8
_0-0_
  6
CONTINUOUS
 62
    7
 10
351.42883787961449
 20
105.72160771182155
 11
351.42883787961449
 21
110.22160771182155
  0
LINE
  8
_0-0_
  6
CONTINUOUS
 62
    7
 10
350.82169507356133
 20
105.72160771182155
 11
350.82169507356133
 21
110.22160771182155
  0
LINE
  8
_0-0_
  6
CONTINUOUS
 62
    7
 10
349.60740922303643
 20
105.72160771182155
 11
349.60740922303643
 21
110.22160771182155
  0
LINE
  8
_0-0_
  6
CONTINUOUS
 62
    7
 10
349.00026653619256
 20
105.72160771182155
 11
349.00026653619256
 21
110.22160771182155
  0
LINE
  8
_0-0_
  6
CONTINUOUS
 62
    7
 10
350.21455214829888
 20
105.72160771182155
 11
350.21455214829888
 21
110.22160771182155
  0
LINE
  8
_0-0_
  6
CONTINUOUS
 62
    7
 10
356.8931236109301
 20
105.72160771182155
 11
356.8931236109301
 21
110.22160771182155
  0
LINE
  8
_0-0_
  6
CONTINUOUS
 62
    7
 10
356.8931236109301
 20
105.72160771182155
 11
356.3931236109301
 21
105.22160771182155
  0
LINE
  8
_0-0_
  6
CONTINUOUS
 62
    7
 10
348.8931236109301
 20
105.22160771182155
 11
356.3931236109301
 21
105.22160771182155
  0
LINE
  8
_0-0_
  6
CONTINUOUS
 62
    7
 10
348.3931236109301
 20
105.72160771182155
 11
348.3931236109301
 21
110.22160771182155
  0
LINE
  8
_0-0_
  6
CONTINUOUS
 62
    7
 10
348.8931236109301
 20
105.22160771182155
 11
348.3931236109301
 21
105.72160771182155
  0
LINE
  8
_0-0_
  6
CONTINUOUS
 62
    7
 10
356.8931236109301
 20
105.72160771182155
 11
348.3931236109301
 21
105.72160771182155
  0
LINE
  8
_0-0_
  6
CONTINUOUS
 62
    7
 10
350.49312351556267
 20
122.22160771182155
 11
354.79312370629754
 21
122.22160771182155
  0
LINE
  8
_0-0_
  6
CONTINUOUS
 62
    7
 10
355.1431236109301
 20
121.87160733035182
 11
354.79312370629754
 21
122.22160771182155
  0
LINE
  8
_0-0_
  6
CONTINUOUS
 62
    7
 10
350.49312351556267
 20
122.22160771182155
 11
350.1431236109301
 21
121.87160733035182
  0
LINE
  8
_0-0_
  6
CONTINUOUS
 62
    7
 10
356.14308790988952
 20
119.72160363528627
 11
349.14325311414967
 21
119.72162959742826
  0
LINE
  8
_0-0_
  6
CONTINUOUS
 62
    7
 10
347.55571507131862
 20
116.12160661643492
 11
347.81814576040432
 21
113.12161819022703
  0
LINE
  8
_0-0_
  6
CONTINUOUS
 62
    7
 10
349.14325311414967
 20
119.72162959742826
 11
345.96440813262979
 21
117.88636463225902
  0
LINE
  8
_0-0_
  6
CONTINUOUS
 62
    7
 10
345.64316963900473
 20
116.12160661643492
 11
347.55571507131862
 21
116.12160661643492
  0
LINE
  8
_0-0_
  6
CONTINUOUS
 62
    7
 10
345.96440813262979
 20
117.88636463225902
 11
345.64316963900473
 21
116.12160661643492
  0
LINE
  8
_0-0_
  6
CONTINUOUS
 62
    7
 10
357.73060541876356
 20
116.12160661643492
 11
357.46810146141769
 21
113.12158504264943
  0
LINE
  8
_0-0_
  6
CONTINUOUS
 62
    7
 10
347.81814576040432
 20
113.12161819022703
 11
357.46810146141769
 21
113.12158504264943
  0
LINE
  8
_0-0_
  6
CONTINUOUS
 62
    7
 10
356.14300596385937
 20
119.72162959742826
 11
359.32185094537925
 21
117.88636463225902
  0
LINE
  8
_0-0_
  6
CONTINUOUS
 62
    7
 10
359.64308943900431
 20
116.12160661643492
 11
357.73054400669042
 21
116.12160661643492
  0
LINE
  8
_0-0_
  6
CONTINUOUS
 62
    7
 10
359.32185094537925
 20
117.88636463225902
 11
359.64308943900431
 21
116.12160661643492
  0
LINE
  8
_0-0_
  6
CONTINUOUS
 62
    7
 10
252.98717900460866
 20
117.18300671182146
 11
252.11351500460847
 21
117.50099671182124
  0
LINE
  8
_0-0_
  6
CONTINUOUS
 62
    7
 10
251.42947500460838
 20
117.62160671182141
 11
248.23478200460846
 21
117.62160671182141
  0
LINE
  8
_0-0_
  6
CONTINUOUS
 62
    7
 10
247.55074200460837
 20
117.50099671182124
 11
246.67707800460863
 21
117.18300671182146
  0
ARC
  8
_0-0_
  6
CONTINUOUS
 62
    7
 10
251.42947500460838
 20
115.62160671182141
 40
2
 50
69.999999999999972
 51
90
  0
ARC
  8
_0-0_
  6
CONTINUOUS
 62
    7
 10
248.23478200460846
 20
115.62160671182141
 40
2
 50
90
 51
110
  0
ARC
  8
_0-0_
  6
CONTINUOUS
 62
    7
 10
252.13212800460866
 20
114.8337767118212
 40
2.5
 50
348.17822799457855
 51
69.999999999999929
  0
LINE
  8
_0-0_
  6
CONTINUOUS
 62
    7
 10
253.40366591140088
 20
114.32160671182123
 11
254.57910203207604
 21
114.32160671182123
  0
ARC
  8
_0-0_
  6
CONTINUOUS
 62
    7
 10
247.53212800460875
 20
114.8337767118212
 40
2.5
 50
110.00000000000003
 51
191.82177200542145
  0
LINE
  8
_0-0_
  6
CONTINUOUS
 62
    7
 10
245.08515397714137
 20
114.32160671182123
 11
246.26059109781647
 21
114.32160671182123
  0
LINE
  8
_0-0_
  6
CONTINUOUS
 62
    7
 10
246.58212691140079
 20
113.12160671182141
 11
246.26059109781647
 21
114.32160671182123
  0
LINE
  8
_0-0_
  6
CONTINUOUS
 62
    7
 10
253.40366591140088
 20
114.32160671182123
 11
253.08213009781645
 21
113.12160671182141
  0
LINE
  8
_0-0_
  6
CONTINUOUS
 62
    7
 10
246.58212691140079
 20
113.12160671182141
 11
253.08213009781645
 21
113.12160671182141
  0
LINE
  8
_0-0_
  6
CONTINUOUS
 62
    7
 10
249.83212800460848
 20
112.52160671182145
 11
250.53923478577605
 21
113.2287134929889
  0
LINE
  8
_0-0_
  6
CONTINUOUS
 62
    7
 10
249.12502122340271
 20
113.2287134929889
 11
249.83212800458938
 21
112.52160671180224
  0
LINE
  8
_0-0_
  6
CONTINUOUS
 62
    7
 10
247.33212800460848
 20
117.87160733035182
 11
247.33212800460848
 21
117.42142714519156
  0
LINE
  8
_0-0_
  6
CONTINUOUS
 62
    7
 10
247.33212800460848
 20
113.12160671182141
 11
247.33212800460848
 21
110.22160771182155
  0
LINE
  8
_0-0_
  6
CONTINUOUS
 62
    7
 10
252.33212800460848
 20
117.87160733035182
 11
252.33212800460848
 21
117.42142750916446
  0
LINE
  8
_0-0_
  6
CONTINUOUS
 62
    7
 10
350.1431236109301
 20
121.87160733035182
 11
350.1431236109301
 21
119.72162588894361
  0
LINE
  8
_0-0_
  6
CONTINUOUS
 62
    7
 10
355.1431236109301
 20
121.87160733035182
 11
355.1431236109301
 21
119.72160734411881
  0
LINE
  8
_0-0_
  6
CONTINUOUS
 62
    7
 10
252.33212800460848
 20
113.12160671182141
 11
252.33212800460848
 21
110.22160771182155
  0
LINE
  8
_0-0_
  6
CONTINUOUS
 62
    7
 10
350.1431236109301
 20
113.12161020393296
 11
350.1431236109301
 21
110.22160771182155
  0
LINE
  8
_0-0_
  6
CONTINUOUS
 62
    7
 10
355.1431236109301
 20
113.12159302894349
 11
355.1431236109301
 21
110.22160771182155
  0
LINE
  8
_0-1_
  6
PHANTOM1
 62
  152
 10
243.44426003896439
 20
129.90947467746554
 11
242.41999597025239
 21
130.93373874617731
  0
LINE
  8
_0-1_
  6
PHANTOM1
 62
  152
 10
242.20786393589657
 20
131.02160671182145
 11
239.43212800460839
 21
131.02160671182145
  0
LINE
  8
_0-1_
  6
PHANTOM1
 62
  152
 10
239.13212800460821
 20
130.72160671182149
 11
239.13212800460821
 21
128.92160671182154
  0
LINE
  8
_0-1_
  6
PHANTOM1
 62
  152
 10
238.83212800460848
 20
128.62160671182136
 11
237.63212800460821
 21
128.62160671182136
  0
LINE
  8
_0-1_
  6
PHANTOM1
 62
  152
 10
237.33212800460848
 20
128.92160671182154
 11
237.33212800460848
 21
136.52160671182145
  0
LINE
  8
_0-1_
  6
PHANTOM1
 62
  152
 10
238.33212800460848
 20
137.52160671182145
 11
245.93212800460839
 21
137.52160671182145
  0
LINE
  8
_0-1_
  6
PHANTOM1
 62
  152
 10
246.23212800460811
 20
137.22160671182127
 11
246.23212800460811
 21
136.02160671182145
  0
LINE
  8
_0-1_
  6
PHANTOM1
 62
  152
 10
245.93212800460839
 20
135.72160671182172
 11
244.13212800460821
 21
135.72160671182172
  0
LINE
  8
_0-1_
  6
PHANTOM1
 62
  152
 10
243.83212800460848
 20
135.42160671182154
 11
243.83212800460848
 21
132.64587078053336
  0
LINE
  8
_0-1_
  6
PHANTOM1
 62
  152
 10
243.91999597025239
 20
132.43373874617754
 11
244.94426003896439
 21
131.40947467746554
  0
LINE
  8
_0-1_
  6
PHANTOM1
 62
  152
 10
245.15639207332021
 20
131.32160671182163
 11
249.63212800460821
 21
131.32160671182163
  0
LINE
  8
_0-1_
  6
PHANTOM1
 62
  152
 10
249.63212800460821
 20
131.32160671182163
 11
249.83212800460848
 21
131.1216067118217
  0
LINE
  8
_0-1_
  6
PHANTOM1
 62
  152
 10
249.83212800460848
 20
131.1216067118217
 11
250.0321280046083
 21
131.32160671182163
  0
LINE
  8
_0-1_
  6
PHANTOM1
 62
  152
 10
250.0321280046083
 20
131.32160671182163
 11
254.5078639358963
 21
131.32160671182163
  0
LINE
  8
_0-1_
  6
PHANTOM1
 62
  152
 10
254.71999597025257
 20
131.40947467746554
 11
255.74426003896411
 21
132.43373874617754
  0
LINE
  8
_0-1_
  6
PHANTOM1
 62
  152
 10
255.83212800460848
 20
132.64587078053336
 11
255.83212800460848
 21
135.42160671182154
  0
LINE
  8
_0-1_
  6
PHANTOM1
 62
  152
 10
255.5321280046083
 20
135.72160671182172
 11
253.73212800460857
 21
135.72160671182172
  0
LINE
  8
_0-1_
  6
PHANTOM1
 62
  152
 10
253.43212800460839
 20
136.02160671182145
 11
253.43212800460839
 21
137.22160671182127
  0
LINE
  8
_0-1_
  6
PHANTOM1
 62
  152
 10
253.73212800460811
 20
137.52160671182145
 11
261.33212800460848
 21
137.52160671182145
  0
LINE
  8
_0-1_
  6
PHANTOM1
 62
  152
 10
262.33212800460848
 20
136.52160671182145
 11
262.33212800460848
 21
128.92160671182154
  0
LINE
  8
_0-1_
  6
PHANTOM1
 62
  152
 10
262.0321280046083
 20
128.62160671182136
 11
260.83212800460848
 21
128.62160671182136
  0
LINE
  8
_0-1_
  6
PHANTOM1
 62
  152
 10
260.53212800460875
 20
128.92160671182131
 11
260.53212800460875
 21
130.72160671182149
  0
LINE
  8
_0-1_
  6
PHANTOM1
 62
  152
 10
260.23212800460857
 20
131.02160671182145
 11
257.45639207332039
 21
131.02160671182145
  0
LINE
  8
_0-1_
  6
PHANTOM1
 62
  152
 10
257.24426003896457
 20
130.93373874617731
 11
256.21999597025257
 21
129.90947467746531
  0
ARC
  8
_0-1_
  6
PHANTOM1
 62
  152
 10
238.33212800460848
 20
136.52160671182145
 40
1
 50
90
 51
180
  0
ARC
  8
_0-1_
  6
PHANTOM1
 62
  152
 10
261.33212800460848
 20
136.52160671182145
 40
1
 50
0
 51
90.000000000000028
  0
ARC
  8
_0-1_
  6
PHANTOM1
 62
  152
 10
245.93212800460839
 20
137.22160671182127
 40
0.2999999999999998
 50
0
 51
90.000000000000028
  0
ARC
  8
_0-1_
  6
PHANTOM1
 62
  152
 10
253.73212800460811
 20
137.22160671182127
 40
0.2999999999999998
 50
90
 51
180
  0
ARC
  8
_0-1_
  6
PHANTOM1
 62
  152
 10
237.63212800460821
 20
128.92160671182154
 40
0.2999999999999998
 50
180
 51
270
  0
ARC
  8
_0-1_
  6
PHANTOM1
 62
  152
 10
262.0321280046083
 20
128.92160671182154
 40
0.2999999999999998
 50
270
 51
0
  0
ARC
  8
_0-1_
  6
PHANTOM1
 62
  152
 10
260.83212800460848
 20
128.92160671182131
 40
0.2999999999999998
 50
180
 51
270
  0
ARC
  8
_0-1_
  6
PHANTOM1
 62
  152
 10
260.23212800460857
 20
130.72160671182149
 40
0.2999999999999998
 50
0
 51
90
  0
ARC
  8
_0-1_
  6
PHANTOM1
 62
  152
 10
257.45639207332039
 20
130.72160671182149
 40
0.2999999999999998
 50
90
 51
135
  0
ARC
  8
_0-1_
  6
PHANTOM1
 62
  152
 10
256.43212800460884
 20
129.69734264310949
 40
0.2999999999999998
 50
135.00000000000037
 51
180
  0
ARC
  8
_0-1_
  6
PHANTOM1
 62
  152
 10
245.93212800460839
 20
136.02160671182145
 40
0.2999999999999998
 50
270
 51
0
  0
ARC
  8
_0-1_
  6
PHANTOM1
 62
  152
 10
244.13212800460821
 20
135.42160671182154
 40
0.2999999999999998
 50
90
 51
180
  0
ARC
  8
_0-1_
  6
PHANTOM1
 62
  152
 10
244.13212800460821
 20
132.64587078053336
 40
0.2999999999999998
 50
180
 51
225
  0
ARC
  8
_0-1_
  6
PHANTOM1
 62
  152
 10
245.15639207332021
 20
131.62160671182181
 40
0.2999999999999998
 50
225.00000000000037
 51
270
  0
ARC
  8
_0-1_
  6
PHANTOM1
 62
  152
 10
255.5321280046083
 20
132.64587078053336
 40
0.2999999999999998
 50
314.99999999999966
 51
0
  0
ARC
  8
_0-1_
  6
PHANTOM1
 62
  152
 10
255.5321280046083
 20
135.42160671182154
 40
0.2999999999999998
 50
0
 51
90
  0
ARC
  8
_0-1_
  6
PHANTOM1
 62
  152
 10
253.73212800460857
 20
136.02160671182145
 40
0.2999999999999998
 50
180
 51
270
  0
ARC
  8
_0-1_
  6
PHANTOM1
 62
  152
 10
254.5078639358963
 20
131.62160671182181
 40
0.2999999999999998
 50
270
 51
315
  0
ARC
  8
_0-1_
  6
PHANTOM1
 62
  152
 10
242.20786393589657
 20
130.72160671182149
 40
0.2999999999999998
 50
44.999999999999652
 51
90.000000000000028
  0
ARC
  8
_0-1_
  6
PHANTOM1
 62
  152
 10
239.43212800460839
 20
130.72160671182149
 40
0.2999999999999998
 50
90
 51
180
  0
ARC
  8
_0-1_
  6
PHANTOM1
 62
  152
 10
238.83212800460848
 20
128.92160671182154
 40
0.2999999999999998
 50
270
 51
0
  0
ARC
  8
_0-1_
  6
PHANTOM1
 62
  152
 10
243.23212800460811
 20
129.69734264310949
 40
0.2999999999999998
 50
0
 51
45
  0
LINE
  8
_0-1_
  6
CENTER1
 62
  152
 10
30.81919775931874
 20
83.107845889077339
 11
30.81919775931874
 21
7.8078478890773795
  0
LINE
  8
_0-1_
  6
CENTER1
 62
  152
 10
7.5504307593182602
 20
53.107847889077107
 11
62.550430759318715
 21
53.107847889077107
  0
LINE
  8
_0-1_
  6
CENTER1
 62
  152
 10
6.7775671989761577
 20
36.350488576196369
 11
12.434421448468584
 21
42.007342825688795
  0
LINE
  8
_0-1_
  6
CENTER1
 62
  152
 10
6.7775671989757029
 20
64.634759823658612
 11
12.434421448468129
 21
70.291614073150981
  0
LINE
  8
_0-1_
  6
CENTER1
 62
  152
 10
6.7775671989761577
 20
70.29161407315064
 11
12.434421448468129
 21
64.634759823658612
  0
LINE
  8
_0-1_
  6
CENTER1
 62
  152
 10
12.434421448468584
 20
36.350488576196369
 11
6.7775671989757029
 21
42.007342825689079
  0
LINE
  8
_0-1_
  6
CENTER1
 62
  152
 10
35.06183844643806
 20
8.0662173287344672
 11
40.718692695930486
 21
13.723071578226893
  0
LINE
  8
_0-1_
  6
CENTER1
 62
  152
 10
40.718692695930145
 20
8.0662173287348082
 11
35.06183844643806
 21
13.723071578226893
  0
LINE
  8
_0-1_
  6
CENTER1
 62
  152
 10
69.002963943392388
 20
8.066217328734524
 11
63.346109693899962
 21
13.723071578226893
  0
LINE
  8
_0-1_
  6
CENTER1
 62
  152
 10
69.002963943392388
 20
13.723071578226893
 11
63.346109693899962
 21
8.066217328734524
  0
LINE
  8
_0-1_
  6
CENTER1
 62
  152
 10
38.221518145724872
 20
32.107847889077107
 11
24.321165585159179
 21
32.107847889077107
  0
LINE
  8
_0-1_
  6
CENTER1
 62
  152
 10
55.345829759318804
 20
112.21720641555152
 11
11.0575457593186
 21
112.21720641555152
  0
LINE
  8
_0-1_
  6
CENTER1
 62
  152
 10
30.81919775931874
 20
157.96382841555157
 11
30.81919775931874
 21
82.217206415551516
  0
LINE
  8
_0-1_
  6
DASHED2
 62
  152
 10
63.574536839141501
 20
150.91720941555138
 11
63.574536839141501
 21
153.21720841555123
  0
LINE
  8
_0-1_
  6
DASHED2
 62
  152
 10
68.774536839141547
 20
153.21720841555123
 11
68.774536839141547
 21
150.91720941555138
  0
LINE
  8
_0-1_
  6
DASHED2
 62
  152
 10
35.290265591679599
 20
153.21720841555123
 11
35.290265591679599
 21
150.91720941555138
  0
LINE
  8
_0-1_
  6
DASHED2
 62
  152
 10
40.490265591679645
 20
153.21720841555123
 11
40.490265591679645
 21
150.91720941555138
  0
LINE
  8
_0-1_
  6
DASHED2
 62
  152
 10
12.205994344217743
 20
150.91720941555138
 11
12.205994344217743
 21
153.21720841555123
  0
LINE
  8
_0-1_
  6
DASHED2
 62
  152
 10
7.0059943442176973
 20
150.91720941555138
 11
7.0059943442176973
 21
153.21720841555123
  0
LINE
  8
_0-1_
  6
CENTER1
 62
  152
 10
9.6059943442176063
 20
155.47625841555134
 11
9.6059943442176063
 21
149.2385894155517
  0
LINE
  8
_0-1_
  6
CENTER1
 62
  152
 10
37.890265591679508
 20
149.2385894155517
 11
37.890265591679508
 21
155.3722964155512
  0
LINE
  8
_0-1_
  6
CENTER1
 62
  152
 10
66.17453683914141
 20
155.3722964155512
 11
66.17453683914141
 21
149.2385894155517
  0
LINE
  8
_0-1_
  6
CENTER1
 62
  152
 10
95.443405353977823
 20
155.3722964155512
 11
95.443405353977823
 21
149.2385894155517
  0
LINE
  8
_0-1_
  6
DASHED2
 62
  152
 10
98.043405353977732
 20
150.91720941555138
 11
98.043405353977732
 21
153.21720841555123
  0
LINE
  8
_0-1_
  6
DASHED2
 62
  152
 10
92.843405353977687
 20
153.21720841555123
 11
92.843405353977687
 21
150.91720941555138
  0
LINE
  8
_0-1_
  6
CENTER1
 62
  152
 10
109.79874441330526
 20
139.71720641555146
 11
109.79874441330526
 21
84.717206415551516
  0
LINE
  8
_0-1_
  6
CENTER1
 62
  152
 10
130.79874441330526
 20
122.48384241555135
 11
130.79874441330526
 21
158.21748341555156
  0
LINE
  8
_0-1_
  6
DASHED2
 62
  152
 10
126.32767660143963
 20
153.21720841555123
 11
126.32767660143963
 21
150.91720941555138
  0
LINE
  8
_0-1_
  6
CENTER1
 62
  152
 10
123.72767660143973
 20
149.2385894155517
 11
123.72767660143973
 21
155.3722964155512
  0
LINE
  8
_0-1_
  6
DASHED2
 62
  152
 10
121.12767660143959
 20
153.21720841555123
 11
121.12767660143959
 21
150.91720941555138
  0
LINE
  8
_0-1_
  6
DASHED2
 62
  152
 10
149.41194784890149
 20
150.91720941555138
 11
149.41194784890149
 21
153.21720841555123
  0
LINE
  8
_0-1_
  6
CENTER1
 62
  152
 10
152.01194784890163
 20
155.47625841555134
 11
152.01194784890163
 21
149.2385894155517
  0
LINE
  8
_0-1_
  6
DASHED2
 62
  152
 10
154.61194784890154
 20
150.91720941555138
 11
154.61194784890154
 21
153.21720841555123
  0
LINE
  8
_0-1_
  6
CENTER1
 62
  152
 10
137.29874441330526
 20
112.21720641555152
 11
82.298744413304803
 21
112.21720641555152
  0
LINE
  8
_0-1_
  6
CENTER1
 62
  152
 10
98.271832478724036
 20
227.33807896059841
 11
92.61497822923161
 21
221.68122471110598
  0
LINE
  8
_0-1_
  6
CENTER1
 62
  152
 10
92.61497822923161
 20
227.33807896059841
 11
98.271832478724036
 21
221.68122471110598
  0
LINE
  8
_0-1_
  6
CENTER1
 62
  152
 10
149.18352072415541
 20
165.11268221618218
 11
154.84037497364784
 21
170.76953646567461
  0
LINE
  8
_0-1_
  6
CENTER1
 62
  152
 10
154.84037497364784
 20
165.11268221618218
 11
149.18352072415541
 21
170.76953646567461
  0
LINE
  8
_0-1_
  6
CENTER1
 62
  152
 10
120.89924947669351
 20
221.68122471110598
 11
126.55610372618594
 21
227.33807896059841
  0
LINE
  8
_0-1_
  6
CENTER1
 62
  152
 10
120.89924947669351
 20
227.33807896059841
 11
126.55610372618594
 21
221.68122471110598
  0
LINE
  8
_0-1_
  6
CENTER1
 62
  152
 10
154.84037497364784
 20
193.39695346364431
 11
149.18352072415541
 21
199.05380771313673
  0
LINE
  8
_0-1_
  6
CENTER1
 62
  152
 10
154.84037497364784
 20
199.05380771313673
 11
149.18352072415541
 21
193.39695346364431
  0
LINE
  8
_0-1_
  6
CENTER1
 62
  152
 10
109.79874441330526
 20
171.56521540025579
 11
109.79874441330526
 21
226.56521540025602
  0
LINE
  8
_0-1_
  6
CENTER1
 62
  152
 10
130.79874441330514
 20
191.68248312396682
 11
130.79874441330514
 21
214.84973739157616
  0
LINE
  8
_0-1_
  6
CENTER1
 62
  152
 10
143.1799243041724
 20
203.29644840025583
 11
79.798746413305139
 21
203.29644840025583
  0
LINE
  8
_0-1_
  6
CENTER1
 62
  152
 10
152.01194784890163
 20
203.16538306530362
 11
152.01194784890163
 21
160.94110934092839
  0
LINE
  8
_0-1_
  6
CENTER1
 62
  152
 10
88.443405353977823
 20
224.5096518358522
 11
136.12902083142171
 21
224.5096518358522
  0
LINE
  8
_0-1_
  6
CENTER1
 62
  152
 10
298.90300824075251
 20
227.33807896059841
 11
293.24615399126009
 21
221.68122471110598
  0
LINE
  8
_0-1_
  6
CENTER1
 62
  152
 10
293.24615399126009
 20
227.33807896059841
 11
298.90300824075251
 21
221.68122471110598
  0
LINE
  8
_0-1_
  6
CENTER1
 62
  152
 10
349.81469648618389
 20
165.11268221618218
 11
355.47155073567632
 21
170.76953646567461
  0
LINE
  8
_0-1_
  6
CENTER1
 62
  152
 10
355.47155073567632
 20
165.11268221618218
 11
349.81469648618389
 21
170.76953646567461
  0
LINE
  8
_0-1_
  6
CENTER1
 62
  152
 10
321.53042523872199
 20
221.68122471110598
 11
327.18727948821441
 21
227.33807896059841
  0
LINE
  8
_0-1_
  6
CENTER1
 62
  152
 10
321.53042523872199
 20
227.33807896059841
 11
327.18727948821441
 21
221.68122471110598
  0
LINE
  8
_0-1_
  6
CENTER1
 62
  152
 10
355.47155073567632
 20
193.39695346364431
 11
349.81469648618389
 21
199.05380771313673
  0
LINE
  8
_0-1_
  6
CENTER1
 62
  152
 10
355.47155073567632
 20
199.05380771313673
 11
349.81469648618389
 21
193.39695346364431
  0
LINE
  8
_0-1_
  6
CENTER1
 62
  152
 10
331.42992017533362
 20
191.68248312396682
 11
331.42992017533362
 21
214.84973739157616
  0
LINE
  8
_0-1_
  6
CENTER1
 62
  152
 10
352.6431236109301
 20
203.16538306530362
 11
352.6431236109301
 21
160.94110934092839
  0
LINE
  8
_0-1_
  6
CENTER1
 62
  152
 10
289.0745811160063
 20
224.5096518358522
 11
336.76019659345019
 21
224.5096518358522
  0
LINE
  8
_0-1_
  6
CENTER1
 62
  152
 10
310.42992017533373
 20
171.56521540025579
 11
310.42992017533373
 21
226.56521540025602
  0
LINE
  8
_0-1_
  6
CENTER1
 62
  152
 10
196.09201263443089
 20
227.33807896059841
 11
190.43515838493846
 21
221.68122471110598
  0
LINE
  8
_0-1_
  6
CENTER1
 62
  152
 10
190.43515838493846
 20
227.33807896059841
 11
196.09201263443089
 21
221.68122471110598
  0
LINE
  8
_0-1_
  6
CENTER1
 62
  152
 10
247.00370087986227
 20
165.11268221618218
 11
252.66055512935469
 21
170.76953646567461
  0
LINE
  8
_0-1_
  6
CENTER1
 62
  152
 10
252.66055512935469
 20
165.11268221618218
 11
247.00370087986227
 21
170.76953646567461
  0
LINE
  8
_0-1_
  6
CENTER1
 62
  152
 10
218.71942963240036
 20
221.68122471110598
 11
224.37628388189279
 21
227.33807896059841
  0
LINE
  8
_0-1_
  6
CENTER1
 62
  152
 10
218.71942963240036
 20
227.33807896059841
 11
224.37628388189279
 21
221.68122471110598
  0
LINE
  8
_0-1_
  6
CENTER1
 62
  152
 10
252.66055512935469
 20
193.39695346364431
 11
247.00370087986227
 21
199.05380771313673
  0
LINE
  8
_0-1_
  6
CENTER1
 62
  152
 10
252.66055512935469
 20
199.05380771313673
 11
247.00370087986227
 21
193.39695346364431
  0
LINE
  8
_0-1_
  6
CENTER1
 62
  152
 10
207.61892456901211
 20
171.56521540025579
 11
207.61892456901211
 21
226.56521540025602
  0
LINE
  8
_0-1_
  6
CENTER1
 62
  152
 10
228.61892456901199
 20
191.68248312396682
 11
228.61892456901199
 21
214.84973739157616
  0
LINE
  8
_0-1_
  6
CENTER1
 62
  152
 10
241.00010445987931
 20
203.29644840025583
 11
177.61892656901199
 21
203.29644840025583
  0
LINE
  8
_0-1_
  6
CENTER1
 62
  152
 10
249.83212800460848
 20
203.16538306530362
 11
249.83212800460848
 21
160.94110934092839
  0
LINE
  8
_0-1_
  6
CENTER1
 62
  152
 10
186.26358550968467
 20
224.5096518358522
 11
233.94920098712856
 21
224.5096518358522
  0
LINE
  8
_0-1_
  6
PHANTOM1
 62
  152
 10
167.98930861596739
 20
239.1273880994313
 11
176.00309142975942
 21
209.21954347753709
  0
LINE
  8
_0-1_
  6
PHANTOM1
 62
  152
 10
168.55675433757551
 20
237.0096518358522
 11
262.33212800460848
 21
237.0096518358522
  0
LINE
  8
_0-1_
  6
PHANTOM1
 62
  152
 10
175.25548414835356
 20
212.0096518358522
 11
262.33212800460848
 21
212.0096518358522
  0
LINE
  8
_0-1_
  6
PHANTOM1
 62
  152
 10
266.24047435554627
 20
248.17905576227463
 11
278.53063919453791
 21
202.31153614976137
  0
LINE
  8
_0-1_
  6
PHANTOM1
 62
  152
 10
277.94165587157971
 20
204.5096518358522
 11
372.6431236109301
 21
204.5096518358522
  0
LINE
  8
_0-1_
  6
PHANTOM1
 62
  152
 10
267.22368817433477
 20
244.5096518358522
 11
372.6431236109301
 21
244.5096518358522
  0
LINE
  8
_0-1_
  6
CENTER1
 62
  152
 10
343.81110006620088
 20
203.29644840025583
 11
285.4299221753335
 21
203.29644840025583
  0
LINE
  8
_0-1_
  6
PHANTOM1
 62
  152
 10
327.62722682640299
 20
156.86098216443713
 11
375.84664521571131
 21
143.94062794752352
  0
LINE
  8
_0-1_
  6
PHANTOM1
 62
  152
 10
372.6431236109301
 20
244.5096518358522
 11
372.6431236109301
 21
144.79900897446032
  0
LINE
  8
_0-1_
  6
PHANTOM1
 62
  152
 10
332.6431236109301
 20
244.5096518358522
 11
332.6431236109301
 21
155.51697667170521
  0
LINE
  8
_0-1_
  6
PHANTOM1
 62
  152
 10
235.24916826120688
 20
156.79035746215686
 11
265.1403224176625
 21
148.78104684510038
  0
LINE
  8
_0-1_
  6
PHANTOM1
 62
  152
 10
237.33212800460848
 20
237.0096518358522
 11
237.33212800460848
 21
156.23223008104583
  0
LINE
  8
_0-1_
  6
PHANTOM1
 62
  152
 10
262.33212800460848
 20
237.0096518358522
 11
262.33212800460848
 21
149.53350027026778
  0
LINE
  8
_0-1_
  6
CENTER1
 62
  152
 10
296.0745811160063
 20
114.67669471182143
 11
296.0745811160063
 21
108.54298771182187
  0
LINE
  8
_0-1_
  6
CENTER1
 62
  152
 10
310.42992017533373
 20
99.021604711821624
 11
310.42992017533373
 21
44.021604711821681
  0
LINE
  8
_0-1_
  6
CENTER1
 62
  152
 10
331.42992017533373
 20
81.788240711821516
 11
331.42992017533373
 21
117.52188171182178
  0
LINE
  8
_0-1_
  6
CENTER1
 62
  152
 10
352.6431236109301
 20
114.78065671182156
 11
352.6431236109301
 21
108.54298771182187
  0
LINE
  8
_0-1_
  6
CENTER1
 62
  152
 10
337.92992017533373
 20
71.521604711821681
 11
282.92992017533328
 21
71.521604711821681
  0
LINE
  8
_0-1_
  6
CENTER1
 62
  152
 10
193.26358550968467
 20
114.67669471182143
 11
193.26358550968467
 21
108.54298771182187
  0
LINE
  8
_0-1_
  6
CENTER1
 62
  152
 10
207.61892456901211
 20
99.021604711821624
 11
207.61892456901211
 21
44.021604711821681
  0
LINE
  8
_0-1_
  6
CENTER1
 62
  152
 10
228.61892456901211
 20
81.788240711821516
 11
228.61892456901211
 21
117.52188171182178
  0
LINE
  8
_0-1_
  6
CENTER1
 62
  152
 10
249.83212800460848
 20
114.78065671182156
 11
249.83212800460848
 21
108.54298771182187
  0
LINE
  8
_0-1_
  6
CENTER1
 62
  152
 10
235.11892456901211
 20
71.521604711821681
 11
180.11892456901165
 21
71.521604711821681
  0
LINE
  8
_0-1_
  6
PHANTOM1
 62
  152
 10
237.33212800460848
 20
113.52160671182145
 11
237.33212800460848
 21
121.12160671182136
  0
LINE
  8
_0-1_
  6
PHANTOM1
 62
  152
 10
237.63212800460821
 20
121.42160671182154
 11
238.83212800460848
 21
121.42160671182154
  0
LINE
  8
_0-1_
  6
PHANTOM1
 62
  152
 10
239.13212800460821
 20
121.12160671182158
 11
239.13212800460821
 21
119.3216067118214
  0
LINE
  8
_0-1_
  6
PHANTOM1
 62
  152
 10
239.43212800460839
 20
119.02160671182145
 11
242.20786393589657
 21
119.02160671182145
  0
LINE
  8
_0-1_
  6
PHANTOM1
 62
  152
 10
242.41999597025239
 20
119.10947467746558
 11
243.44426003896439
 21
120.13373874617758
  0
LINE
  8
_0-1_
  6
PHANTOM1
 62
  152
 10
243.5321280046083
 20
120.3458707805334
 11
243.5321280046083
 21
129.69734264310949
  0
LINE
  8
_0-1_
  6
PHANTOM1
 62
  152
 10
256.13212800460866
 20
129.69734264310949
 11
256.13212800460866
 21
120.3458707805334
  0
LINE
  8
_0-1_
  6
PHANTOM1
 62
  152
 10
256.21999597025257
 20
120.13373874617736
 11
257.24426003896457
 21
119.10947467746558
  0
LINE
  8
_0-1_
  6
PHANTOM1
 62
  152
 10
257.45639207332039
 20
119.02160671182145
 11
260.23212800460857
 21
119.02160671182145
  0
LINE
  8
_0-1_
  6
PHANTOM1
 62
  152
 10
260.53212800460875
 20
119.3216067118214
 11
260.53212800460875
 21
121.12160671182136
  0
LINE
  8
_0-1_
  6
PHANTOM1
 62
  152
 10
260.83212800460848
 20
121.42160671182154
 11
262.0321280046083
 21
121.42160671182154
  0
LINE
  8
_0-1_
  6
PHANTOM1
 62
  152
 10
262.33212800460848
 20
121.12160671182136
 11
262.33212800460848
 21
113.52160671182145
  0
LINE
  8
_0-1_
  6
PHANTOM1
 62
  152
 10
261.33212800460848
 20
112.52160671182145
 11
253.73212800460811
 21
112.52160671182145
  0
LINE
  8
_0-1_
  6
PHANTOM1
 62
  152
 10
253.43212800460839
 20
112.8216067118214
 11
253.43212800460839
 21
114.02160671182145
  0
LINE
  8
_0-1_
  6
PHANTOM1
 62
  152
 10
253.73212800460811
 20
114.32160671182118
 11
255.5321280046083
 21
114.32160671182118
  0
LINE
  8
_0-1_
  6
PHANTOM1
 62
  152
 10
255.83212800460848
 20
114.62160671182136
 11
255.83212800460848
 21
117.39734264310954
  0
LINE
  8
_0-1_
  6
PHANTOM1
 62
  152
 10
255.74426003896411
 20
117.60947467746536
 11
254.71999597025211
 21
118.63373874617736
  0
LINE
  8
_0-1_
  6
PHANTOM1
 62
  152
 10
254.5078639358963
 20
118.72160671182127
 11
250.0321280046083
 21
118.72160671182127
  0
LINE
  8
_0-1_
  6
PHANTOM1
 62
  152
 10
250.0321280046083
 20
118.72160671182127
 11
249.83212800460848
 21
118.92160671182131
  0
LINE
  8
_0-1_
  6
PHANTOM1
 62
  152
 10
249.83212800460848
 20
118.92160671182131
 11
249.63212800460821
 21
118.72160671182127
  0
LINE
  8
_0-1_
  6
PHANTOM1
 62
  152
 10
249.63212800460821
 20
118.72160671182127
 11
245.15639207332021
 21
118.72160671182127
  0
LINE
  8
_0-1_
  6
PHANTOM1
 62
  152
 10
244.94426003896439
 20
118.63373874617736
 11
243.91999597025239
 21
117.60947467746536
  0
LINE
  8
_0-1_
  6
PHANTOM1
 62
  152
 10
243.83212800460848
 20
117.39734264310954
 11
243.83212800460848
 21
114.62160671182136
  0
LINE
  8
_0-1_
  6
PHANTOM1
 62
  152
 10
244.13212800460821
 20
114.32160671182118
 11
245.93212800460839
 21
114.32160671182118
  0
LINE
  8
_0-1_
  6
PHANTOM1
 62
  152
 10
246.23212800460811
 20
114.02160671182145
 11
246.23212800460811
 21
112.8216067118214
  0
LINE
  8
_0-1_
  6
PHANTOM1
 62
  152
 10
245.93212800460839
 20
112.52160671182145
 11
238.33212800460848
 21
112.52160671182145
  0
ARC
  8
_0-1_
  6
PHANTOM1
 62
  152
 10
261.33212800460848
 20
113.52160671182145
 40
1
 50
270
 51
0
  0
ARC
  8
_0-1_
  6
PHANTOM1
 62
  152
 10
238.33212800460848
 20
113.52160671182145
 40
1
 50
180
 51
270
  0
ARC
  8
_0-1_
  6
PHANTOM1
 62
  152
 10
237.63212800460821
 20
121.12160671182136
 40
0.2999999999999998
 50
90
 51
180
  0
ARC
  8
_0-1_
  6
PHANTOM1
 62
  152
 10
262.0321280046083
 20
121.12160671182136
 40
0.2999999999999998
 50
0
 51
90.000000000000028
  0
ARC
  8
_0-1_
  6
PHANTOM1
 62
  152
 10
253.73212800460811
 20
112.8216067118214
 40
0.2999999999999998
 50
180
 51
270
  0
ARC
  8
_0-1_
  6
PHANTOM1
 62
  152
 10
245.93212800460839
 20
112.8216067118214
 40
0.2999999999999998
 50
270
 51
0
  0
ARC
  8
_0-1_
  6
PHANTOM1
 62
  152
 10
253.73212800460811
 20
114.02160671182145
 40
0.2999999999999998
 50
90
 51
180
  0
ARC
  8
_0-1_
  6
PHANTOM1
 62
  152
 10
255.5321280046083
 20
114.62160671182136
 40
0.2999999999999998
 50
270
 51
0
  0
ARC
  8
_0-1_
  6
PHANTOM1
 62
  152
 10
255.5321280046083
 20
117.39734264310954
 40
0.2999999999999998
 50
0
 51
45
  0
ARC
  8
_0-1_
  6
PHANTOM1
 62
  152
 10
254.5078639358963
 20
118.42160671182108
 40
0.2999999999999998
 50
45.000000000000384
 51
90
  0
ARC
  8
_0-1_
  6
PHANTOM1
 62
  152
 10
244.13212800460821
 20
117.39734264310954
 40
0.2999999999999998
 50
134.99999999999963
 51
180.00000000000011
  0
ARC
  8
_0-1_
  6
PHANTOM1
 62
  152
 10
244.13212800460821
 20
114.62160671182136
 40
0.2999999999999998
 50
180
 51
270
  0
ARC
  8
_0-1_
  6
PHANTOM1
 62
  152
 10
245.93212800460839
 20
114.02160671182145
 40
0.2999999999999998
 50
0
 51
90
  0
ARC
  8
_0-1_
  6
PHANTOM1
 62
  152
 10
245.15639207332021
 20
118.42160671182108
 40
0.2999999999999998
 50
90
 51
135
  0
ARC
  8
_0-1_
  6
PHANTOM1
 62
  152
 10
257.45639207332039
 20
119.3216067118214
 40
0.2999999999999998
 50
224.99999999999963
 51
270
  0
ARC
  8
_0-1_
  6
PHANTOM1
 62
  152
 10
260.23212800460857
 20
119.3216067118214
 40
0.2999999999999998
 50
270
 51
0
  0
ARC
  8
_0-1_
  6
PHANTOM1
 62
  152
 10
260.83212800460848
 20
121.12160671182136
 40
0.2999999999999998
 50
90
 51
180
  0
ARC
  8
_0-1_
  6
PHANTOM1
 62
  152
 10
256.43212800460884
 20
120.3458707805334
 40
0.2999999999999998
 50
180
 51
225
  0
ARC
  8
_0-1_
  6
PHANTOM1
 62
  152
 10
238.83212800460848
 20
121.12160671182158
 40
0.2999999999999998
 50
0
 51
90
  0
ARC
  8
_0-1_
  6
PHANTOM1
 62
  152
 10
239.43212800460839
 20
119.3216067118214
 40
0.2999999999999998
 50
180
 51
270
  0
ARC
  8
_0-1_
  6
PHANTOM1
 62
  152
 10
242.20786393589657
 20
119.3216067118214
 40
0.2999999999999998
 50
270
 51
315
  0
ARC
  8
_0-1_
  6
PHANTOM1
 62
  152
 10
243.23212800460811
 20
120.3458707805334
 40
0.2999999999999998
 50
315.0000000000004
 51
0.0000000000000063
  0
LINE
  8
_0-1_
  6
PHANTOM1
 62
  152
 10
332.6431236109301
 20
126.92160633035172
 11
332.6431236109301
 21
114.02160671182145
  0
LINE
  8
_0-1_
  6
PHANTOM1
 62
  152
 10
372.6431236109301
 20
126.92160633035172
 11
372.6431236109301
 21
114.02160671182145
  0
LINE
  8
_0-1_
  6
PHANTOM1
 62
  152
 10
358.24312399239983
 20
112.52160671182145
 11
371.1431236109301
 21
112.52160671182145
  0
LINE
  8
_0-1_
  6
PHANTOM1
 62
  152
 10
347.04312322946038
 20
112.52160671182145
 11
334.1431236109301
 21
112.52160671182145
  0
LINE
  8
_0-1_
  6
PHANTOM1
 62
  152
 10
334.92508958192315
 20
127.42160633035172
 11
333.1431236109301
 21
127.42160633035172
  0
LINE
  8
_0-1_
  6
PHANTOM1
 62
  152
 10
335.14869640679802
 20
127.36882045693864
 11
335.96673034043755
 21
126.95980289407242
  0
LINE
  8
_0-1_
  6
PHANTOM1
 62
  152
 10
336.24312351556267
 20
125.02160671182145
 11
336.24312351556267
 21
126.51258876748551
  0
LINE
  8
_0-1_
  6
PHANTOM1
 62
  152
 10
370.36115644784417
 20
127.42160633035172
 11
372.1431236109301
 21
127.42160633035172
  0
LINE
  8
_0-1_
  6
PHANTOM1
 62
  152
 10
370.13755033822503
 20
127.36882045693864
 11
369.3195152124926
 21
126.95980289407242
  0
LINE
  8
_0-1_
  6
PHANTOM1
 62
  152
 10
369.04312513680901
 20
125.02160671182145
 11
369.04312513680901
 21
126.51258876748551
  0
LINE
  8
_0-1_
  6
PHANTOM1
 62
  152
 10
347.54312322946038
 20
114.80357387490739
 11
347.54312322946038
 21
113.02160671182145
  0
LINE
  8
_0-1_
  6
PHANTOM1
 62
  152
 10
347.49033735604729
 20
115.02717998452653
 11
347.08131979318108
 21
115.84521511025895
  0
LINE
  8
_0-1_
  6
PHANTOM1
 62
  152
 10
345.1431236109301
 20
116.12160518594254
 11
346.63410662026848
 21
116.12160518594254
  0
LINE
  8
_0-1_
  6
PHANTOM1
 62
  152
 10
360.1431236109301
 20
116.12160518594254
 11
358.65214155526604
 21
116.12160518594254
  0
LINE
  8
_0-1_
  6
PHANTOM1
 62
  152
 10
357.79590986581292
 20
115.02717998452653
 11
358.20492742867913
 21
115.84521511025895
  0
LINE
  8
_0-1_
  6
PHANTOM1
 62
  152
 10
357.74312399239983
 20
114.80357387490739
 11
357.74312399239983
 21
113.02160671182145
  0
LINE
  8
_0-1_
  6
PHANTOM1
 62
  152
 10
344.6431236109301
 20
120.81449916787614
 11
344.6431236109301
 21
116.62160518594254
  0
LINE
  8
_0-1_
  6
PHANTOM1
 62
  152
 10
345.99667738290276
 20
122.3751604837941
 11
344.78956983895745
 21
121.16805293984879
  0
LINE
  8
_0-1_
  6
PHANTOM1
 62
  152
 10
358.93601606698479
 20
122.52160671182145
 11
346.3502302012011
 21
122.52160671182145
  0
LINE
  8
_0-1_
  6
PHANTOM1
 62
  152
 10
360.49667738290276
 20
121.16805293984879
 11
359.28956983895745
 21
122.3751604837941
  0
LINE
  8
_0-1_
  6
PHANTOM1
 62
  152
 10
360.6431236109301
 20
120.81449916787614
 11
360.6431236109301
 21
116.62160518594254
  0
LINE
  8
_0-1_
  6
PHANTOM1
 62
  152
 10
364.35023115487542
 20
124.52160671182145
 11
368.54312513680901
 21
124.52160671182145
  0
LINE
  8
_0-1_
  6
PHANTOM1
 62
  152
 10
362.78956983895745
 20
125.8751604837941
 11
363.99667738290276
 21
124.66805293984879
  0
LINE
  8
_0-1_
  6
PHANTOM1
 62
  152
 10
362.6431236109301
 20
126.22871425576676
 11
362.6431236109301
 21
131.50739314980973
  0
LINE
  8
_0-1_
  6
PHANTOM1
 62
  152
 10
340.93601702065911
 20
124.52160671182145
 11
336.74312351556267
 21
124.52160671182145
  0
LINE
  8
_0-1_
  6
PHANTOM1
 62
  152
 10
342.49667738290276
 20
125.8751604837941
 11
341.28956983895745
 21
124.66805293984879
  0
LINE
  8
_0-1_
  6
PHANTOM1
 62
  152
 10
342.6431236109301
 20
126.22871425576676
 11
342.6431236109301
 21
131.50739314980973
  0
ARC
  8
_0-1_
  6
PHANTOM1
 62
  152
 10
358.65214155526604
 20
115.62160518594254
 40
0.5
 50
90
 51
153.43493652343753
  0
ARC
  8
_0-1_
  6
PHANTOM1
 62
  152
 10
346.63410662026848
 20
115.62160518594254
 40
0.5
 50
26.56504821777343
 51
90
  0
ARC
  8
_0-1_
  6
PHANTOM1
 62
  152
 10
369.54312513680901
 20
126.51258876748551
 40
0.5
 50
116.56504821777345
 51
180.00000000000003
  0
ARC
  8
_0-1_
  6
PHANTOM1
 62
  152
 10
335.74312351556267
 20
126.51258876748551
 40
0.5
 50
0
 51
63.434936523437493
  0
ARC
  8
_0-1_
  6
PHANTOM1
 62
  152
 10
334.1431236109301
 20
114.02160671182145
 40
1.5
 50
180
 51
270
  0
ARC
  8
_0-1_
  6
PHANTOM1
 62
  152
 10
371.1431236109301
 20
114.02160671182145
 40
1.5
 50
270
 51
0
  0
ARC
  8
_0-1_
  6
PHANTOM1
 62
  152
 10
333.1431236109301
 20
126.92160633035172
 40
0.5
 50
90
 51
180
  0
ARC
  8
_0-1_
  6
PHANTOM1
 62
  152
 10
372.1431236109301
 20
126.92160633035172
 40
0.5
 50
0
 51
90
  0
ARC
  8
_0-1_
  6
PHANTOM1
 62
  152
 10
358.24312399239983
 20
113.02160671182145
 40
0.5
 50
180
 51
270
  0
ARC
  8
_0-1_
  6
PHANTOM1
 62
  152
 10
347.04312322946038
 20
113.02160671182145
 40
0.5
 50
270
 51
359.99998474121094
  0
ARC
  8
_0-1_
  6
PHANTOM1
 62
  152
 10
334.92508958192315
 20
126.92160633035172
 40
0.5
 50
63.434936523437521
 51
90.000000000000028
  0
ARC
  8
_0-1_
  6
PHANTOM1
 62
  152
 10
336.74312351556267
 20
125.02160671182145
 40
0.5
 50
180
 51
270
  0
ARC
  8
_0-1_
  6
PHANTOM1
 62
  152
 10
370.36115644784417
 20
126.92160633035172
 40
0.5
 50
90
 51
116.56504821777344
  0
ARC
  8
_0-1_
  6
PHANTOM1
 62
  152
 10
368.54312513680901
 20
125.02160671182145
 40
0.5
 50
270
 51
0
  0
ARC
  8
_0-1_
  6
PHANTOM1
 62
  152
 10
347.04312322946038
 20
114.80357387490739
 40
0.5
 50
359.99998474121088
 51
26.565048217773398
  0
ARC
  8
_0-1_
  6
PHANTOM1
 62
  152
 10
345.1431236109301
 20
116.62160518594254
 40
0.5
 50
180
 51
270
  0
ARC
  8
_0-1_
  6
PHANTOM1
 62
  152
 10
360.1431236109301
 20
116.62160518594254
 40
0.5
 50
270
 51
0
  0
ARC
  8
_0-1_
  6
PHANTOM1
 62
  152
 10
358.24312399239983
 20
114.80357387490739
 40
0.5
 50
153.43493652343753
 51
180.00000000000003
  0
ARC
  8
_0-1_
  6
PHANTOM1
 62
  152
 10
345.1431236109301
 20
120.81449916787614
 40
0.5
 50
135
 51
180
  0
ARC
  8
_0-1_
  6
PHANTOM1
 62
  152
 10
346.3502302012011
 20
122.02160671182145
 40
0.5
 50
90
 51
135
  0
ARC
  8
_0-1_
  6
PHANTOM1
 62
  152
 10
358.93601606698479
 20
122.02160671182145
 40
0.5
 50
45.00000000000005
 51
90.000000000000057
  0
ARC
  8
_0-1_
  6
PHANTOM1
 62
  152
 10
360.1431236109301
 20
120.81449916787614
 40
0.5
 50
0
 51
45
  0
ARC
  8
_0-1_
  6
PHANTOM1
 62
  152
 10
364.35023115487542
 20
125.02160671182145
 40
0.5
 50
225
 51
270
  0
ARC
  8
_0-1_
  6
PHANTOM1
 62
  152
 10
363.1431236109301
 20
126.22871425576676
 40
0.5
 50
180
 51
224.99998474121097
  0
ARC
  8
_0-1_
  6
PHANTOM1
 62
  152
 10
340.93601702065911
 20
125.02160671182145
 40
0.5
 50
270
 51
315
  0
ARC
  8
_0-1_
  6
PHANTOM1
 62
  152
 10
342.1431236109301
 20
126.22871425576676
 40
0.5
 50
315
 51
0
  0
LINE
  8
_0-1_
  6
CONTINUOUS
 62
  152
 10
252.33212800460848
 20
117.87160733035182
 11
247.33212800460848
 21
117.87160733035182
  0
LINE
  8
_0-1_
  6
CONTINUOUS
 62
  152
 10
355.1431236109301
 20
121.87160733035182
 11
350.1431236109301
 21
121.87160733035182
  0
LINE
  8
_0-1_
  6
CONTINUOUS
 62
  152
 10
247.68212790924105
 20
110.22160771182155
 11
247.68212790924105
 21
113.12160671182141
  0
LINE
  8
_0-1_
  6
CONTINUOUS
 62
  152
 10
247.68212790924105
 20
117.54373403613516
 11
247.68212790924105
 21
118.22160771182155
  0
LINE
  8
_0-1_
  6
CONTINUOUS
 62
  152
 10
251.98212809997591
 20
110.22160771182155
 11
251.98212809997591
 21
113.12160671182141
  0
LINE
  8
_0-1_
  6
CONTINUOUS
 62
  152
 10
251.98212809997591
 20
117.54373432365696
 11
251.98212809997591
 21
118.22160771182155
  0
LINE
  8
_0-1_
  6
CONTINUOUS
 62
  152
 10
350.49312351556267
 20
110.22160771182155
 11
350.49312351556267
 21
113.12160900168402
  0
LINE
  8
_0-1_
  6
CONTINUOUS
 62
  152
 10
350.49312351556267
 20
119.72162459080624
 11
350.49312351556267
 21
122.22160771182155
  0
LINE
  8
_0-1_
  6
CONTINUOUS
 62
  152
 10
354.79312370629754
 20
110.22160771182155
 11
354.79312370629754
 21
113.12159423119243
  0
LINE
  8
_0-1_
  6
CONTINUOUS
 62
  152
 10
354.79312370629754
 20
119.72160864225623
 11
354.79312370629754
 21
122.22160771182155
  0
TEXT
  8
_0-1_
 62
    7
 10
78.673538014126507
 20
234.3083042907183
 40
4.2999999999999998
 41
0.744186046511628
 50
0
  1
CAP5-UR
  0
TEXT
  8
_0-1_
 62
    7
 10
187.95994832269616
 20
238.01292836897488
 40
4.2999999999999998
 41
0.744186046511628
 50
0
  1
CAP5-UR25
  0
TEXT
  8
_0-1_
 62
    7
 10
289.83711047475259
 20
236.62369433962868
 40
4.2999999999999998
 41
0.744186046511628
 50
0
  1
CAP5-UR40
  0
ENDSEC
  0
EOF
