  0
SECTION
  2
HEADER
  9
$ACADVER
  1
AC1009
  9
$INSBASE
 10
0
 20
0
 30
0
  9
$EXTMIN
 10
0
 20
0
  9
$EXTMAX
 10
1189
 20
841
  9
$LIMMIN
 10
0
 20
0
  9
$LIMMAX
 10
1189
 20
841
  9
$LTSCALE
 40
1
  0
ENDSEC
  0
SECTION
  2
TABLES
  0
TABLE
  2
LTYPE
 70
     9
  0
LTYPE
  2
CONTINUOUS
 70
    64
  3
実線
 72
    65
 73
     0
 40
0.0
  0
LTYPE
  2
DASHED1
 70
    64
  3
--  --  --  --  --  --  --  --  
 72
    65
 73
     2
 40
2.5
 49
1.25
 49
-1.25
  0
LTYPE
  2
DASHED2
 70
    64
  3
----    ----    ----    ----    
 72
    65
 73
     2
 40
5.0
 49
2.5
 49
-2.5
  0
LTYPE
  2
DASHED3
 70
    64
  3
------  ------  ------  ------  
 72
    65
 73
     2
 40
5.0
 49
3.75
 49
-1.25
  0
LTYPE
  2
CENTER1
 70
    64
  3
----- - ----- - ----- - ----- - 
 72
    65
 73
     4
 40
10.0
 49
6.25
 49
-1.25
 49
1.25
 49
-1.25
  0
LTYPE
  2
CENTER2
 70
    64
  3
----------  --  ----------  --  
 72
    65
 73
     4
 40
20.0
 49
12.5
 49
-2.5
 49
2.5
 49
-2.5
  0
LTYPE
  2
PHANTOM1
 70
    64
  3
--- - - --- - - --- - - --- - - 
 72
    65
 73
     6
 40
10.0
 49
3.25
 49
-1.25
 49
1.25
 49
-1.25
 49
1.25
 49
-1.25
  0
LTYPE
  2
PHANTOM2
 70
    64
  3
--------  -  -  --------  -  -  
 72
    65
 73
     6
 40
20.0
 49
10.0
 49
-2.5
 49
1.25
 49
-2.5
 49
1.25
 49
-2.5
  0
LTYPE
  2
DOT
 70
    64
  3
-   -   -   -   -   -   -   -   
 72
    65
 73
     2
 40
2.5
 49
0.625
 49
-1.875
  0
LTYPE
  2
DUMMY
 70
    64
  3
ダミー
 72
    65
 73
     0
 40
0.0
  0
LTYPE
  2
RAND1
 70
    64
  3
ランダム線1
 72
    65
 73
     4
 40
10.0
 49
1.0
 49
-2.0
 49
3.0
 49
-4.0
  0
LTYPE
  2
RAND2
 70
    64
  3
ランダム線2
 72
    65
 73
     4
 40
14.0
 49
2.0
 49
-3.0
 49
4.0
 49
-5.0
  0
LTYPE
  2
RAND3
 70
    64
  3
ランダム線3
 72
    65
 73
     4
 40
18.0
 49
3.0
 49
-4.0
 49
5.0
 49
-6.0
  0
LTYPE
  2
RAND4
 70
    64
  3
ランダム線4
 72
    65
 73
     4
 40
22.0
 49
4.0
 49
-5.0
 49
6.0
 49
-7.0
  0
LTYPE
  2
RAND5
 70
    64
  3
ランダム線5
 72
    65
 73
     4
 40
26.0
 49
5.0
 49
-6.0
 49
7.0
 49
-8.0
  0
LTYPE
  2
LONG1
 70
    64
  3
----------  --  ----------  --  
 72
    65
 73
     4
 40
40.0
 49
32.5
 49
-2.5
 49
2.5
 49
-2.5
  0
LTYPE
  2
LONG2
 70
    64
  3
--------  -  -  --------  -  -  
 72
    65
 73
     6
 40
40.0
 49
30.0
 49
-2.5
 49
1.25
 49
-2.5
 49
1.25
 49
-2.5
  0
LTYPE
  2
LONG3
 70
    64
  3
+++++++++++++++..+++++++++++++++
 72
    65
 73
     2
 40
40.0
 49
37.5
 49
-2.5
  0
LTYPE
  2
LONG4
 70
    64
  3
+++++++++++++++..+++++++++++++++
 72
    65
 73
     2
 40
80.0
 49
75.0
 49
-5.0
  0
LTYPE
  2
LONG5
 70
    64
  3
----------  --  ----------  --  
 72
    65
 73
     4
 40
60.0
 49
37.5
 49
-7.5
 49
7.5
 49
-7.5
  0
LTYPE
  2
dashed
 70
   64
  3
-------   -------------   ------
 72
   65
 73
    2
 40
7.5
 49
6
 49
-1.5
  0
LTYPE
  2
dashed_spaced
 70
   64
  3
----        --------        ----
 72
   65
 73
    2
 40
12
 49
6
 49
-6
  0
LTYPE
  2
long_dashed_dotted
 70
   64
  3
------------- --- --------------
 72
   65
 73
    4
 40
15.25
 49
12
 49
-1.5
 49
0.25
 49
-1.5
  0
LTYPE
  2
long_dashed_double-dotted
 70
   64
  3
----------- --- --- ------------
 72
   65
 73
    6
 40
17
 49
12
 49
-1.5
 49
0.25
 49
-1.5
 49
0.25
 49
-1.5
  0
LTYPE
  2
long_dashed_triplicate-dotted
 70
   64
  3
--------- --- --- --- ----------
 72
   65
 73
    8
 40
18.75
 49
12
 49
-1.5
 49
0.25
 49
-1.5
 49
0.25
 49
-1.5
 49
0.25
 49
-1.5
  0
LTYPE
  2
dotted
 70
   64
  3
   -       -       -       -    
 72
   65
 73
    2
 40
1.75
 49
0.25
 49
-1.5
  0
LTYPE
  2
chain
 70
   64
  3
-------------- -- --------------
 72
   65
 73
    4
 40
18.5
 49
12
 49
-1.5
 49
3.5
 49
-1.5
  0
LTYPE
  2
chain_double_dash
 70
   64
  3
------------ -- -- -------------
 72
   65
 73
    6
 40
23.5
 49
12
 49
-1.5
 49
3.5
 49
-1.5
 49
3.5
 49
-1.5
  0
LTYPE
  2
dashed_dotted
 70
   64
  3
-----------     -     ----------
 72
   65
 73
    4
 40
9.25
 49
6
 49
-1.5
 49
0.25
 49
-1.5
  0
LTYPE
  2
double-dashed_dotted
 70
   64
  3
------   -----------   -   -----
 72
   65
 73
    6
 40
16.75
 49
6
 49
-1.5
 49
6
 49
-1.5
 49
0.25
 49
-1.5
  0
LTYPE
  2
dashed_double-dotted
 70
   64
  3
---------    -    -    ---------
 72
   65
 73
    6
 40
11
 49
6
 49
-1.5
 49
0.25
 49
-1.5
 49
0.25
 49
-1.5
  0
LTYPE
  2
double-dashed_double-dotted
 70
   64
  3
-----   ---------   -   -   ----
 72
   65
 73
    8
 40
18.5
 49
6
 49
-1.5
 49
6
 49
-1.5
 49
0.25
 49
-1.5
 49
0.25
 49
-1.5
  0
LTYPE
  2
dashed_triplicate-dotted
 70
   64
  3
-------    -    -    -    ------
 72
   65
 73
    8
 40
12.75
 49
6
 49
-1.5
 49
0.25
 49
-1.5
 49
0.25
 49
-1.5
 49
0.25
 49
-1.5
  0
LTYPE
  2
double-dashed_triplicate-dotted
 70
   64
  3
-----  ---------  -  -  -  -----
 72
   65
 73
   10
 40
20.25
 49
6
 49
-1.5
 49
6
 49
-1.5
 49
0.25
 49
-1.5
 49
0.25
 49
-1.5
 49
0.25
 49
-1.5
  0
LTYPE
  2
undefined
 70
   64
  3
--------------------------------
 72
   65
 73
    0
 40
0
  0
ENDTAB
  0
TABLE
  2
STYLE
  5
3
100
AcDbSymbolTable
 70
     1
  0
STYLE
  5
10
100
AcDbSymbolTableRecord
100
AcDbTextStyleTableRecord
  2
STANDARD
 70
     0
 40
0.0
 41
1.0
 50
0.0
 71
     0
 42
0.2
  3
txt
  4
bigfont.shx
  0
STYLE
  5
26
100
AcDbSymbolTableRecord
100
AcDbTextStyleTableRecord
  2
TATEGAKI
 70
    68
 40
0.0
 41
1.0
 50
0.0
 71
     0
 42
1.0
  3
txt
  4
bigfont.shx
  0
ENDTAB
  0
TABLE
  2
LAYER
 70
    4
  0
LAYER
  2
_0-0_
 70
   64
 62
    7
  6
CONTINUOUS
  0
LAYER
  2
_0-1_
 70
   64
 62
    7
  6
CONTINUOUS
  0
LAYER
  2
_0-f_
 70
   64
 62
    7
  6
CONTINUOUS
  0
LAYER
  2
ADD_LINE
 70
   64
 62
    7
  6
CONTINUOUS
  0
ENDTAB
  0
ENDSEC
  0
SECTION
  2
BLOCKS
  0
ENDSEC
  0
SECTION
  2
ENTITIES
  0
TEXT
  8
_0-f_
 62
    7
 10
0.4047122882249141
 20
0.4751565202283245
 40
4.2999999999999998
 41
0.744186046511628
 50
0
  1
CALCM10
  0
LINE
  8
_0-0_
  6
CONTINUOUS
 62
    7
 10
30.22421068919175
 20
160.48408201305722
 11
36.574120689191659
 21
160.48408201305722
  0
LINE
  8
_0-0_
  6
CONTINUOUS
 62
    7
 10
36.574120689191659
 20
156.69404401305712
 11
36.574120689191659
 21
214.27412001305728
  0
LINE
  8
_0-0_
  6
CONTINUOUS
 62
    7
 10
32.883776689192018
 20
216.02311401305732
 11
33.703622689191434
 21
176.88408201305728
  0
LINE
  8
_0-0_
  6
CONTINUOUS
 62
    7
 10
33.703622689191434
 20
176.88408201305728
 11
31.256342689192024
 21
176.88408201305728
  0
LINE
  8
_0-0_
  6
CONTINUOUS
 62
    7
 10
31.403622689192161
 20
176.88408201305728
 11
30.574120689191659
 21
216.48408201305719
  0
LINE
  8
_0-0_
  6
CONTINUOUS
 62
    7
 10
30.578330689191716
 20
216.28307901305752
 11
30.578330689191716
 21
219.40065601305753
  0
LINE
  8
_0-0_
  6
CONTINUOUS
 62
    7
 10
26.411983689192311
 20
225.18408201305749
 11
71.73698368919213
 21
225.18408201305749
  0
LINE
  8
_0-0_
  6
CONTINUOUS
 62
    7
 10
71.73698368919213
 20
225.18408201305749
 11
71.73698368919213
 21
227.36200701305745
  0
LINE
  8
_0-0_
  6
CONTINUOUS
 62
    7
 10
71.73698368919213
 20
227.36200701305745
 11
71.866983689192239
 21
227.72200701305758
  0
LINE
  8
_0-0_
  6
CONTINUOUS
 62
    7
 10
71.73698368919213
 20
227.36200701305745
 11
26.411983689192311
 21
227.36200701305745
  0
LINE
  8
_0-0_
  6
CONTINUOUS
 62
    7
 10
26.411983689192311
 20
227.36200701305745
 11
26.281983689192202
 21
227.72200701305758
  0
LINE
  8
_0-0_
  6
CONTINUOUS
 62
    7
 10
26.411983689192311
 20
227.36200701305745
 11
26.411983689192311
 21
225.18408201305749
  0
LINE
  8
_0-0_
  6
CONTINUOUS
 62
    7
 10
26.956983689191475
 20
229.34700601305724
 11
27.126983689191547
 21
229.70700601305737
  0
LINE
  8
_0-0_
  6
CONTINUOUS
 62
    7
 10
27.094063689191898
 20
230.58408001305736
 11
71.006760689191651
 21
230.58408001305736
  0
LINE
  8
_0-0_
  6
CONTINUOUS
 62
    7
 10
71.021983689191984
 20
229.70700601305737
 11
71.191983689192057
 21
229.34700601305724
  0
LINE
  8
_0-0_
  6
CONTINUOUS
 62
    7
 10
72.006983689191657
 20
229.34700601305724
 11
26.141983689191875
 21
229.34700601305724
  0
LINE
  8
_0-0_
  6
CONTINUOUS
 62
    7
 10
34.074120689191659
 20
222.90065601305753
 11
64.069909689192173
 21
222.90065601305753
  0
LINE
  8
_0-0_
  6
CONTINUOUS
 62
    7
 10
67.569909689192173
 20
219.40065601305753
 11
67.569909689192173
 21
216.28307901305752
  0
LINE
  8
_0-0_
  6
CONTINUOUS
 62
    7
 10
67.574120689191659
 20
216.48408201305719
 11
66.744618689192066
 21
176.88408201305728
  0
LINE
  8
_0-0_
  6
CONTINUOUS
 62
    7
 10
66.891898689192203
 20
176.88408201305728
 11
64.444618689191884
 21
176.88408201305728
  0
LINE
  8
_0-0_
  6
CONTINUOUS
 62
    7
 10
64.444618689191884
 20
176.88408201305728
 11
65.264464689192209
 21
216.02311401305732
  0
LINE
  8
_0-0_
  6
CONTINUOUS
 62
    7
 10
61.574120689191659
 20
214.27412001305728
 11
61.574120689191659
 21
156.69404401305712
  0
LINE
  8
_0-0_
  6
CONTINUOUS
 62
    7
 10
61.574120689191659
 20
160.48408201305722
 11
67.924210689191568
 21
160.48408201305722
  0
LINE
  8
_0-0_
  6
CONTINUOUS
 62
    7
 10
67.924210689191568
 20
160.48408201305722
 11
67.924210689191568
 21
163.48408201305722
  0
LINE
  8
_0-0_
  6
CONTINUOUS
 62
    7
 10
66.324210689192114
 20
160.48408201305722
 11
66.324210689192114
 21
153.98408201305722
  0
LINE
  8
_0-0_
  6
CONTINUOUS
 62
    7
 10
66.324210689192114
 20
153.98408201305722
 11
31.824210689192114
 21
153.98408201305722
  0
LINE
  8
_0-0_
  6
CONTINUOUS
 62
    7
 10
31.824210689192114
 20
153.98408201305722
 11
31.824210689192114
 21
160.48408201305722
  0
LINE
  8
_0-0_
  6
CONTINUOUS
 62
    7
 10
30.22421068919175
 20
160.48408201305722
 11
30.22421068919175
 21
163.48408201305722
  0
LINE
  8
_0-0_
  6
CONTINUOUS
 62
    7
 10
33.22421068919175
 20
166.48408201305719
 11
36.574120689191659
 21
166.48408201305719
  0
LINE
  8
_0-0_
  6
CONTINUOUS
 62
    7
 10
36.574120689191659
 20
177.26535901305724
 11
34.986962689192296
 21
177.40421801305737
  0
LINE
  8
_0-0_
  6
CONTINUOUS
 62
    7
 10
34.074120689191659
 20
178.40041401305743
 11
34.074120689191659
 21
192.56775001305741
  0
LINE
  8
_0-0_
  6
CONTINUOUS
 62
    7
 10
34.074120689191659
 20
191.23408201305719
 11
33.403032689191605
 21
191.23408201305719
  0
LINE
  8
_0-0_
  6
CONTINUOUS
 62
    7
 10
31.045478689191441
 20
191.23408201305719
 11
28.759836689191616
 21
191.23408201305719
  0
LINE
  8
_0-0_
  6
CONTINUOUS
 62
    7
 10
28.759836689191616
 20
191.23408201305719
 11
28.759836689191616
 21
179.73408201305719
  0
LINE
  8
_0-0_
  6
CONTINUOUS
 62
    7
 10
28.759836689191616
 20
179.73408201305719
 11
31.045478689191441
 21
179.73408201305719
  0
LINE
  8
_0-0_
  6
CONTINUOUS
 62
    7
 10
31.045478689191441
 20
179.73408201305719
 11
31.045478689191441
 21
191.23408201305719
  0
LINE
  8
_0-0_
  6
CONTINUOUS
 62
    7
 10
31.045478689191441
 20
189.48408201305719
 11
31.139690689191411
 21
189.48408201305719
  0
LINE
  8
_0-0_
  6
CONTINUOUS
 62
    7
 10
34.986962689192296
 20
193.56394701305734
 11
36.574120689191659
 21
193.70280601305748
  0
LINE
  8
_0-0_
  6
CONTINUOUS
 62
    7
 10
34.074120689191659
 20
179.73408201305719
 11
33.643923689191979
 21
179.73408201305719
  0
LINE
  8
_0-0_
  6
CONTINUOUS
 62
    7
 10
31.307266689192147
 20
181.48408201305719
 11
31.045478689191441
 21
181.48408201305719
  0
LINE
  8
_0-0_
  6
CONTINUOUS
 62
    7
 10
67.529608689192173
 20
190.48408201305719
 11
67.029498689192224
 21
190.48408201305719
  0
LINE
  8
_0-0_
  6
CONTINUOUS
 62
    7
 10
67.529608689192173
 20
190.48408201305719
 11
67.320137689192052
 21
180.48408201305719
  0
LINE
  8
_0-0_
  6
CONTINUOUS
 62
    7
 10
67.320137689192052
 20
180.48408201305719
 11
66.820028689191531
 21
180.48408201305719
  0
LINE
  8
_0-0_
  6
CONTINUOUS
 62
    7
 10
64.504317689192249
 20
179.73408201305719
 11
64.074120689191659
 21
179.73408201305719
  0
LINE
  8
_0-0_
  6
CONTINUOUS
 62
    7
 10
64.074120689191659
 20
178.40041401305743
 11
64.074120689191659
 21
192.56775001305741
  0
LINE
  8
_0-0_
  6
CONTINUOUS
 62
    7
 10
64.074120689191659
 20
191.23408201305719
 11
64.745208689191713
 21
191.23408201305719
  0
LINE
  8
_0-0_
  6
CONTINUOUS
 62
    7
 10
63.161277689191593
 20
193.56394701305734
 11
61.574120689191659
 21
193.70280601305748
  0
LINE
  8
_0-0_
  6
CONTINUOUS
 62
    7
 10
61.574120689191659
 20
177.26535901305724
 11
63.161277689191593
 21
177.40421801305737
  0
LINE
  8
_0-0_
  6
CONTINUOUS
 62
    7
 10
61.574120689191659
 20
166.48408201305719
 11
64.924210689191568
 21
166.48408201305719
  0
LINE
  8
_0-0_
  6
CONTINUOUS
 62
    7
 10
24.924120689192023
 20
221.18408201305749
 11
24.924120689192023
 21
202.56759301305746
  0
LINE
  8
_0-0_
  6
CONTINUOUS
 62
    7
 10
6.074120689191659
 20
232.18408601305748
 11
92.074120689191659
 21
232.18408601305748
  0
LINE
  8
_0-0_
  6
CONTINUOUS
 62
    7
 10
95.074124689192104
 20
232.68408601305748
 11
95.074124689192104
 21
234.98408201305722
  0
LINE
  8
_0-0_
  6
CONTINUOUS
 62
    7
 10
95.074124689192104
 20
234.98408201305722
 11
3.074120689191659
 21
234.98408201305722
  0
LINE
  8
_0-0_
  6
CONTINUOUS
 62
    7
 10
3.074120689191659
 20
234.98408201305722
 11
3.074120689191659
 21
232.68408601305748
  0
LINE
  8
_0-0_
  6
CONTINUOUS
 62
    7
 10
3.074120689191659
 20
232.68408601305748
 11
95.074124689192104
 21
232.68408601305748
  0
LINE
  8
_0-0_
  6
CONTINUOUS
 62
    7
 10
73.224120689192205
 20
221.18408201305749
 11
73.224120689192205
 21
202.56759301305746
  0
LINE
  8
_0-0_
  6
CONTINUOUS
 62
    7
 10
213.96592400140617
 20
172.48408201305719
 11
213.96592400140617
 21
168.48408201305719
  0
LINE
  8
_0-0_
  6
CONTINUOUS
 62
    7
 10
214.46592400140526
 20
166.98408201305719
 11
193.46592400140526
 21
166.98408201305719
  0
LINE
  8
_0-0_
  6
CONTINUOUS
 62
    7
 10
193.46592400140526
 20
166.98408201305719
 11
193.46592400140526
 21
166.48408201305719
  0
LINE
  8
_0-0_
  6
CONTINUOUS
 62
    7
 10
193.96592400140617
 20
168.48408201305719
 11
193.96592400140617
 21
172.48408201305719
  0
LINE
  8
_0-0_
  6
CONTINUOUS
 62
    7
 10
193.96592400140617
 20
172.48408201305719
 11
213.96592400140617
 21
172.48408201305719
  0
LINE
  8
_0-0_
  6
CONTINUOUS
 62
    7
 10
208.96592400140617
 20
172.48408201305719
 11
208.96592400140617
 21
190.68408601305745
  0
LINE
  8
_0-0_
  6
CONTINUOUS
 62
    7
 10
198.96592400140617
 20
190.68408601305745
 11
198.96592400140617
 21
172.48408201305719
  0
LINE
  8
_0-0_
  6
CONTINUOUS
 62
    7
 10
199.46592400140526
 20
172.48408201305719
 11
199.46592400140526
 21
168.48408201305719
  0
LINE
  8
_0-0_
  6
CONTINUOUS
 62
    7
 10
200.46592400140617
 20
167.48408201305719
 11
200.46592400140617
 21
166.99877401305739
  0
LINE
  8
_0-0_
  6
CONTINUOUS
 62
    7
 10
196.71592400140617
 20
167.48408201305719
 11
211.21592400140617
 21
167.48408201305719
  0
LINE
  8
_0-0_
  6
CONTINUOUS
 62
    7
 10
214.46592400140526
 20
166.98408201305719
 11
214.46592400140526
 21
166.48408201305719
  0
LINE
  8
_0-0_
  6
CONTINUOUS
 62
    7
 10
219.81592400140562
 20
166.48408201305719
 11
188.1159240014058
 21
166.48408201305719
  0
LINE
  8
_0-0_
  6
CONTINUOUS
 62
    7
 10
185.1159240014058
 20
163.48408201305722
 11
185.1159240014058
 21
160.48408201305722
  0
LINE
  8
_0-0_
  6
CONTINUOUS
 62
    7
 10
185.1159240014058
 20
160.48408201305722
 11
222.81592400140562
 21
160.48408201305722
  0
LINE
  8
_0-0_
  6
CONTINUOUS
 62
    7
 10
222.81592400140562
 20
160.48408201305722
 11
222.81592400140562
 21
163.48408201305722
  0
LINE
  8
_0-0_
  6
CONTINUOUS
 62
    7
 10
221.21592400140617
 20
160.48408201305722
 11
221.21592400140617
 21
153.98408201305722
  0
LINE
  8
_0-0_
  6
CONTINUOUS
 62
    7
 10
221.21592400140617
 20
153.98408201305722
 11
186.71592400140526
 21
153.98408201305722
  0
LINE
  8
_0-0_
  6
CONTINUOUS
 62
    7
 10
186.71592400140526
 20
153.98408201305722
 11
186.71592400140526
 21
160.48408201305722
  0
LINE
  8
_0-0_
  6
CONTINUOUS
 62
    7
 10
205.3659240014058
 20
227.3840860130573
 11
202.56592400140562
 21
227.3840860130573
  0
LINE
  8
_0-0_
  6
CONTINUOUS
 62
    7
 10
203.06592400140562
 20
226.8840860130573
 11
203.06592400140562
 21
225.68408601305748
  0
LINE
  8
_0-0_
  6
CONTINUOUS
 62
    7
 10
202.56592400140562
 20
225.18408601305748
 11
205.3659240014058
 21
225.18408601305748
  0
LINE
  8
_0-0_
  6
CONTINUOUS
 62
    7
 10
204.8659240014058
 20
225.68408601305748
 11
204.8659240014058
 21
226.8840860130573
  0
LINE
  8
_0-0_
  6
CONTINUOUS
 62
    7
 10
203.96592400140617
 20
227.3840860130573
 11
203.96592400140617
 21
232.18408601305748
  0
LINE
  8
_0-0_
  6
CONTINUOUS
 62
    7
 10
196.96592400140617
 20
232.18408601305748
 11
196.96592400140617
 21
225.18408201305749
  0
LINE
  8
_0-0_
  6
CONTINUOUS
 62
    7
 10
192.62878700140573
 20
225.18408201305749
 11
192.62878700140573
 21
227.36200701305745
  0
LINE
  8
_0-0_
  6
CONTINUOUS
 62
    7
 10
192.62878700140573
 20
227.36200701305745
 11
147.30378700140591
 21
227.36200701305745
  0
LINE
  8
_0-0_
  6
CONTINUOUS
 62
    7
 10
147.30378700140591
 20
227.36200701305745
 11
147.30378700140591
 21
225.18408201305749
  0
LINE
  8
_0-0_
  6
CONTINUOUS
 62
    7
 10
147.30378700140591
 20
225.18408201305749
 11
210.96592400140617
 21
225.18408201305749
  0
LINE
  8
_0-0_
  6
CONTINUOUS
 62
    7
 10
210.96592400140617
 20
225.18408201305749
 11
210.96592400140617
 21
232.18408601305748
  0
LINE
  8
_0-0_
  6
CONTINUOUS
 62
    7
 10
212.96592400140617
 20
232.18408601305748
 11
126.96592400140526
 21
232.18408601305748
  0
LINE
  8
_0-0_
  6
CONTINUOUS
 62
    7
 10
123.96592400140526
 20
232.68408601305748
 11
123.96592400140526
 21
234.98408201305722
  0
LINE
  8
_0-0_
  6
CONTINUOUS
 62
    7
 10
123.96592400140526
 20
234.98408201305722
 11
215.9659280014057
 21
234.98408201305722
  0
LINE
  8
_0-0_
  6
CONTINUOUS
 62
    7
 10
215.9659280014057
 20
234.98408201305722
 11
215.9659280014057
 21
232.68408601305748
  0
LINE
  8
_0-0_
  6
CONTINUOUS
 62
    7
 10
215.9659280014057
 20
232.68408601305748
 11
123.96592400140526
 21
232.68408601305748
  0
LINE
  8
_0-0_
  6
CONTINUOUS
 62
    7
 10
130.65836100140586
 20
220.90687001305753
 11
135.94991800140542
 21
180.79553301305722
  0
LINE
  8
_0-0_
  6
CONTINUOUS
 62
    7
 10
140.41126500140581
 20
176.88408201305728
 11
152.83884000140552
 21
176.88408201305728
  0
LINE
  8
_0-0_
  6
CONTINUOUS
 62
    7
 10
156.75746800140587
 20
179.17176401305741
 11
169.09974800140571
 21
201.03335601305761
  0
LINE
  8
_0-0_
  6
CONTINUOUS
 62
    7
 10
147.30378700140591
 20
227.36200701305745
 11
147.1737870014058
 21
227.72200701305758
  0
LINE
  8
_0-0_
  6
CONTINUOUS
 62
    7
 10
192.62878700140573
 20
227.36200701305745
 11
192.75878700140584
 21
227.72200701305758
  0
LINE
  8
_0-0_
  6
CONTINUOUS
 62
    7
 10
192.89878700140525
 20
229.34700601305724
 11
147.03378700140547
 21
229.34700601305724
  0
LINE
  8
_0-0_
  6
CONTINUOUS
 62
    7
 10
147.84878700140598
 20
229.34700601305724
 11
148.01878700140605
 21
229.70700601305737
  0
LINE
  8
_0-0_
  6
CONTINUOUS
 62
    7
 10
147.9858670014055
 20
230.58408001305736
 11
191.89856400140525
 21
230.58408001305736
  0
LINE
  8
_0-0_
  6
CONTINUOUS
 62
    7
 10
191.91378700140558
 20
229.70700601305737
 11
192.08378700140565
 21
229.34700601305724
  0
LINE
  8
_0-0_
  6
CONTINUOUS
 62
    7
 10
161.08295800140604
 20
222.90065601305753
 11
145.46592400140526
 21
222.90065601305753
  0
LINE
  8
_0-0_
  6
CONTINUOUS
 62
    7
 10
132.46587900140548
 20
97.575340955486013
 11
207.46587900140548
 21
97.575340955486013
  0
LINE
  8
_0-0_
  6
CONTINUOUS
 62
    7
 10
207.46587900140548
 20
5.5753369554860228
 11
132.46587900140548
 21
5.5753369554860228
  0
LINE
  8
_0-0_
  6
CONTINUOUS
 62
    7
 10
132.68800500140605
 20
33.90484295548606
 11
151.64182300140601
 21
33.90484295548606
  0
LINE
  8
_0-0_
  6
CONTINUOUS
 62
    7
 10
151.64182300140601
 20
36.204842955486242
 11
131.33412900140593
 21
36.204842955486242
  0
LINE
  8
_0-0_
  6
CONTINUOUS
 62
    7
 10
134.88605900140556
 20
37.488182955486195
 11
134.74720000140587
 21
39.075340955486013
  0
LINE
  8
_0-0_
  6
CONTINUOUS
 62
    7
 10
135.88225600140595
 20
36.575340955486013
 11
150.04959200140547
 21
36.575340955486013
  0
LINE
  8
_0-0_
  6
CONTINUOUS
 62
    7
 10
148.71592400140526
 20
36.575340955486013
 11
148.71592400140526
 21
36.204842955486242
  0
LINE
  8
_0-0_
  6
CONTINUOUS
 62
    7
 10
148.71592400140526
 20
33.546698955486249
 11
137.21592400140526
 21
33.546698955486249
  0
LINE
  8
_0-0_
  6
CONTINUOUS
 62
    7
 10
137.21592400140526
 20
33.546698955486249
 11
137.21592400140526
 21
31.261056955485969
  0
LINE
  8
_0-0_
  6
CONTINUOUS
 62
    7
 10
137.21592400140526
 20
31.261056955485969
 11
148.71592400140526
 21
31.261056955485969
  0
LINE
  8
_0-0_
  6
CONTINUOUS
 62
    7
 10
148.71592400140526
 20
31.261056955485969
 11
148.71592400140526
 21
33.546698955486249
  0
LINE
  8
_0-0_
  6
CONTINUOUS
 62
    7
 10
146.96592400140526
 20
33.546698955486249
 11
146.96592400140526
 21
33.90484295548606
  0
LINE
  8
_0-0_
  6
CONTINUOUS
 62
    7
 10
151.04578800140553
 20
37.488182955486195
 11
151.18464700140612
 21
39.075340955486013
  0
LINE
  8
_0-0_
  6
CONTINUOUS
 62
    7
 10
137.21592400140526
 20
36.575340955486013
 11
137.21592400140526
 21
36.204842955486242
  0
LINE
  8
_0-0_
  6
CONTINUOUS
 62
    7
 10
138.96592400140526
 20
33.90484295548606
 11
138.96592400140526
 21
33.546698955486249
  0
LINE
  8
_0-0_
  6
CONTINUOUS
 62
    7
 10
138.96592400140526
 20
69.509771955485689
 11
138.96592400140526
 21
69.245838955485965
  0
LINE
  8
_0-0_
  6
CONTINUOUS
 62
    7
 10
137.96592400140526
 20
69.530718955486122
 11
147.96592400140526
 21
69.321248955485885
  0
LINE
  8
_0-0_
  6
CONTINUOUS
 62
    7
 10
147.96592400140526
 20
69.321248955485885
 11
147.96592400140526
 21
69.821357955485951
  0
LINE
  8
_0-0_
  6
CONTINUOUS
 62
    7
 10
147.96592400140526
 20
69.821357955485951
 11
137.96592400140526
 21
70.030828955485617
  0
LINE
  8
_0-0_
  6
CONTINUOUS
 62
    7
 10
137.96592400140526
 20
70.030828955485617
 11
137.96592400140526
 21
69.530718955486122
  0
LINE
  8
_0-0_
  6
CONTINUOUS
 62
    7
 10
137.21592400140526
 20
66.945838955485783
 11
137.21592400140526
 21
66.575340955486013
  0
LINE
  8
_0-0_
  6
CONTINUOUS
 62
    7
 10
135.88225600140595
 20
66.575340955486013
 11
150.04959200140547
 21
66.575340955486013
  0
LINE
  8
_0-0_
  6
CONTINUOUS
 62
    7
 10
148.71592400140526
 20
66.575340955486013
 11
148.71592400140526
 21
66.945838955485783
  0
LINE
  8
_0-0_
  6
CONTINUOUS
 62
    7
 10
151.64182300140601
 20
66.945838955485783
 11
131.33412900140593
 21
66.945838955485783
  0
LINE
  8
_0-0_
  6
CONTINUOUS
 62
    7
 10
132.68800500140605
 20
69.245838955485965
 11
151.64182300140601
 21
69.245838955485965
  0
LINE
  8
_0-0_
  6
CONTINUOUS
 62
    7
 10
151.04578800140553
 20
65.662497955485946
 11
151.18464700140612
 21
64.075340955486013
  0
LINE
  8
_0-0_
  6
CONTINUOUS
 62
    7
 10
146.96592400140526
 20
69.245838955485965
 11
146.96592400140526
 21
69.342195955486318
  0
LINE
  8
_0-0_
  6
CONTINUOUS
 62
    7
 10
134.88605900140556
 20
65.662497955485946
 11
134.74720000140587
 21
64.075340955486013
  0
LINE
  8
_0-0_
  6
CONTINUOUS
 62
    7
 10
123.96587900140548
 20
64.075340955486013
 11
123.96587900140548
 21
89.075340955486013
  0
LINE
  8
_0-0_
  6
CONTINUOUS
 62
    7
 10
114.17588600140607
 20
64.075340955486013
 11
171.75596200140535
 21
64.075340955486013
  0
LINE
  8
_0-0_
  6
CONTINUOUS
 62
    7
 10
185.61582200140583
 20
66.823349955485924
 11
189.13557600140575
 21
63.210815955486055
  0
LINE
  8
_0-0_
  6
CONTINUOUS
 62
    7
 10
190.66727100140542
 20
64.934586955485997
 11
187.26318500140587
 21
68.428402955486149
  0
LINE
  8
_0-0_
  6
CONTINUOUS
 62
    7
 10
197.96592400140617
 20
57.575382955486134
 11
197.96592400140617
 21
51.575382955486134
  0
LINE
  8
_0-0_
  6
CONTINUOUS
 62
    7
 10
200.08649100140519
 20
51.575384955485902
 11
200.43854000140527
 21
51.575384955485902
  0
LINE
  8
_0-0_
  6
CONTINUOUS
 62
    7
 10
203.03694400140557
 20
51.575382955486134
 11
202.85758500140582
 21
51.082597955486222
  0
LINE
  8
_0-0_
  6
CONTINUOUS
 62
    7
 10
202.85758500140582
 20
51.082597955486222
 11
202.25011900140544
 21
50.453547955486215
  0
LINE
  8
_0-0_
  6
CONTINUOUS
 62
    7
 10
202.84408900140534
 20
49.859577955485861
 11
203.47313800140546
 21
50.467043955486247
  0
LINE
  8
_0-0_
  6
CONTINUOUS
 62
    7
 10
203.47313800140546
 20
50.467043955486247
 11
203.96592400140617
 21
50.64640395548588
  0
LINE
  8
_0-0_
  6
CONTINUOUS
 62
    7
 10
203.96592400140617
 20
50.64640395548588
 11
204.45871000140596
 21
50.467043955486247
  0
LINE
  8
_0-0_
  6
CONTINUOUS
 62
    7
 10
204.45871000140596
 20
50.467043955486247
 11
205.08775900140608
 21
49.859577955485861
  0
LINE
  8
_0-0_
  6
CONTINUOUS
 62
    7
 10
205.68172900140598
 20
50.453547955486215
 11
205.0742630014056
 21
51.082597955486222
  0
LINE
  8
_0-0_
  6
CONTINUOUS
 62
    7
 10
205.0742630014056
 20
51.082597955486222
 11
204.89490400140585
 21
51.575382955486134
  0
LINE
  8
_0-0_
  6
CONTINUOUS
 62
    7
 10
204.89490400140585
 20
51.575382955486134
 11
205.0742630014056
 21
52.06816895548593
  0
LINE
  8
_0-0_
  6
CONTINUOUS
 62
    7
 10
205.0742630014056
 20
52.06816895548593
 11
205.68172900140598
 21
52.697217955486053
  0
LINE
  8
_0-0_
  6
CONTINUOUS
 62
    7
 10
205.08775900140608
 20
53.291187955485952
 11
204.45871000140596
 21
52.683721955486021
  0
LINE
  8
_0-0_
  6
CONTINUOUS
 62
    7
 10
204.45871000140596
 20
52.683721955486021
 11
203.96592400140617
 21
52.504362955486272
  0
LINE
  8
_0-0_
  6
CONTINUOUS
 62
    7
 10
203.96592400140617
 20
52.504362955486272
 11
203.47313800140546
 21
52.683721955486021
  0
LINE
  8
_0-0_
  6
CONTINUOUS
 62
    7
 10
203.47313800140546
 20
52.683721955486021
 11
202.84408900140534
 21
53.291187955485952
  0
LINE
  8
_0-0_
  6
CONTINUOUS
 62
    7
 10
202.25011900140544
 20
52.697217955486053
 11
202.85758500140582
 21
52.06816895548593
  0
LINE
  8
_0-0_
  6
CONTINUOUS
 62
    7
 10
202.85758500140582
 20
52.06816895548593
 11
203.03694400140557
 21
51.575382955486134
  0
LINE
  8
_0-0_
  6
CONTINUOUS
 62
    7
 10
202.768854001406
 20
54.86430795548597
 11
202.63907900140566
 21
55.220860955486046
  0
LINE
  8
_0-0_
  6
CONTINUOUS
 62
    7
 10
205.29276700140599
 20
55.220860955486046
 11
205.16299300140599
 21
54.86430795548597
  0
LINE
  8
_0-0_
  6
CONTINUOUS
 62
    7
 10
207.46592400140617
 20
51.575382955486134
 11
207.84535700140532
 21
51.575384955485902
  0
LINE
  8
_0-0_
  6
CONTINUOUS
 62
    7
 10
209.96592400140617
 20
51.575382955486134
 11
209.96592400140617
 21
57.575382955486134
  0
LINE
  8
_0-0_
  6
CONTINUOUS
 62
    7
 10
206.66550100140557
 20
49.347764955486241
 11
207.44326500140596
 21
48.000637955486241
  0
LINE
  8
_0-0_
  6
CONTINUOUS
 62
    7
 10
200.48858500140614
 20
48.000637955486241
 11
201.26635000140595
 21
49.347760955486251
  0
LINE
  8
_0-0_
  6
CONTINUOUS
 62
    7
 10
189.13561300140555
 20
39.939903955486102
 11
185.61582200140583
 21
36.327331955486102
  0
LINE
  8
_0-0_
  6
CONTINUOUS
 62
    7
 10
187.26318500140587
 20
34.722278955485876
 11
190.66731200140566
 21
38.216137955486033
  0
LINE
  8
_0-0_
  6
CONTINUOUS
 62
    7
 10
171.75596200140535
 20
39.075340955486013
 11
114.17588600140607
 21
39.075340955486013
  0
LINE
  8
_0-0_
  6
CONTINUOUS
 62
    7
 10
123.96587900140548
 20
39.075340955486013
 11
123.96587900140548
 21
14.075336955486023
  0
LINE
  8
_0-0_
  6
CONTINUOUS
 62
    7
 10
215.96587900140548
 20
89.075340955486013
 11
215.96587900140548
 21
66.112355955485896
  0
LINE
  8
_0-0_
  6
CONTINUOUS
 62
    7
 10
215.96587900140548
 20
37.038409955485918
 11
215.96587900140548
 21
14.075340955486013
  0
LINE
  8
_0-0_
  6
CONTINUOUS
 62
    7
 10
123.96587900140548
 20
375.95083367389554
 11
123.96587900140548
 21
300.95083367389554
  0
LINE
  8
_0-0_
  6
CONTINUOUS
 62
    7
 10
132.46587900140548
 20
292.45083367389554
 11
207.46587900140548
 21
292.45083367389554
  0
LINE
  8
_0-0_
  6
CONTINUOUS
 62
    7
 10
207.46587900140548
 20
384.45083367389554
 11
132.46587900140548
 21
384.45083367389554
  0
LINE
  8
_0-0_
  6
CONTINUOUS
 62
    7
 10
123.96587900140548
 20
350.95083367389554
 11
114.17588600140607
 21
350.95083367389554
  0
LINE
  8
_0-0_
  6
CONTINUOUS
 62
    7
 10
215.96587900140548
 20
300.95083367389554
 11
215.96587900140548
 21
375.95083367389554
  0
LINE
  8
_0-0_
  6
CONTINUOUS
 62
    7
 10
214.96592400140617
 20
221.18408201305749
 11
214.96592400140617
 21
210.18408201305746
  0
LINE
  8
_0-0_
  6
CONTINUOUS
 62
    7
 10
214.96592400140617
 20
210.18408201305746
 11
184.77426100140565
 21
210.18408201305746
  0
LINE
  8
_0-0_
  6
CONTINUOUS
 62
    7
 10
196.96592400140617
 20
210.18408201305746
 11
196.96592400140617
 21
191.76708601305754
  0
LINE
  8
_0-0_
  6
CONTINUOUS
 62
    7
 10
196.96592400140617
 20
191.76708601305754
 11
197.21592400140526
 21
190.68408601305745
  0
LINE
  8
_0-0_
  6
CONTINUOUS
 62
    7
 10
197.21592400140526
 20
190.68408601305745
 11
210.71592400140617
 21
190.68408601305745
  0
LINE
  8
_0-0_
  6
CONTINUOUS
 62
    7
 10
210.71592400140617
 20
190.68408601305745
 11
210.96592400140617
 21
191.76708601305754
  0
LINE
  8
_0-0_
  6
CONTINUOUS
 62
    7
 10
210.96592400140617
 20
191.76708601305754
 11
210.96592400140617
 21
210.18408201305746
  0
LINE
  8
_0-0_
  6
CONTINUOUS
 62
    7
 10
203.96592400140617
 20
210.18408201305746
 11
203.96592400140617
 21
191.76708601305754
  0
LINE
  8
_0-0_
  6
CONTINUOUS
 62
    7
 10
208.46592400140617
 20
172.48408201305719
 11
208.46592400140617
 21
168.48408201305719
  0
LINE
  8
_0-0_
  6
CONTINUOUS
 62
    7
 10
207.46592400140617
 20
167.48408201305719
 11
207.46592400140617
 21
166.99877401305739
  0
LINE
  8
_0-0_
  6
CONTINUOUS
 62
    7
 10
271.07104824904127
 20
166.48408201305719
 11
302.77104824904109
 21
166.48408201305719
  0
LINE
  8
_0-0_
  6
CONTINUOUS
 62
    7
 10
299.42104824904163
 20
166.48408201305719
 11
299.42104824904163
 21
210.18408201305746
  0
LINE
  8
_0-0_
  6
CONTINUOUS
 62
    7
 10
297.92104824904163
 20
210.18408201305746
 11
297.92104824904163
 21
221.18408201305749
  0
LINE
  8
_0-0_
  6
CONTINUOUS
 62
    7
 10
309.58318524904098
 20
225.18408201305749
 11
264.25818524904116
 21
225.18408201305749
  0
LINE
  8
_0-0_
  6
CONTINUOUS
 62
    7
 10
278.83814424904085
 20
225.18408201305749
 11
278.83814424904085
 21
232.18408601305748
  0
LINE
  8
_0-0_
  6
CONTINUOUS
 62
    7
 10
278.83814424904085
 20
230.58408001305736
 11
264.98840824904164
 21
230.58408001305736
  0
LINE
  8
_0-0_
  6
CONTINUOUS
 62
    7
 10
264.97318524904131
 20
229.70700601305737
 11
264.80318524904123
 21
229.34700601305724
  0
LINE
  8
_0-0_
  6
CONTINUOUS
 62
    7
 10
263.98818524904163
 20
229.34700601305724
 11
278.83814424904085
 21
229.34700601305724
  0
LINE
  8
_0-0_
  6
CONTINUOUS
 62
    7
 10
275.92104824904072
 20
221.18408201305749
 11
275.92104824904072
 21
210.18408201305746
  0
LINE
  8
_0-0_
  6
CONTINUOUS
 62
    7
 10
274.42104824904163
 20
210.18408201305746
 11
274.42104824904163
 21
166.48408201305719
  0
LINE
  8
_0-0_
  6
CONTINUOUS
 62
    7
 10
276.42104824904163
 20
166.48408201305719
 11
276.42104824904163
 21
166.98408201305719
  0
LINE
  8
_0-0_
  6
CONTINUOUS
 62
    7
 10
276.42104824904163
 20
166.98408201305719
 11
297.42104824904163
 21
166.98408201305719
  0
LINE
  8
_0-0_
  6
CONTINUOUS
 62
    7
 10
297.42104824904163
 20
166.98408201305719
 11
297.42104824904163
 21
166.48408201305719
  0
LINE
  8
_0-0_
  6
CONTINUOUS
 62
    7
 10
295.42104824904163
 20
167.48408201305719
 11
278.42104824904163
 21
167.48408201305719
  0
LINE
  8
_0-0_
  6
CONTINUOUS
 62
    7
 10
278.42104824904163
 20
167.48408201305719
 11
278.42104824904163
 21
172.48408201305719
  0
LINE
  8
_0-0_
  6
CONTINUOUS
 62
    7
 10
278.42104824904163
 20
172.48408201305719
 11
295.42104824904163
 21
172.48408201305719
  0
LINE
  8
_0-0_
  6
CONTINUOUS
 62
    7
 10
295.42104824904163
 20
172.48408201305719
 11
295.42104824904163
 21
167.48408201305719
  0
LINE
  8
_0-0_
  6
CONTINUOUS
 62
    7
 10
290.42104824904072
 20
167.48408201305719
 11
290.42104824904072
 21
166.99877401305739
  0
LINE
  8
_0-0_
  6
CONTINUOUS
 62
    7
 10
286.92104824904163
 20
168.48408201305719
 11
286.92104824904163
 21
172.48408201305719
  0
LINE
  8
_0-0_
  6
CONTINUOUS
 62
    7
 10
291.92104824904072
 20
172.48408201305719
 11
291.92104824904072
 21
190.68408601305745
  0
LINE
  8
_0-0_
  6
CONTINUOUS
 62
    7
 10
281.92104824904072
 20
190.68408601305745
 11
281.92104824904072
 21
172.48408201305719
  0
LINE
  8
_0-0_
  6
CONTINUOUS
 62
    7
 10
283.42104824904163
 20
167.48408201305719
 11
283.42104824904163
 21
166.99877401305739
  0
LINE
  8
_0-0_
  6
CONTINUOUS
 62
    7
 10
290.96250024904111
 20
232.18408601305748
 11
290.96250024904111
 21
225.18408201305749
  0
LINE
  8
_0-0_
  6
CONTINUOUS
 62
    7
 10
295.0039522490415
 20
225.18408201305749
 11
295.0039522490415
 21
232.18408601305748
  0
LINE
  8
_0-0_
  6
CONTINUOUS
 62
    7
 10
295.0039522490415
 20
230.58408001305736
 11
308.90110524904139
 21
230.58408001305736
  0
LINE
  8
_0-0_
  6
CONTINUOUS
 62
    7
 10
308.86818524904083
 20
229.70700601305737
 11
309.03818524904091
 21
229.34700601305724
  0
LINE
  8
_0-0_
  6
CONTINUOUS
 62
    7
 10
309.85318524904142
 20
229.34700601305724
 11
295.0039522490415
 21
229.34700601305724
  0
LINE
  8
_0-0_
  6
CONTINUOUS
 62
    7
 10
311.07104824904127
 20
221.18408201305749
 11
311.07104824904127
 21
202.56759301305746
  0
LINE
  8
_0-0_
  6
CONTINUOUS
 62
    7
 10
302.96517324904107
 20
209.04267401305705
 11
302.29154624904095
 21
176.88408201305728
  0
LINE
  8
_0-0_
  6
CONTINUOUS
 62
    7
 10
302.29154624904095
 20
176.88408201305728
 11
304.73882624904127
 21
176.88408201305728
  0
LINE
  8
_0-0_
  6
CONTINUOUS
 62
    7
 10
301.00820524904157
 20
177.40421801305737
 11
299.42104824904163
 21
177.26535901305724
  0
LINE
  8
_0-0_
  6
CONTINUOUS
 62
    7
 10
301.92104824904072
 20
178.40041401305743
 11
301.92104824904072
 21
192.56775001305741
  0
LINE
  8
_0-0_
  6
CONTINUOUS
 62
    7
 10
301.92104824904072
 20
191.23408201305719
 11
302.59213624904078
 21
191.23408201305719
  0
LINE
  8
_0-0_
  6
CONTINUOUS
 62
    7
 10
301.00820524904157
 20
193.56394701305734
 11
299.42104824904163
 21
193.70280601305748
  0
LINE
  8
_0-0_
  6
CONTINUOUS
 62
    7
 10
295.0039522490415
 20
191.54159701305716
 11
295.0039522490415
 21
210.18408201305746
  0
LINE
  8
_0-0_
  6
CONTINUOUS
 62
    7
 10
290.96250024904111
 20
210.18408201305746
 11
290.96250024904111
 21
192.68408601305745
  0
LINE
  8
_0-0_
  6
CONTINUOUS
 62
    7
 10
292.98322624904085
 20
190.68408601305745
 11
280.8588702490415
 21
190.68408601305745
  0
LINE
  8
_0-0_
  6
CONTINUOUS
 62
    7
 10
279.75457124904096
 20
191.0124980130573
 11
278.83814424904085
 21
191.54159701305716
  0
LINE
  8
_0-0_
  6
CONTINUOUS
 62
    7
 10
278.83814424904085
 20
191.54159701305716
 11
278.83814424904085
 21
210.18408201305746
  0
LINE
  8
_0-0_
  6
CONTINUOUS
 62
    7
 10
282.87959624904124
 20
210.18408201305746
 11
282.87959624904124
 21
192.68408601305745
  0
LINE
  8
_0-0_
  6
CONTINUOUS
 62
    7
 10
274.42104824904163
 20
193.70280601305748
 11
272.83389024904136
 21
193.56394701305734
  0
LINE
  8
_0-0_
  6
CONTINUOUS
 62
    7
 10
271.92104824904163
 20
192.56775001305741
 11
271.92104824904163
 21
178.40041401305743
  0
LINE
  8
_0-0_
  6
CONTINUOUS
 62
    7
 10
271.92104824904163
 20
179.73408201305719
 11
271.49085124904104
 21
179.73408201305719
  0
LINE
  8
_0-0_
  6
CONTINUOUS
 62
    7
 10
271.55055024904141
 20
176.88408201305728
 11
270.87692324904128
 21
209.04267401305705
  0
LINE
  8
_0-0_
  6
CONTINUOUS
 62
    7
 10
270.11058324904116
 20
210.18408201305746
 11
303.7315132490412
 21
210.18408201305746
  0
LINE
  8
_0-0_
  6
CONTINUOUS
 62
    7
 10
295.0039522490415
 20
191.54159701305716
 11
294.08752524904139
 21
191.0124980130573
  0
LINE
  8
_0-0_
  6
CONTINUOUS
 62
    7
 10
301.92104824904072
 20
179.73408201305719
 11
302.35124524904131
 21
179.73408201305719
  0
LINE
  8
_0-0_
  6
CONTINUOUS
 62
    7
 10
307.17769224904077
 20
179.73408201305719
 11
307.23542224904122
 21
179.73408201305719
  0
LINE
  8
_0-0_
  6
CONTINUOUS
 62
    7
 10
307.23542224904122
 20
179.73408201305719
 11
307.23542224904122
 21
179.8991160130573
  0
LINE
  8
_0-0_
  6
CONTINUOUS
 62
    7
 10
271.24996024904158
 20
191.23408201305719
 11
271.92104824904163
 21
191.23408201305719
  0
LINE
  8
_0-0_
  6
CONTINUOUS
 62
    7
 10
271.55055024904141
 20
176.88408201305728
 11
269.10327024904109
 21
176.88408201305728
  0
LINE
  8
_0-0_
  6
CONTINUOUS
 62
    7
 10
272.83389024904136
 20
177.40421801305737
 11
274.42104824904163
 21
177.26535901305724
  0
LINE
  8
_0-0_
  6
CONTINUOUS
 62
    7
 10
268.07104824904127
 20
163.48408201305722
 11
268.07104824904127
 21
160.48408201305722
  0
LINE
  8
_0-0_
  6
CONTINUOUS
 62
    7
 10
268.07104824904127
 20
160.48408201305722
 11
305.77104824904109
 21
160.48408201305722
  0
LINE
  8
_0-0_
  6
CONTINUOUS
 62
    7
 10
305.77104824904109
 20
160.48408201305722
 11
305.77104824904109
 21
163.48408201305722
  0
LINE
  8
_0-0_
  6
CONTINUOUS
 62
    7
 10
304.17104824904163
 20
160.48408201305722
 11
304.17104824904163
 21
153.98408201305722
  0
LINE
  8
_0-0_
  6
CONTINUOUS
 62
    7
 10
304.17104824904163
 20
153.98408201305722
 11
269.67104824904072
 21
153.98408201305722
  0
LINE
  8
_0-0_
  6
CONTINUOUS
 62
    7
 10
269.67104824904072
 20
153.98408201305722
 11
269.67104824904072
 21
160.48408201305722
  0
LINE
  8
_0-0_
  6
CONTINUOUS
 62
    7
 10
262.77104824904109
 20
202.56759301305746
 11
262.77104824904109
 21
221.18408201305749
  0
LINE
  8
_0-0_
  6
CONTINUOUS
 62
    7
 10
243.92104824904163
 20
232.18408601305748
 11
329.92104824904163
 21
232.18408601305748
  0
LINE
  8
_0-0_
  6
CONTINUOUS
 62
    7
 10
332.92104824904163
 20
232.68408601305748
 11
332.92104824904163
 21
234.98408201305722
  0
LINE
  8
_0-0_
  6
CONTINUOUS
 62
    7
 10
332.92104824904163
 20
234.98408201305722
 11
240.92104424904119
 21
234.98408201305722
  0
LINE
  8
_0-0_
  6
CONTINUOUS
 62
    7
 10
240.92104424904119
 20
234.98408201305722
 11
240.92104424904119
 21
232.68408601305748
  0
LINE
  8
_0-0_
  6
CONTINUOUS
 62
    7
 10
240.92104424904119
 20
232.68408601305748
 11
332.92104824904163
 21
232.68408601305748
  0
LINE
  8
_0-0_
  6
CONTINUOUS
 62
    7
 10
282.87959624904124
 20
232.18408601305748
 11
282.87959624904124
 21
225.18408201305749
  0
LINE
  8
_0-0_
  6
CONTINUOUS
 62
    7
 10
127.66592400140598
 20
219.72090401305752
 11
128.60432400140598
 21
217.62104601305748
  0
LINE
  8
_0-0_
  6
CONTINUOUS
 62
    7
 10
123.96587900140548
 20
325.95083367389554
 11
114.17588600140607
 21
325.95083367389554
  0
ARC
  8
_0-0_
  6
CONTINUOUS
 62
    7
 10
114.17588600140607
 20
327.95083367389554
 40
2
 50
187.73638
 51
270
  0
ARC
  8
_0-0_
  6
CONTINUOUS
 62
    7
 10
114.17588600140607
 20
348.95083367389554
 40
2
 50
90
 51
172.26361999999997
  0
ARC
  8
_0-0_
  6
CONTINUOUS
 62
    7
 10
191.46592400140526
 20
338.45083367389554
 40
80
 50
172.26361999999995
 51
187.73638000000003
  0
CIRCLE
  8
_0-0_
  6
CONTINUOUS
 62
    7
 10
132.46587900140548
 20
375.95083367389554
 40
4.25
  0
CIRCLE
  8
_0-0_
  6
CONTINUOUS
 62
    7
 10
132.46587900140548
 20
300.95083367389554
 40
4.25
  0
ARC
  8
_0-0_
  6
CONTINUOUS
 62
    7
 10
132.46587900140548
 20
300.95083367389554
 40
8.5
 50
180
 51
270
  0
CIRCLE
  8
_0-0_
  6
CONTINUOUS
 62
    7
 10
207.46587900140548
 20
375.95083367389554
 40
4.25
  0
ARC
  8
_0-0_
  6
CONTINUOUS
 62
    7
 10
207.46587900140548
 20
300.95083367389554
 40
8.5
 50
270
 51
0
  0
CIRCLE
  8
_0-0_
  6
CONTINUOUS
 62
    7
 10
207.46587900140548
 20
300.95083367389554
 40
4.25
  0
ARC
  8
_0-0_
  6
CONTINUOUS
 62
    7
 10
203.96587900140548
 20
338.45083367389554
 40
18.850000000000001
 50
309.539109
 51
50.46089099999999
  0
CIRCLE
  8
_0-0_
  6
CONTINUOUS
 62
    7
 10
169.96587900140548
 20
338.45083367389554
 40
12
  0
CIRCLE
  8
_0-0_
  6
CONTINUOUS
 62
    7
 10
169.96587900140548
 20
338.45083367389554
 40
21.499999999999989
  0
CIRCLE
  8
_0-0_
  6
CONTINUOUS
 62
    7
 10
169.96587900140548
 20
338.45083367389554
 40
23.399999999999991
  0
CIRCLE
  8
_0-0_
  6
CONTINUOUS
 62
    7
 10
169.96587900140548
 20
338.45083367389554
 40
42.5
  0
ARC
  8
_0-0_
  6
CONTINUOUS
 62
    7
 10
207.46587900140548
 20
375.95083367389554
 40
8.5
 50
0
 51
90
  0
CIRCLE
  8
_0-0_
  6
CONTINUOUS
 62
    7
 10
169.96587900140548
 20
338.45083367389554
 40
43
  0
ARC
  8
_0-0_
  6
CONTINUOUS
 62
    7
 10
132.46587900140548
 20
375.95083367389554
 40
8.5
 50
90
 51
180
  0
ARC
  8
_0-0_
  6
CONTINUOUS
 62
    7
 10
171.75596200140535
 20
62.075340955486013
 40
2
 50
7.7363800000000014
 51
90.000000000000043
  0
ARC
  8
_0-0_
  6
CONTINUOUS
 62
    7
 10
171.75596200140535
 20
41.075340955486013
 40
2
 50
270
 51
352.26361999999972
  0
ARC
  8
_0-0_
  6
CONTINUOUS
 62
    7
 10
94.465924001405256
 20
51.575340955486013
 40
80
 50
352.26361999999972
 51
7.7363800000000102
  0
ARC
  8
_0-0_
  6
CONTINUOUS
 62
    7
 10
150.04959200140547
 20
37.575340955486013
 40
1
 50
270
 51
354.99996199999993
  0
ARC
  8
_0-0_
  6
CONTINUOUS
 62
    7
 10
114.17588600140607
 20
62.075340955486013
 40
2
 50
90
 51
172.26361999999997
  0
ARC
  8
_0-0_
  6
CONTINUOUS
 62
    7
 10
135.88225600140595
 20
37.575340955486013
 40
1
 50
185.00003099999998
 51
270
  0
ARC
  8
_0-0_
  6
CONTINUOUS
 62
    7
 10
114.17588600140607
 20
41.075340955486013
 40
2
 50
187.73638
 51
270
  0
ARC
  8
_0-0_
  6
CONTINUOUS
 62
    7
 10
191.46592400140526
 20
51.575340955486013
 40
80
 50
172.26361999999995
 51
187.73638000000003
  0
ARC
  8
_0-0_
  6
CONTINUOUS
 62
    7
 10
135.88225600140595
 20
65.575340955486013
 40
1
 50
90
 51
174.99996899999991
  0
ARC
  8
_0-0_
  6
CONTINUOUS
 62
    7
 10
150.04959200140547
 20
65.575340955486013
 40
1
 50
5.0000379999999991
 51
90
  0
ARC
  8
_0-0_
  6
CONTINUOUS
 62
    7
 10
169.96587900140548
 20
51.575340955486013
 40
41.499955
 50
205.17982900000001
 51
333.38297999999998
  0
ARC
  8
_0-0_
  6
CONTINUOUS
 62
    7
 10
169.96587900140548
 20
51.575340955486013
 40
44.499954999999993
 50
196.31387699999988
 51
336.78191699999991
  0
ARC
  8
_0-0_
  6
CONTINUOUS
 62
    7
 10
169.96587900140548
 20
51.575340955486013
 40
41.499955
 50
26.617162000000004
 51
154.82017099999999
  0
ARC
  8
_0-0_
  6
CONTINUOUS
 62
    7
 10
169.96587900140548
 20
51.575340955486013
 40
44.499954999999993
 50
23.21822499999999
 51
163.68612300000001
  0
ARC
  8
_0-0_
  6
CONTINUOUS
 62
    7
 10
169.96587900140548
 20
51.575340955486013
 40
25.180015999999991
 50
224.62053399999994
 51
326.92063199999973
  0
ARC
  8
_0-0_
  6
CONTINUOUS
 62
    7
 10
169.96587900140548
 20
51.575340955486013
 40
25.180015999999991
 50
33.079509999999999
 51
135.3794659999997
  0
ARC
  8
_0-0_
  6
CONTINUOUS
 62
    7
 10
151.64182300140601
 20
28.90484295548606
 40
5
 50
51.052166999999983
 51
90
  0
ARC
  8
_0-0_
  6
CONTINUOUS
 62
    7
 10
151.64182300140601
 20
28.90484295548606
 40
7.2999999999999989
 50
51.052166999999983
 51
90
  0
ARC
  8
_0-0_
  6
CONTINUOUS
 62
    7
 10
151.64182300140601
 20
74.245838955485965
 40
7.2999999999999989
 50
270
 51
308.94783299999989
  0
ARC
  8
_0-0_
  6
CONTINUOUS
 62
    7
 10
151.64182300140601
 20
74.245838955485965
 40
5
 50
270
 51
308.94783299999989
  0
ARC
  8
_0-0_
  6
CONTINUOUS
 62
    7
 10
169.96587900140548
 20
51.575340955486013
 40
24.149999999999999
 50
231.05216700000003
 51
315.74528800000002
  0
ARC
  8
_0-0_
  6
CONTINUOUS
 62
    7
 10
169.96587900140548
 20
51.575340955486013
 40
21.850000000000001
 50
231.05216700000003
 51
315.74528800000002
  0
ARC
  8
_0-0_
  6
CONTINUOUS
 62
    7
 10
169.96587900140548
 20
51.575340955486013
 40
21.850000000000001
 50
44.254711999999998
 51
128.947833
  0
ARC
  8
_0-0_
  6
CONTINUOUS
 62
    7
 10
169.96587900140548
 20
51.575340955486013
 40
24.149999999999999
 50
44.254711999999998
 51
128.947833
  0
ARC
  8
_0-0_
  6
CONTINUOUS
 62
    7
 10
181.33475000140606
 20
51.575340955486013
 40
53.668826000000003
 50
193.46845000000002
 51
196.99751799999993
  0
ARC
  8
_0-0_
  6
CONTINUOUS
 62
    7
 10
179.80466200140563
 20
51.575340955486013
 40
51.200338000000002
 50
194.13095800000002
 51
197.05573100000004
  0
ARC
  8
_0-0_
  6
CONTINUOUS
 62
    7
 10
132.68800500140605
 20
36.704842955486242
 40
2.799999999999998
 50
196.9975179999999
 51
270
  0
ARC
  8
_0-0_
  6
CONTINUOUS
 62
    7
 10
132.68800500140605
 20
66.445838955486238
 40
2.799999999999998
 50
90
 51
163.00248199999987
  0
ARC
  8
_0-0_
  6
CONTINUOUS
 62
    7
 10
131.33412900140593
 20
36.704842955486242
 40
0.5
 50
197.05573100000004
 51
270
  0
ARC
  8
_0-0_
  6
CONTINUOUS
 62
    7
 10
131.33412900140593
 20
66.445838955486238
 40
0.5
 50
90
 51
162.94426899999991
  0
ARC
  8
_0-0_
  6
CONTINUOUS
 62
    7
 10
181.33475000140606
 20
51.575340955486013
 40
53.668826000000003
 50
163.0024819999999
 51
166.53155000000001
  0
ARC
  8
_0-0_
  6
CONTINUOUS
 62
    7
 10
179.80466200140563
 20
51.575340955486013
 40
51.200338000000002
 50
162.94426899999993
 51
165.86904199999984
  0
ARC
  8
_0-0_
  6
CONTINUOUS
 62
    7
 10
142.80703400140555
 20
62.340767955486285
 40
9.0869900000000001
 50
55.408429000000027
 51
122.19157100000001
  0
ARC
  8
_0-0_
  6
CONTINUOUS
 62
    7
 10
142.96592400140526
 20
40.046698955486249
 40
10.5
 50
236.79617699999989
 51
303.20382299999989
  0
ARC
  8
_0-0_
  6
CONTINUOUS
 62
    7
 10
205.66864500140582
 20
55.084049955486194
 40
0.4
 50
64.113073
 51
159.99999499999987
  0
ARC
  8
_0-0_
  6
CONTINUOUS
 62
    7
 10
203.96592400140617
 20
51.575382955486134
 40
4.299999999999998
 50
5.8868289999999988
 51
64.113161999999988
  0
ARC
  8
_0-0_
  6
CONTINUOUS
 62
    7
 10
207.84535700140532
 20
51.975384955485993
 40
0.4
 50
270.00001799999984
 51
5.8867530000000263
  0
ARC
  8
_0-0_
  6
CONTINUOUS
 62
    7
 10
207.78967400140573
 20
48.200634955485953
 40
0.4
 50
209.99993400000002
 51
318.56893300000002
  0
ARC
  8
_0-0_
  6
CONTINUOUS
 62
    7
 10
203.96592400140617
 20
51.575382955486134
 40
2.049999999999998
 50
213.17764
 51
236.82235999999983
  0
ARC
  8
_0-0_
  6
CONTINUOUS
 62
    7
 10
203.96592400140617
 20
51.575382955486134
 40
2.049999999999998
 50
123.1776399999999
 51
146.8223599999998
  0
ARC
  8
_0-0_
  6
CONTINUOUS
 62
    7
 10
203.96592400140617
 20
51.575382955486134
 40
4.299999999999998
 50
115.88686300000001
 51
174.11318800000001
  0
ARC
  8
_0-0_
  6
CONTINUOUS
 62
    7
 10
202.2632030014056
 20
55.084049955486194
 40
0.4
 50
20.000122000000001
 51
115.88694500000003
  0
ARC
  8
_0-0_
  6
CONTINUOUS
 62
    7
 10
200.14217400140569
 20
48.200634955485953
 40
0.4
 50
221.43087100000002
 51
329.99994800000007
  0
ARC
  8
_0-0_
  6
CONTINUOUS
 62
    7
 10
200.08649100140519
 20
51.975384955485993
 40
0.4
 50
174.1132429999999
 51
270.00000100000005
  0
CIRCLE
  8
_0-0_
  6
CONTINUOUS
 62
    7
 10
203.96592400140617
 20
51.575382955486134
 40
3.5
  0
ARC
  8
_0-0_
  6
CONTINUOUS
 62
    7
 10
203.96592400140617
 20
51.575382955486134
 40
6
 50
180
 51
0
  0
ARC
  8
_0-0_
  6
CONTINUOUS
 62
    7
 10
203.96592400140617
 20
51.575382955486134
 40
2.049999999999998
 50
303.17764
 51
326.82236
  0
ARC
  8
_0-0_
  6
CONTINUOUS
 62
    7
 10
203.96592400140617
 20
57.575382955486134
 40
6
 50
0
 51
180
  0
ARC
  8
_0-0_
  6
CONTINUOUS
 62
    7
 10
203.96592400140617
 20
51.575382955486134
 40
2.049999999999998
 50
33.17763999999999
 51
56.822360000000025
  0
ARC
  8
_0-0_
  6
CONTINUOUS
 62
    7
 10
203.96592400140617
 20
51.575382955486134
 40
5.5
 50
318.56912799999992
 51
221.43082599999997
  0
CIRCLE
  8
_0-0_
  6
CONTINUOUS
 62
    7
 10
203.96592400140617
 20
51.575382955486134
 40
17.25
  0
CIRCLE
  8
_0-0_
  6
CONTINUOUS
 62
    7
 10
203.96592400140617
 20
51.575382955486134
 40
18.850000000000001
  0
ARC
  8
_0-0_
  6
CONTINUOUS
 62
    7
 10
207.46587900140548
 20
14.075340955486013
 40
8.5
 50
270
 51
0
  0
CIRCLE
  8
_0-0_
  6
CONTINUOUS
 62
    7
 10
207.46587900140548
 20
14.075340955486013
 40
4.25
  0
ARC
  8
_0-0_
  6
CONTINUOUS
 62
    7
 10
132.46587900140548
 20
14.075336955486023
 40
8.5
 50
180
 51
270
  0
CIRCLE
  8
_0-0_
  6
CONTINUOUS
 62
    7
 10
132.46587900140548
 20
14.075340955486013
 40
4.25
  0
ARC
  8
_0-0_
  6
CONTINUOUS
 62
    7
 10
207.46587900140548
 20
89.075340955486013
 40
8.5
 50
0
 51
90
  0
CIRCLE
  8
_0-0_
  6
CONTINUOUS
 62
    7
 10
207.46587900140548
 20
89.075340955486013
 40
4.25
  0
ARC
  8
_0-0_
  6
CONTINUOUS
 62
    7
 10
132.46587900140548
 20
89.075340955486013
 40
8.5
 50
90
 51
180
  0
CIRCLE
  8
_0-0_
  6
CONTINUOUS
 62
    7
 10
132.46587900140548
 20
89.075340955486013
 40
4.25
  0
ARC
  8
_0-0_
  6
CONTINUOUS
 62
    7
 10
300.92104824904163
 20
192.56775001305741
 40
1
 50
0
 51
84.999968999999965
  0
ARC
  8
_0-0_
  6
CONTINUOUS
 62
    7
 10
300.92104824904163
 20
178.40041401305743
 40
1
 50
275.00003800000002
 51
0
  0
ARC
  8
_0-0_
  6
CONTINUOUS
 62
    7
 10
272.92104824904163
 20
178.40041401305743
 40
1
 50
180
 51
264.99996199999998
  0
ARC
  8
_0-0_
  6
CONTINUOUS
 62
    7
 10
272.92104824904163
 20
192.56775001305741
 40
1
 50
95.000031000000021
 51
180
  0
ARC
  8
_0-0_
  6
CONTINUOUS
 62
    7
 10
298.4497802490414
 20
185.48408201305719
 40
10.5
 50
326.79617699999972
 51
0.6310530000001614
  0
ARC
  8
_0-0_
  6
CONTINUOUS
 62
    7
 10
298.19708424904093
 20
199.68771101305728
 40
12.800000000000001
 50
357.05759399999982
 51
44.802321000000013
  0
ARC
  8
_0-0_
  6
CONTINUOUS
 62
    7
 10
303.7315132490412
 20
205.18408201305746
 40
5
 50
44.802321000000013
 51
90
  0
ARC
  8
_0-0_
  6
CONTINUOUS
 62
    7
 10
298.19708424904093
 20
199.68771101305728
 40
10.5
 50
357.05759399999982
 51
91.506431000000021
  0
ARC
  8
_0-0_
  6
CONTINUOUS
 62
    7
 10
270.11058324904116
 20
205.18408201305746
 40
5
 50
90
 51
135.19767899999988
  0
ARC
  8
_0-0_
  6
CONTINUOUS
 62
    7
 10
275.64501224904143
 20
199.68771101305728
 40
12.800000000000001
 50
135.19767899999991
 51
182.94240600000001
  0
ARC
  8
_0-0_
  6
CONTINUOUS
 62
    7
 10
275.64501224904143
 20
199.68771101305728
 40
10.5
 50
88.493568999999965
 51
182.94240600000001
  0
ARC
  8
_0-0_
  6
CONTINUOUS
 62
    7
 10
302.61271624904111
 20
178.38408201305728
 40
1.5
 50
270
 51
338.19396099999972
  0
ARC
  8
_0-0_
  6
CONTINUOUS
 62
    7
 10
271.22938024904124
 20
178.38408201305728
 40
1.5
 50
201.806039
 51
270
  0
ARC
  8
_0-0_
  6
CONTINUOUS
 62
    7
 10
331.67399524904158
 20
202.56759301305746
 40
66.602947
 50
182.94240600000001
 51
201.80603899999994
  0
ARC
  8
_0-0_
  6
CONTINUOUS
 62
    7
 10
242.16810124904077
 20
202.56759301305746
 40
66.602947
 50
338.19396099999972
 51
357.05759399999982
  0
ARC
  8
_0-0_
  6
CONTINUOUS
 62
    7
 10
269.10327024904109
 20
178.88408201305728
 40
2
 50
200.73204799999991
 51
270
  0
ARC
  8
_0-0_
  6
CONTINUOUS
 62
    7
 10
304.73882624904127
 20
178.88408201305728
 40
2
 50
270
 51
339.26795199999998
  0
ARC
  8
_0-0_
  6
CONTINUOUS
 62
    7
 10
242.16810124904077
 20
202.56759301305746
 40
68.902946999999998
 50
339.26795199999998
 51
0
  0
ARC
  8
_0-0_
  6
CONTINUOUS
 62
    7
 10
331.67399524904158
 20
202.56759301305746
 40
68.902946999999998
 50
180
 51
200.73204799999991
  0
ARC
  8
_0-0_
  6
CONTINUOUS
 62
    7
 10
279.92104824904072
 20
221.18408201305749
 40
4
 50
90
 51
180
  0
ARC
  8
_0-0_
  6
CONTINUOUS
 62
    7
 10
293.92104824904072
 20
221.18408201305749
 40
4
 50
0
 51
90
  0
ARC
  8
_0-0_
  6
CONTINUOUS
 62
    7
 10
243.92104824904163
 20
234.68408601305748
 40
2.5
 50
233.13009600000009
 51
270.00000000000006
  0
ARC
  8
_0-0_
  6
CONTINUOUS
 62
    7
 10
267.58966724904076
 20
230.8972340130573
 40
4.6972250000000004
 50
206.28669500000009
 51
222.53024900000008
  0
ARC
  8
_0-0_
  6
CONTINUOUS
 62
    7
 10
264.9409922490413
 20
234.58408001305736
 40
4
 50
216.86978799999969
 51
270.00237999999968
  0
ARC
  8
_0-0_
  6
CONTINUOUS
 62
    7
 10
269.83761024904106
 20
225.85318101305722
 40
6.2060129999999987
 50
130.33182899999994
 51
141.61208500000001
  0
ARC
  8
_0-0_
  6
CONTINUOUS
 62
    7
 10
264.25215624904104
 20
228.42715401305725
 40
0.9569799999999998
 50
106.01191300000004
 51
155.95973499999991
  0
ARC
  8
_0-0_
  6
CONTINUOUS
 62
    7
 10
266.77104824904109
 20
221.18408201305749
 40
4
 50
90
 51
180
  0
ARC
  8
_0-0_
  6
CONTINUOUS
 62
    7
 10
306.25170324904138
 20
230.8972340130573
 40
4.6972250000000004
 50
317.46975099999997
 51
333.71330500000005
  0
ARC
  8
_0-0_
  6
CONTINUOUS
 62
    7
 10
308.90110524904139
 20
234.58408001305736
 40
4
 50
269.99761999999998
 51
323.13021199999991
  0
ARC
  8
_0-0_
  6
CONTINUOUS
 62
    7
 10
304.00376024904108
 20
225.85318101305722
 40
6.2060129999999987
 50
38.387915
 51
49.668279999999982
  0
ARC
  8
_0-0_
  6
CONTINUOUS
 62
    7
 10
309.58921424904111
 20
228.42715401305725
 40
0.9569799999999998
 50
24.040264999999994
 51
73.988086999999979
  0
ARC
  8
_0-0_
  6
CONTINUOUS
 62
    7
 10
329.92104824904163
 20
234.68408601305748
 40
2.5
 50
270
 51
306.86990400000002
  0
ARC
  8
_0-0_
  6
CONTINUOUS
 62
    7
 10
307.07104824904127
 20
221.18408201305749
 40
4
 50
0
 51
90
  0
ARC
  8
_0-0_
  6
CONTINUOUS
 62
    7
 10
292.98322624904085
 20
192.70491901305749
 40
2.0208330000000001
 50
180.5906879999998
 51
303.12431900000001
  0
ARC
  8
_0-0_
  6
CONTINUOUS
 62
    7
 10
280.8588702490415
 20
192.70491901305749
 40
2.0208330000000001
 50
236.87568099999999
 51
359.40931200000006
  0
ARC
  8
_0-0_
  6
CONTINUOUS
 62
    7
 10
286.92104824904163
 20
195.76741901305749
 40
5.0833329999999979
 50
217.340992
 51
322.65900799999991
  0
ARC
  8
_0-0_
  6
CONTINUOUS
 62
    7
 10
282.67104824904163
 20
177.01533201305719
 40
9.53125
 50
243.51895999999994
 51
296.48104000000001
  0
ARC
  8
_0-0_
  6
CONTINUOUS
 62
    7
 10
291.17104824904163
 20
177.01533201305719
 40
9.53125
 50
243.51895999999994
 51
296.48104000000001
  0
ARC
  8
_0-0_
  6
CONTINUOUS
 62
    7
 10
271.07104824904127
 20
163.48408201305722
 40
3
 50
90
 51
180
  0
ARC
  8
_0-0_
  6
CONTINUOUS
 62
    7
 10
302.77104824904109
 20
163.48408201305722
 40
3
 50
0
 51
90
  0
ARC
  8
_0-0_
  6
CONTINUOUS
 62
    7
 10
142.96592400140526
 20
185.48408201305719
 40
22.5
 50
117.172719
 51
18.354696000000047
  0
CIRCLE
  8
_0-0_
  6
CONTINUOUS
 62
    7
 10
142.96592400140526
 20
185.48408201305719
 40
5
  0
ARC
  8
_0-0_
  6
CONTINUOUS
 62
    7
 10
184.77426100140565
 20
192.18408201305746
 40
18
 50
90
 51
150.552468
  0
ARC
  8
_0-0_
  6
CONTINUOUS
 62
    7
 10
152.83884000140552
 20
181.38408201305728
 40
4.5
 50
270
 51
330.55246799999992
  0
ARC
  8
_0-0_
  6
CONTINUOUS
 62
    7
 10
211.21592400140617
 20
171.76533201305719
 40
4.28125
 50
230.03378699999993
 51
309.96621300000004
  0
ARC
  8
_0-0_
  6
CONTINUOUS
 62
    7
 10
196.71592400140617
 20
171.76533201305719
 40
4.28125
 50
230.03378699999993
 51
309.96621300000004
  0
ARC
  8
_0-0_
  6
CONTINUOUS
 62
    7
 10
203.96592400140617
 20
178.10908201305719
 40
10.625
 50
244.94238500000003
 51
295.05761500000006
  0
ARC
  8
_0-0_
  6
CONTINUOUS
 62
    7
 10
219.81592400140562
 20
163.48408201305722
 40
3
 50
0
 51
90
  0
ARC
  8
_0-0_
  6
CONTINUOUS
 62
    7
 10
188.1159240014058
 20
163.48408201305722
 40
3
 50
90
 51
180
  0
ARC
  8
_0-0_
  6
CONTINUOUS
 62
    7
 10
126.96592400140526
 20
234.68408601305748
 40
2.5
 50
233.13009600000009
 51
270.00000000000006
  0
ARC
  8
_0-0_
  6
CONTINUOUS
 62
    7
 10
142.96592400140526
 20
185.48408201305719
 40
35.20000000000001
 50
109.9322699999999
 51
114.07926
  0
ARC
  8
_0-0_
  6
CONTINUOUS
 62
    7
 10
147.9858670014055
 20
234.58408001305736
 40
4
 50
216.86978799999969
 51
270.00237999999968
  0
ARC
  8
_0-0_
  6
CONTINUOUS
 62
    7
 10
147.29775800140578
 20
228.42715401305725
 40
0.9569799999999998
 50
106.01191300000004
 51
155.95973499999991
  0
ARC
  8
_0-0_
  6
CONTINUOUS
 62
    7
 10
150.6352690014055
 20
230.8972340130573
 40
4.6972250000000004
 50
206.28669500000009
 51
222.53024900000008
  0
ARC
  8
_0-0_
  6
CONTINUOUS
 62
    7
 10
148.74768400140601
 20
221.68408201305749
 40
3.5
 50
90
 51
159.65986599999991
  0
ARC
  8
_0-0_
  6
CONTINUOUS
 62
    7
 10
152.88321200140581
 20
225.85318101305722
 40
6.2060129999999987
 50
130.3317199999999
 51
141.61208500000001
  0
ARC
  8
_0-0_
  6
CONTINUOUS
 62
    7
 10
142.96592400140526
 20
185.48408201305719
 40
37.5
 50
86.177446000000018
 51
114.07926000000002
  0
ARC
  8
_0-0_
  6
CONTINUOUS
 62
    7
 10
140.41126500140581
 20
181.38408201305728
 40
4.5
 50
187.51516200000006
 51
270
  0
ARC
  8
_0-0_
  6
CONTINUOUS
 62
    7
 10
187.04936200140583
 20
225.85318101305722
 40
6.2060129999999987
 50
38.387915
 51
49.668170999999987
  0
ARC
  8
_0-0_
  6
CONTINUOUS
 62
    7
 10
192.63481600140585
 20
228.42715401305725
 40
0.9569799999999998
 50
24.040264999999994
 51
73.988086999999979
  0
ARC
  8
_0-0_
  6
CONTINUOUS
 62
    7
 10
191.94598000140559
 20
234.58408001305736
 40
4
 50
269.99761999999998
 51
323.13021199999991
  0
ARC
  8
_0-0_
  6
CONTINUOUS
 62
    7
 10
189.29730500140522
 20
230.8972340130573
 40
4.6972250000000004
 50
317.46975099999997
 51
333.71330500000005
  0
ARC
  8
_0-0_
  6
CONTINUOUS
 62
    7
 10
204.3659240014058
 20
226.8840860130573
 40
0.5
 50
0
 51
90
  0
ARC
  8
_0-0_
  6
CONTINUOUS
 62
    7
 10
203.56592400140562
 20
226.8840860130573
 40
0.5
 50
90
 51
180
  0
ARC
  8
_0-0_
  6
CONTINUOUS
 62
    7
 10
204.3659240014058
 20
225.68408601305748
 40
0.5
 50
270
 51
0
  0
ARC
  8
_0-0_
  6
CONTINUOUS
 62
    7
 10
203.56592400140562
 20
225.68408601305748
 40
0.5
 50
180
 51
270
  0
ARC
  8
_0-0_
  6
CONTINUOUS
 62
    7
 10
202.56592400140562
 20
226.28408601305739
 40
1.1000000000000001
 50
90
 51
270
  0
ARC
  8
_0-0_
  6
CONTINUOUS
 62
    7
 10
212.96592400140617
 20
234.68408601305748
 40
2.5
 50
270
 51
306.86990400000002
  0
ARC
  8
_0-0_
  6
CONTINUOUS
 62
    7
 10
210.96592400140617
 20
221.18408201305749
 40
4
 50
0
 51
90
  0
ARC
  8
_0-0_
  6
CONTINUOUS
 62
    7
 10
205.3659240014058
 20
226.28408601305739
 40
1.1000000000000001
 50
270
 51
90
  0
ARC
  8
_0-0_
  6
CONTINUOUS
 62
    7
 10
200.46592400140617
 20
196.88117301305746
 40
6.197085999999997
 50
235.612877
 51
304.38712299999992
  0
ARC
  8
_0-0_
  6
CONTINUOUS
 62
    7
 10
207.46592400140617
 20
196.88117301305746
 40
6.197085999999997
 50
235.612877
 51
304.38712299999992
  0
ARC
  8
_0-0_
  6
CONTINUOUS
 62
    7
 10
142.96592400140526
 20
185.48408201305719
 40
31.5
 50
111.41847000000001
 51
31.794699999999978
  0
ARC
  8
_0-0_
  6
CONTINUOUS
 62
    7
 10
59.574120689191659
 20
156.69404401305712
 40
2
 50
277.73637999999983
 51
0
  0
ARC
  8
_0-0_
  6
CONTINUOUS
 62
    7
 10
63.074120689191659
 20
178.40041401305743
 40
1
 50
275.00003800000002
 51
0
  0
ARC
  8
_0-0_
  6
CONTINUOUS
 62
    7
 10
63.074120689191659
 20
192.56775001305741
 40
1
 50
0
 51
84.999968999999965
  0
ARC
  8
_0-0_
  6
CONTINUOUS
 62
    7
 10
59.574120689191659
 20
214.27412001305728
 40
2
 50
0
 51
82.263620000000003
  0
ARC
  8
_0-0_
  6
CONTINUOUS
 62
    7
 10
38.574120689191659
 20
156.69404401305712
 40
2
 50
180
 51
262.26362000000006
  0
ARC
  8
_0-0_
  6
CONTINUOUS
 62
    7
 10
35.074120689191659
 20
178.40041401305743
 40
1
 50
180
 51
264.99996199999998
  0
ARC
  8
_0-0_
  6
CONTINUOUS
 62
    7
 10
35.074120689191659
 20
192.56775001305741
 40
1
 50
95.000031000000021
 51
180
  0
ARC
  8
_0-0_
  6
CONTINUOUS
 62
    7
 10
38.574120689191659
 20
214.27412001305728
 40
2
 50
97.736379999999983
 51
180
  0
ARC
  8
_0-0_
  6
CONTINUOUS
 62
    7
 10
49.074120689191659
 20
136.98408201305722
 40
80
 50
82.263620000000003
 51
97.736379999999983
  0
ARC
  8
_0-0_
  6
CONTINUOUS
 62
    7
 10
49.074120689191659
 20
233.98408201305722
 40
80
 50
262.26362000000006
 51
277.73637999999983
  0
ARC
  8
_0-0_
  6
CONTINUOUS
 62
    7
 10
37.798084689191455
 20
199.68771101305728
 40
10.5
 50
96.694072999999989
 51
117.00727799999993
  0
ARC
  8
_0-0_
  6
CONTINUOUS
 62
    7
 10
60.350156689191863
 20
199.68771101305728
 40
10.5
 50
62.992722000000001
 51
83.305926999999983
  0
ARC
  8
_0-0_
  6
CONTINUOUS
 62
    7
 10
64.924210689191568
 20
163.48408201305722
 40
3
 50
0
 51
90
  0
ARC
  8
_0-0_
  6
CONTINUOUS
 62
    7
 10
33.22421068919175
 20
163.48408201305722
 40
3
 50
90
 51
180
  0
ARC
  8
_0-0_
  6
CONTINUOUS
 62
    7
 10
93.827067689191608
 20
202.56759301305746
 40
68.902946999999998
 50
199.35295599999984
 51
200.73204799999985
  0
ARC
  8
_0-0_
  6
CONTINUOUS
 62
    7
 10
66.891898689192203
 20
178.88408201305728
 40
2
 50
270
 51
339.26795199999998
  0
ARC
  8
_0-0_
  6
CONTINUOUS
 62
    7
 10
31.256342689192024
 20
178.88408201305728
 40
2
 50
200.73204799999991
 51
270
  0
ARC
  8
_0-0_
  6
CONTINUOUS
 62
    7
 10
93.827067689191608
 20
202.56759301305746
 40
68.902946999999998
 50
180
 51
194.25645099999969
  0
ARC
  8
_0-0_
  6
CONTINUOUS
 62
    7
 10
4.3211736891917099
 20
202.56759301305746
 40
68.902946999999998
 50
339.26795199999998
 51
0
  0
ARC
  8
_0-0_
  6
CONTINUOUS
 62
    7
 10
49.074120689191659
 20
294.54009701305733
 40
74.819192999999999
 50
260.09840099999991
 51
279.90159899999998
  0
ARC
  8
_0-0_
  6
CONTINUOUS
 62
    7
 10
35.383074689191744
 20
216.10687001305732
 40
4.799999999999998
 50
80.098400999999996
 51
181.19999999999993
  0
ARC
  8
_0-0_
  6
CONTINUOUS
 62
    7
 10
62.765166689191574
 20
216.10687001305732
 40
4.799999999999998
 50
358.79999999999995
 51
99.901598999999933
  0
ARC
  8
_0-0_
  6
CONTINUOUS
 62
    7
 10
49.074120689191659
 20
313.79385401305728
 40
96.172808000000003
 50
262.02445599999987
 51
277.97554400000001
  0
ARC
  8
_0-0_
  6
CONTINUOUS
 62
    7
 10
35.383228689192038
 20
216.07547001305747
 40
2.5
 50
82.024456000000015
 51
181.19999999999993
  0
ARC
  8
_0-0_
  6
CONTINUOUS
 62
    7
 10
62.76501268919219
 20
216.07547001305747
 40
2.5
 50
358.79999999999995
 51
97.975543999999914
  0
ARC
  8
_0-0_
  6
CONTINUOUS
 62
    7
 10
6.074120689191659
 20
234.68408601305748
 40
2.5
 50
233.13009600000009
 51
270.00000000000006
  0
ARC
  8
_0-0_
  6
CONTINUOUS
 62
    7
 10
26.405954689192185
 20
228.42715401305725
 40
0.9569799999999998
 50
106.01191300000004
 51
155.95973499999991
  0
ARC
  8
_0-0_
  6
CONTINUOUS
 62
    7
 10
31.991408689192212
 20
225.85318101305722
 40
6.2060129999999987
 50
130.3317199999999
 51
141.61208500000001
  0
ARC
  8
_0-0_
  6
CONTINUOUS
 62
    7
 10
27.094063689191898
 20
234.58408001305736
 40
4
 50
216.86978799999969
 51
270.00237999999968
  0
ARC
  8
_0-0_
  6
CONTINUOUS
 62
    7
 10
29.743465689191908
 20
230.8972340130573
 40
4.6972250000000004
 50
206.28669500000009
 51
222.53024900000008
  0
ARC
  8
_0-0_
  6
CONTINUOUS
 62
    7
 10
28.924120689192023
 20
221.18408201305749
 40
4
 50
90
 51
180
  0
ARC
  8
_0-0_
  6
CONTINUOUS
 62
    7
 10
34.078330689191716
 20
219.40065601305753
 40
3.5
 50
90
 51
180
  0
ARC
  8
_0-0_
  6
CONTINUOUS
 62
    7
 10
59.839547689191932
 20
185.64297201305735
 40
9.0869900000000001
 50
325.40842899999996
 51
32.191570999999989
  0
ARC
  8
_0-0_
  6
CONTINUOUS
 62
    7
 10
71.743012689192255
 20
228.42715401305725
 40
0.9569799999999998
 50
24.040264999999994
 51
73.988086999999979
  0
ARC
  8
_0-0_
  6
CONTINUOUS
 62
    7
 10
66.157558689192228
 20
225.85318101305722
 40
6.2060129999999987
 50
38.387915
 51
49.668170999999987
  0
ARC
  8
_0-0_
  6
CONTINUOUS
 62
    7
 10
71.054176689191991
 20
234.58408001305736
 40
4
 50
269.99761999999998
 51
323.13021199999991
  0
ARC
  8
_0-0_
  6
CONTINUOUS
 62
    7
 10
68.405501689191624
 20
230.8972340130573
 40
4.6972250000000004
 50
317.46975099999997
 51
333.71330500000005
  0
ARC
  8
_0-0_
  6
CONTINUOUS
 62
    7
 10
69.224120689192205
 20
221.18408201305749
 40
4
 50
0
 51
90
  0
ARC
  8
_0-0_
  6
CONTINUOUS
 62
    7
 10
64.069909689192173
 20
219.40065601305753
 40
3.5
 50
0
 51
90
  0
ARC
  8
_0-0_
  6
CONTINUOUS
 62
    7
 10
92.074120689191659
 20
234.68408601305748
 40
2.5
 50
270
 51
306.86990400000002
  0
ARC
  8
_0-0_
  6
CONTINUOUS
 62
    7
 10
37.545478689191441
 20
185.48408201305719
 40
10.5
 50
146.796177
 51
213.203823
  0
LINE
  8
_0-0_
  6
CONTINUOUS
 62
    7
 10
295.0039522490415
 20
227.36200701305745
 11
309.58318524904098
 21
227.36200701305745
  0
LINE
  8
_0-0_
  6
CONTINUOUS
 62
    7
 10
309.58318524904098
 20
227.36200701305745
 11
309.58318524904098
 21
225.18408201305749
  0
LINE
  8
_0-0_
  6
CONTINUOUS
 62
    7
 10
309.58318524904098
 20
227.36200701305745
 11
309.71318524904109
 21
227.72200701305758
  0
LINE
  8
_0-0_
  6
CONTINUOUS
 62
    7
 10
264.25818524904116
 20
225.18408201305749
 11
264.25818524904116
 21
227.36200701305745
  0
LINE
  8
_0-0_
  6
CONTINUOUS
 62
    7
 10
264.25818524904116
 20
227.36200701305745
 11
264.12818524904105
 21
227.72200701305758
  0
LINE
  8
_0-0_
  6
CONTINUOUS
 62
    7
 10
264.25818524904116
 20
227.36200701305745
 11
278.83814424904085
 21
227.36200701305745
  0
LINE
  8
_0-1_
  6
CONTINUOUS
 62
  152
 10
30.399538689192013
 20
225.18408201305749
 11
28.221613689192054
 21
227.36200701305745
  0
LINE
  8
_0-1_
  6
CONTINUOUS
 62
  152
 10
27.571111689191639
 20
227.36200701305745
 11
26.411983689192311
 21
226.20287901305721
  0
LINE
  8
_0-1_
  6
CONTINUOUS
 62
  152
 10
26.411983689192311
 20
226.34321001305727
 11
27.571111689191639
 21
225.18408201305749
  0
LINE
  8
_0-1_
  6
CONTINUOUS
 62
  152
 10
28.221613689192054
 20
225.18408201305749
 11
30.399538689192013
 21
227.36200701305745
  0
LINE
  8
_0-1_
  6
CONTINUOUS
 62
  152
 10
31.050040689191519
 20
227.36200701305745
 11
33.227965689191478
 21
225.18408201305749
  0
LINE
  8
_0-1_
  6
CONTINUOUS
 62
  152
 10
33.878468689192232
 20
225.18408201305749
 11
36.056392689191853
 21
227.36200701305745
  0
LINE
  8
_0-1_
  6
CONTINUOUS
 62
  152
 10
36.706895689191697
 20
227.36200701305745
 11
38.884819689192227
 21
225.18408201305749
  0
LINE
  8
_0-1_
  6
CONTINUOUS
 62
  152
 10
39.535322689192071
 20
225.18408201305749
 11
41.713247689192031
 21
227.36200701305745
  0
LINE
  8
_0-1_
  6
CONTINUOUS
 62
  152
 10
42.363749689191536
 20
227.36200701305745
 11
44.541674689191495
 21
225.18408201305749
  0
LINE
  8
_0-1_
  6
CONTINUOUS
 62
  152
 10
45.192176689191911
 20
225.18408201305749
 11
47.37010168919187
 21
227.36200701305745
  0
LINE
  8
_0-1_
  6
CONTINUOUS
 62
  152
 10
48.020603689192285
 20
227.36200701305745
 11
50.198528689192244
 21
225.18408201305749
  0
LINE
  8
_0-1_
  6
CONTINUOUS
 62
  152
 10
50.84903068919175
 20
225.18408201305749
 11
53.026955689191709
 21
227.36200701305745
  0
LINE
  8
_0-1_
  6
CONTINUOUS
 62
  152
 10
53.677457689192124
 20
227.36200701305745
 11
55.855382689192083
 21
225.18408201305749
  0
LINE
  8
_0-1_
  6
CONTINUOUS
 62
  152
 10
56.505885689191928
 20
225.18408201305749
 11
58.683809689191548
 21
227.36200701305745
  0
LINE
  8
_0-1_
  6
CONTINUOUS
 62
  152
 10
59.334312689192302
 20
227.36200701305745
 11
61.512236689191923
 21
225.18408201305749
  0
LINE
  8
_0-1_
  6
CONTINUOUS
 62
  152
 10
62.162739689191767
 20
225.18408201305749
 11
64.340664689191726
 21
227.36200701305745
  0
LINE
  8
_0-1_
  6
CONTINUOUS
 62
  152
 10
64.991166689192141
 20
227.36200701305745
 11
67.169091689192101
 21
225.18408201305749
  0
LINE
  8
_0-1_
  6
CONTINUOUS
 62
  152
 10
67.819593689191606
 20
225.18408201305749
 11
69.997518689191565
 21
227.36200701305745
  0
LINE
  8
_0-1_
  6
CONTINUOUS
 62
  152
 10
70.648020689191981
 20
227.36200701305745
 11
71.73698368919213
 21
226.2730440130573
  0
LINE
  8
_0-1_
  6
CONTINUOUS
 62
  152
 10
71.73698368919213
 20
226.2730440130573
 11
70.648020689191981
 21
225.18408201305749
  0
LINE
  8
_0-1_
  6
CONTINUOUS
 62
  152
 10
69.997518689191565
 20
225.18408201305749
 11
67.819593689191606
 21
227.36200701305745
  0
LINE
  8
_0-1_
  6
CONTINUOUS
 62
  152
 10
67.169091689192101
 20
227.36200701305745
 11
64.991166689192141
 21
225.18408201305749
  0
LINE
  8
_0-1_
  6
CONTINUOUS
 62
  152
 10
64.340664689191726
 20
225.18408201305749
 11
62.162739689191767
 21
227.36200701305745
  0
LINE
  8
_0-1_
  6
CONTINUOUS
 62
  152
 10
61.512236689191923
 20
227.36200701305745
 11
59.334312689192302
 21
225.18408201305749
  0
LINE
  8
_0-1_
  6
CONTINUOUS
 62
  152
 10
58.683809689191548
 20
225.18408201305749
 11
56.505885689191928
 21
227.36200701305745
  0
LINE
  8
_0-1_
  6
CONTINUOUS
 62
  152
 10
55.855382689192083
 20
227.36200701305745
 11
53.677457689192124
 21
225.18408201305749
  0
LINE
  8
_0-1_
  6
CONTINUOUS
 62
  152
 10
53.026955689191709
 20
225.18408201305749
 11
50.84903068919175
 21
227.36200701305745
  0
LINE
  8
_0-1_
  6
CONTINUOUS
 62
  152
 10
50.198528689192244
 20
227.36200701305745
 11
48.020603689192285
 21
225.18408201305749
  0
LINE
  8
_0-1_
  6
CONTINUOUS
 62
  152
 10
47.37010168919187
 20
225.18408201305749
 11
45.192176689191911
 21
227.36200701305745
  0
LINE
  8
_0-1_
  6
CONTINUOUS
 62
  152
 10
44.541674689191495
 20
227.36200701305745
 11
42.363749689191536
 21
225.18408201305749
  0
LINE
  8
_0-1_
  6
CONTINUOUS
 62
  152
 10
41.713247689192031
 20
225.18408201305749
 11
39.535322689192071
 21
227.36200701305745
  0
LINE
  8
_0-1_
  6
CONTINUOUS
 62
  152
 10
38.884819689192227
 20
227.36200701305745
 11
36.706895689191697
 21
225.18408201305749
  0
LINE
  8
_0-1_
  6
CONTINUOUS
 62
  152
 10
36.056392689191853
 20
225.18408201305749
 11
33.878468689192232
 21
227.36200701305745
  0
LINE
  8
_0-1_
  6
CONTINUOUS
 62
  152
 10
33.227965689191478
 20
227.36200701305745
 11
31.050040689191519
 21
225.18408201305749
  0
LINE
  8
_0-1_
  6
CONTINUOUS
 62
  152
 10
31.81375268919146
 20
225.18408201305749
 11
29.635827689191501
 21
227.36200701305745
  0
LINE
  8
_0-1_
  6
CONTINUOUS
 62
  152
 10
28.985325689191995
 20
227.36200701305745
 11
26.807400689192036
 21
225.18408201305749
  0
LINE
  8
_0-1_
  6
CONTINUOUS
 62
  152
 10
28.985325689191995
 20
225.18408201305749
 11
26.807400689192036
 21
227.36200701305745
  0
LINE
  8
_0-1_
  6
CONTINUOUS
 62
  152
 10
31.81375268919146
 20
227.36200701305745
 11
29.635827689191501
 21
225.18408201305749
  0
LINE
  8
_0-1_
  6
CONTINUOUS
 62
  152
 10
32.464254689191876
 20
225.18408201305749
 11
34.642179689191835
 21
227.36200701305745
  0
LINE
  8
_0-1_
  6
CONTINUOUS
 62
  152
 10
35.29268168919225
 20
227.36200701305745
 11
37.470606689192209
 21
225.18408201305749
  0
LINE
  8
_0-1_
  6
CONTINUOUS
 62
  152
 10
38.121108689191715
 20
225.18408201305749
 11
40.299033689191674
 21
227.36200701305745
  0
LINE
  8
_0-1_
  6
CONTINUOUS
 62
  152
 10
40.949535689192089
 20
227.36200701305745
 11
43.127460689192048
 21
225.18408201305749
  0
LINE
  8
_0-1_
  6
CONTINUOUS
 62
  152
 10
43.777963689191893
 20
225.18408201305749
 11
45.955887689191513
 21
227.36200701305745
  0
LINE
  8
_0-1_
  6
CONTINUOUS
 62
  152
 10
46.606390689192267
 20
227.36200701305745
 11
48.784314689191888
 21
225.18408201305749
  0
LINE
  8
_0-1_
  6
CONTINUOUS
 62
  152
 10
49.434817689191732
 20
225.18408201305749
 11
51.612742689191691
 21
227.36200701305745
  0
LINE
  8
_0-1_
  6
CONTINUOUS
 62
  152
 10
52.263244689192106
 20
227.36200701305745
 11
54.441169689192066
 21
225.18408201305749
  0
LINE
  8
_0-1_
  6
CONTINUOUS
 62
  152
 10
55.091671689191571
 20
225.18408201305749
 11
57.26959668919153
 21
227.36200701305745
  0
LINE
  8
_0-1_
  6
CONTINUOUS
 62
  152
 10
57.920098689191946
 20
227.36200701305745
 11
60.098023689191905
 21
225.18408201305749
  0
LINE
  8
_0-1_
  6
CONTINUOUS
 62
  152
 10
60.74852568919141
 20
225.18408201305749
 11
62.926450689192279
 21
227.36200701305745
  0
LINE
  8
_0-1_
  6
CONTINUOUS
 62
  152
 10
63.576952689191785
 20
227.36200701305745
 11
65.754877689191744
 21
225.18408201305749
  0
LINE
  8
_0-1_
  6
CONTINUOUS
 62
  152
 10
66.405380689191588
 20
225.18408201305749
 11
68.583304689192119
 21
227.36200701305745
  0
LINE
  8
_0-1_
  6
CONTINUOUS
 62
  152
 10
69.233807689191963
 20
227.36200701305745
 11
71.411731689191583
 21
225.18408201305749
  0
LINE
  8
_0-1_
  6
CONTINUOUS
 62
  152
 10
69.233807689191963
 20
225.18408201305749
 11
71.411731689191583
 21
227.36200701305745
  0
LINE
  8
_0-1_
  6
CONTINUOUS
 62
  152
 10
66.405380689191588
 20
227.36200701305745
 11
68.583304689192119
 21
225.18408201305749
  0
LINE
  8
_0-1_
  6
CONTINUOUS
 62
  152
 10
63.576952689191785
 20
225.18408201305749
 11
65.754877689191744
 21
227.36200701305745
  0
LINE
  8
_0-1_
  6
CONTINUOUS
 62
  152
 10
62.926450689192279
 20
225.18408201305749
 11
60.74852568919141
 21
227.36200701305745
  0
LINE
  8
_0-1_
  6
CONTINUOUS
 62
  152
 10
60.098023689191905
 20
227.36200701305745
 11
57.920098689191946
 21
225.18408201305749
  0
LINE
  8
_0-1_
  6
CONTINUOUS
 62
  152
 10
57.26959668919153
 20
225.18408201305749
 11
55.091671689191571
 21
227.36200701305745
  0
LINE
  8
_0-1_
  6
CONTINUOUS
 62
  152
 10
54.441169689192066
 20
227.36200701305745
 11
52.263244689192106
 21
225.18408201305749
  0
LINE
  8
_0-1_
  6
CONTINUOUS
 62
  152
 10
51.612742689191691
 20
225.18408201305749
 11
49.434817689191732
 21
227.36200701305745
  0
LINE
  8
_0-1_
  6
CONTINUOUS
 62
  152
 10
48.784314689191888
 20
227.36200701305745
 11
46.606390689192267
 21
225.18408201305749
  0
LINE
  8
_0-1_
  6
CONTINUOUS
 62
  152
 10
45.955887689191513
 20
225.18408201305749
 11
43.777963689191893
 21
227.36200701305745
  0
LINE
  8
_0-1_
  6
CONTINUOUS
 62
  152
 10
43.127460689192048
 20
227.36200701305745
 11
40.949535689192089
 21
225.18408201305749
  0
LINE
  8
_0-1_
  6
CONTINUOUS
 62
  152
 10
40.299033689191674
 20
225.18408201305749
 11
38.121108689191715
 21
227.36200701305745
  0
LINE
  8
_0-1_
  6
CONTINUOUS
 62
  152
 10
37.470606689192209
 20
227.36200701305745
 11
35.29268168919225
 21
225.18408201305749
  0
LINE
  8
_0-1_
  6
CONTINUOUS
 62
  152
 10
34.642179689191835
 20
225.18408201305749
 11
32.464254689191876
 21
227.36200701305745
  0
LINE
  8
_0-1_
  6
CENTER1
 62
  152
 10
25.156238689191923
 20
185.48408201305719
 11
74.003959689192016
 21
185.48408201305719
  0
LINE
  8
_0-1_
  6
CENTER1
 62
  152
 10
49.074120689191659
 20
153.98408201305722
 11
49.074120689191659
 21
234.98408201305722
  0
LINE
  8
_0-1_
  6
CENTER1
 62
  152
 10
11.574120689191659
 20
229.68393001305742
 11
11.574120689191659
 21
236.96376801305735
  0
LINE
  8
_0-1_
  6
CENTER1
 62
  152
 10
86.574120689191659
 20
229.68393001305742
 11
86.574120689191659
 21
237.19125901305745
  0
LINE
  8
_0-1_
  6
CENTER1
 62
  152
 10
111.46592400140526
 20
185.48408201305719
 11
174.46592400140526
 21
185.48408201305719
  0
LINE
  8
_0-1_
  6
PHANTOM1
 62
  152
 10
185.1159240014058
 20
178.48408201305719
 11
185.1159240014058
 21
175.48408201305719
  0
LINE
  8
_0-1_
  6
PHANTOM1
 62
  152
 10
185.1159240014058
 20
175.48408201305719
 11
222.81592400140562
 21
175.48408201305719
  0
LINE
  8
_0-1_
  6
PHANTOM1
 62
  152
 10
222.81592400140562
 20
175.48408201305719
 11
222.81592400140562
 21
178.48408201305719
  0
LINE
  8
_0-1_
  6
PHANTOM1
 62
  152
 10
221.21592400140617
 20
175.48408201305719
 11
221.21592400140617
 21
168.98408201305719
  0
LINE
  8
_0-1_
  6
PHANTOM1
 62
  152
 10
221.21592400140617
 20
168.98408201305719
 11
186.71592400140526
 21
168.98408201305719
  0
LINE
  8
_0-1_
  6
PHANTOM1
 62
  152
 10
186.71592400140526
 20
168.98408201305719
 11
186.71592400140526
 21
175.48408201305719
  0
LINE
  8
_0-1_
  6
PHANTOM1
 62
  152
 10
188.1159240014058
 20
181.48408201305719
 11
219.81592400140562
 21
181.48408201305719
  0
LINE
  8
_0-1_
  6
CONTINUOUS
 62
  152
 10
208.15392400140536
 20
190.68408601305745
 11
208.15392400140536
 21
175.48408201305719
  0
LINE
  8
_0-1_
  6
CONTINUOUS
 62
  152
 10
208.15392400140536
 20
175.48408201305719
 11
208.96592400140617
 21
174.07765701305752
  0
LINE
  8
_0-1_
  6
CONTINUOUS
 62
  152
 10
208.96592400140617
 20
175.48408201305719
 11
198.96592400140617
 21
175.48408201305719
  0
LINE
  8
_0-1_
  6
CONTINUOUS
 62
  152
 10
199.77792400140606
 20
175.48408201305719
 11
199.77792400140606
 21
190.68408601305745
  0
LINE
  8
_0-1_
  6
PHANTOM1
 62
  152
 10
188.1159240014058
 20
151.48408201305722
 11
219.81592400140562
 21
151.48408201305722
  0
LINE
  8
_0-1_
  6
PHANTOM1
 62
  152
 10
222.81592400140562
 20
148.48408201305722
 11
222.81592400140562
 21
145.48408201305722
  0
LINE
  8
_0-1_
  6
PHANTOM1
 62
  152
 10
222.81592400140562
 20
145.48408201305722
 11
185.1159240014058
 21
145.48408201305722
  0
LINE
  8
_0-1_
  6
PHANTOM1
 62
  152
 10
185.1159240014058
 20
145.48408201305722
 11
185.1159240014058
 21
148.48408201305722
  0
LINE
  8
_0-1_
  6
PHANTOM1
 62
  152
 10
186.71592400140526
 20
145.48408201305722
 11
186.71592400140526
 21
138.98408201305722
  0
LINE
  8
_0-1_
  6
PHANTOM1
 62
  152
 10
186.71592400140526
 20
138.98408201305722
 11
221.21592400140617
 21
138.98408201305722
  0
LINE
  8
_0-1_
  6
PHANTOM1
 62
  152
 10
221.21592400140617
 20
138.98408201305722
 11
221.21592400140617
 21
145.48408201305722
  0
LINE
  8
_0-1_
  6
CENTER1
 62
  152
 10
203.96592400140617
 20
138.98408201305722
 11
203.96592400140617
 21
237.17661501305759
  0
LINE
  8
_0-1_
  6
CENTER1
 62
  152
 10
207.46592400140617
 20
236.94910901305741
 11
207.46592400140617
 21
229.8967770130572
  0
LINE
  8
_0-1_
  6
CENTER1
 62
  152
 10
132.46592400140526
 20
229.8967770130572
 11
132.46592400140526
 21
236.72161801305731
  0
LINE
  8
_0-1_
  6
CENTER1
 62
  152
 10
169.96592400140617
 20
220.87209601305733
 11
169.96592400140617
 21
237.17661501305759
  0
LINE
  8
_0-1_
  6
CONTINUOUS
 62
  152
 10
169.67611800140548
 20
227.36200701305745
 11
167.49819400140586
 21
225.18408201305749
  0
LINE
  8
_0-1_
  6
CONTINUOUS
 62
  152
 10
166.84769100140602
 20
225.18408201305749
 11
164.66976700140549
 21
227.36200701305745
  0
LINE
  8
_0-1_
  6
CONTINUOUS
 62
  152
 10
164.01926400140565
 20
227.36200701305745
 11
161.84133900140569
 21
225.18408201305749
  0
LINE
  8
_0-1_
  6
CONTINUOUS
 62
  152
 10
161.19083700140527
 20
225.18408201305749
 11
159.01291200140531
 21
227.36200701305745
  0
LINE
  8
_0-1_
  6
CONTINUOUS
 62
  152
 10
158.36241000140581
 20
227.36200701305745
 11
156.18448500140585
 21
225.18408201305749
  0
LINE
  8
_0-1_
  6
CONTINUOUS
 62
  152
 10
155.53398300140543
 20
225.18408201305749
 11
153.35605800140547
 21
227.36200701305745
  0
LINE
  8
_0-1_
  6
CONTINUOUS
 62
  152
 10
152.70555600140597
 20
227.36200701305745
 11
150.52763100140601
 21
225.18408201305749
  0
LINE
  8
_0-1_
  6
CONTINUOUS
 62
  152
 10
149.87712900140559
 20
225.18408201305749
 11
147.69920400140563
 21
227.36200701305745
  0
LINE
  8
_0-1_
  6
CONTINUOUS
 62
  152
 10
147.30378700140591
 20
226.34321001305727
 11
148.46291500140615
 21
225.18408201305749
  0
LINE
  8
_0-1_
  6
CONTINUOUS
 62
  152
 10
149.11341700140565
 20
225.18408201305749
 11
151.29134200140561
 21
227.36200701305745
  0
LINE
  8
_0-1_
  6
CONTINUOUS
 62
  152
 10
151.94184400140603
 20
227.36200701305745
 11
154.11976900140598
 21
225.18408201305749
  0
LINE
  8
_0-1_
  6
CONTINUOUS
 62
  152
 10
154.77027200140583
 20
225.18408201305749
 11
156.94819600140545
 21
227.36200701305745
  0
LINE
  8
_0-1_
  6
CONTINUOUS
 62
  152
 10
157.59869900140529
 20
227.36200701305745
 11
159.77662300140582
 21
225.18408201305749
  0
LINE
  8
_0-1_
  6
CONTINUOUS
 62
  152
 10
160.42712600140567
 20
225.18408201305749
 11
162.60505100140563
 21
227.36200701305745
  0
LINE
  8
_0-1_
  6
CONTINUOUS
 62
  152
 10
163.25555300140604
 20
227.36200701305745
 11
165.433478001406
 21
225.18408201305749
  0
LINE
  8
_0-1_
  6
CONTINUOUS
 62
  152
 10
166.08398000140551
 20
225.18408201305749
 11
168.26190500140547
 21
227.36200701305745
  0
LINE
  8
_0-1_
  6
CONTINUOUS
 62
  152
 10
168.91240700140588
 20
227.36200701305745
 11
171.09033200140584
 21
225.18408201305749
  0
LINE
  8
_0-1_
  6
CONTINUOUS
 62
  152
 10
171.74083400140535
 20
225.18408201305749
 11
173.91875900140531
 21
227.36200701305745
  0
LINE
  8
_0-1_
  6
CONTINUOUS
 62
  152
 10
174.56926100140572
 20
227.36200701305745
 11
176.74718600140568
 21
225.18408201305749
  0
LINE
  8
_0-1_
  6
CONTINUOUS
 62
  152
 10
177.39768900140552
 20
225.18408201305749
 11
179.57561300140605
 21
227.36200701305745
  0
LINE
  8
_0-1_
  6
CONTINUOUS
 62
  152
 10
180.2261160014059
 20
227.36200701305745
 11
182.40404000140552
 21
225.18408201305749
  0
LINE
  8
_0-1_
  6
CONTINUOUS
 62
  152
 10
183.05454300140536
 20
225.18408201305749
 11
185.23246800140532
 21
227.36200701305745
  0
LINE
  8
_0-1_
  6
CONTINUOUS
 62
  152
 10
185.88297000140574
 20
227.36200701305745
 11
188.0608950014057
 21
225.18408201305749
  0
LINE
  8
_0-1_
  6
CONTINUOUS
 62
  152
 10
188.71139700140611
 20
225.18408201305749
 11
190.88932200140607
 21
227.36200701305745
  0
LINE
  8
_0-1_
  6
CONTINUOUS
 62
  152
 10
191.53982400140558
 20
227.36200701305745
 11
192.62878700140573
 21
226.2730440130573
  0
LINE
  8
_0-1_
  6
CONTINUOUS
 62
  152
 10
192.62878700140573
 20
226.2730440130573
 11
191.53982400140558
 21
225.18408201305749
  0
LINE
  8
_0-1_
  6
CONTINUOUS
 62
  152
 10
190.88932200140607
 20
225.18408201305749
 11
188.71139700140611
 21
227.36200701305745
  0
LINE
  8
_0-1_
  6
CONTINUOUS
 62
  152
 10
188.0608950014057
 20
227.36200701305745
 11
185.88297000140574
 21
225.18408201305749
  0
LINE
  8
_0-1_
  6
CONTINUOUS
 62
  152
 10
185.23246800140532
 20
225.18408201305749
 11
183.05454300140536
 21
227.36200701305745
  0
LINE
  8
_0-1_
  6
CONTINUOUS
 62
  152
 10
182.40404000140552
 20
227.36200701305745
 11
180.2261160014059
 21
225.18408201305749
  0
LINE
  8
_0-1_
  6
CONTINUOUS
 62
  152
 10
179.57561300140605
 20
225.18408201305749
 11
177.39768900140552
 21
227.36200701305745
  0
LINE
  8
_0-1_
  6
CONTINUOUS
 62
  152
 10
176.74718600140568
 20
227.36200701305745
 11
174.56926100140572
 21
225.18408201305749
  0
LINE
  8
_0-1_
  6
CONTINUOUS
 62
  152
 10
173.91875900140531
 20
225.18408201305749
 11
171.74083400140535
 21
227.36200701305745
  0
LINE
  8
_0-1_
  6
CONTINUOUS
 62
  152
 10
171.09033200140584
 20
227.36200701305745
 11
168.91240700140588
 21
225.18408201305749
  0
LINE
  8
_0-1_
  6
CONTINUOUS
 62
  152
 10
168.26190500140547
 20
225.18408201305749
 11
166.08398000140551
 21
227.36200701305745
  0
LINE
  8
_0-1_
  6
CONTINUOUS
 62
  152
 10
165.433478001406
 20
227.36200701305745
 11
163.25555300140604
 21
225.18408201305749
  0
LINE
  8
_0-1_
  6
CONTINUOUS
 62
  152
 10
162.60505100140563
 20
225.18408201305749
 11
160.42712600140567
 21
227.36200701305745
  0
LINE
  8
_0-1_
  6
CONTINUOUS
 62
  152
 10
159.77662300140582
 20
227.36200701305745
 11
157.59869900140529
 21
225.18408201305749
  0
LINE
  8
_0-1_
  6
CONTINUOUS
 62
  152
 10
156.94819600140545
 20
225.18408201305749
 11
154.77027200140583
 21
227.36200701305745
  0
LINE
  8
_0-1_
  6
CONTINUOUS
 62
  152
 10
154.11976900140598
 20
227.36200701305745
 11
151.94184400140603
 21
225.18408201305749
  0
LINE
  8
_0-1_
  6
CONTINUOUS
 62
  152
 10
151.29134200140561
 20
225.18408201305749
 11
149.11341700140565
 21
227.36200701305745
  0
LINE
  8
_0-1_
  6
CONTINUOUS
 62
  152
 10
148.46291500140615
 20
227.36200701305745
 11
147.30378700140591
 21
226.20287901305721
  0
LINE
  8
_0-1_
  6
CONTINUOUS
 62
  152
 10
147.69920400140563
 20
225.18408201305749
 11
149.87712900140559
 21
227.36200701305745
  0
LINE
  8
_0-1_
  6
CONTINUOUS
 62
  152
 10
150.52763100140601
 20
227.36200701305745
 11
152.70555600140597
 21
225.18408201305749
  0
LINE
  8
_0-1_
  6
CONTINUOUS
 62
  152
 10
153.35605800140547
 20
225.18408201305749
 11
155.53398300140543
 21
227.36200701305745
  0
LINE
  8
_0-1_
  6
CONTINUOUS
 62
  152
 10
156.18448500140585
 20
227.36200701305745
 11
158.36241000140581
 21
225.18408201305749
  0
LINE
  8
_0-1_
  6
CONTINUOUS
 62
  152
 10
159.01291200140531
 20
225.18408201305749
 11
161.19083700140527
 21
227.36200701305745
  0
LINE
  8
_0-1_
  6
CONTINUOUS
 62
  152
 10
161.84133900140569
 20
227.36200701305745
 11
164.01926400140565
 21
225.18408201305749
  0
LINE
  8
_0-1_
  6
CONTINUOUS
 62
  152
 10
164.66976700140549
 20
225.18408201305749
 11
166.84769100140602
 21
227.36200701305745
  0
LINE
  8
_0-1_
  6
CONTINUOUS
 62
  152
 10
167.49819400140586
 20
227.36200701305745
 11
169.67611800140548
 21
225.18408201305749
  0
LINE
  8
_0-1_
  6
CONTINUOUS
 62
  152
 10
170.32662100140533
 20
225.18408201305749
 11
172.50454600140529
 21
227.36200701305745
  0
LINE
  8
_0-1_
  6
CONTINUOUS
 62
  152
 10
173.1550480014057
 20
227.36200701305745
 11
175.33297300140566
 21
225.18408201305749
  0
LINE
  8
_0-1_
  6
CONTINUOUS
 62
  152
 10
175.98347500140608
 20
225.18408201305749
 11
178.16140000140604
 21
227.36200701305745
  0
LINE
  8
_0-1_
  6
CONTINUOUS
 62
  152
 10
178.81190200140554
 20
227.36200701305745
 11
180.9898270014055
 21
225.18408201305749
  0
LINE
  8
_0-1_
  6
CONTINUOUS
 62
  152
 10
181.64032900140592
 20
225.18408201305749
 11
183.81825400140588
 21
227.36200701305745
  0
LINE
  8
_0-1_
  6
CONTINUOUS
 62
  152
 10
184.46875600140538
 20
227.36200701305745
 11
186.64668100140534
 21
225.18408201305749
  0
LINE
  8
_0-1_
  6
CONTINUOUS
 62
  152
 10
187.29718400140609
 20
225.18408201305749
 11
189.47510800140572
 21
227.36200701305745
  0
LINE
  8
_0-1_
  6
CONTINUOUS
 62
  152
 10
190.12561100140556
 20
227.36200701305745
 11
192.30353500140518
 21
225.18408201305749
  0
LINE
  8
_0-1_
  6
CONTINUOUS
 62
  152
 10
190.12561100140556
 20
225.18408201305749
 11
192.30353500140518
 21
227.36200701305745
  0
LINE
  8
_0-1_
  6
CONTINUOUS
 62
  152
 10
187.29718400140609
 20
227.36200701305745
 11
189.47510800140572
 21
225.18408201305749
  0
LINE
  8
_0-1_
  6
CONTINUOUS
 62
  152
 10
184.46875600140538
 20
225.18408201305749
 11
186.64668100140534
 21
227.36200701305745
  0
LINE
  8
_0-1_
  6
CONTINUOUS
 62
  152
 10
181.64032900140592
 20
227.36200701305745
 11
183.81825400140588
 21
225.18408201305749
  0
LINE
  8
_0-1_
  6
CONTINUOUS
 62
  152
 10
178.81190200140554
 20
225.18408201305749
 11
180.9898270014055
 21
227.36200701305745
  0
LINE
  8
_0-1_
  6
CONTINUOUS
 62
  152
 10
175.98347500140608
 20
227.36200701305745
 11
178.16140000140604
 21
225.18408201305749
  0
LINE
  8
_0-1_
  6
CONTINUOUS
 62
  152
 10
173.1550480014057
 20
225.18408201305749
 11
175.33297300140566
 21
227.36200701305745
  0
LINE
  8
_0-1_
  6
CONTINUOUS
 62
  152
 10
170.32662100140533
 20
227.36200701305745
 11
172.50454600140529
 21
225.18408201305749
  0
LINE
  8
_0-1_
  6
CENTER1
 62
  152
 10
142.96592400140526
 20
219.98408201305722
 11
142.96592400140526
 21
153.98408201305722
  0
LINE
  8
_0-1_
  6
CENTER1
 62
  152
 10
207.46587900140548
 20
96.325340955486013
 11
207.46587900140548
 21
81.825340955486013
  0
LINE
  8
_0-1_
  6
CENTER1
 62
  152
 10
203.96592400140617
 20
72.425340955485922
 11
203.96592400140617
 21
30.725340955486104
  0
LINE
  8
_0-1_
  6
CENTER1
 62
  152
 10
207.46587900140548
 20
21.325340955486013
 11
207.46587900140548
 21
6.8253369554860228
  0
LINE
  8
_0-1_
  6
CENTER1
 62
  152
 10
132.46587900140548
 20
6.8253369554860228
 11
132.46587900140548
 21
21.325340955486013
  0
LINE
  8
_0-1_
  6
CENTER1
 62
  152
 10
142.96592400140526
 20
27.706990955486276
 11
142.96592400140526
 21
74.008356955485965
  0
LINE
  8
_0-1_
  6
CENTER1
 62
  152
 10
125.21587900140548
 20
89.075340955486013
 11
139.71587900140548
 21
89.075340955486013
  0
LINE
  8
_0-1_
  6
CENTER1
 62
  152
 10
132.46587900140548
 20
96.325340955486013
 11
132.46587900140548
 21
81.825340955486013
  0
LINE
  8
_0-1_
  6
CENTER1
 62
  152
 10
125.21587900140548
 20
14.075340955486013
 11
139.71587900140548
 21
14.075340955486013
  0
LINE
  8
_0-1_
  6
CENTER1
 62
  152
 10
169.96587900140548
 20
5.5753369554860228
 11
169.96587900140548
 21
97.575340955486013
  0
LINE
  8
_0-1_
  6
CENTER1
 62
  152
 10
200.21587900140548
 20
89.075340955486013
 11
214.71587900140548
 21
89.075340955486013
  0
LINE
  8
_0-1_
  6
CENTER1
 62
  152
 10
222.81592400135924
 20
51.575340955486013
 11
111.46592400140526
 21
51.575340955486013
  0
LINE
  8
_0-1_
  6
CENTER1
 62
  152
 10
214.71587900140548
 20
14.075340955486013
 11
200.21587900140548
 21
14.075340955486013
  0
LINE
  8
_0-1_
  6
CENTER1
 62
  152
 10
125.21587900140548
 20
300.95083367389554
 11
139.71587900140548
 21
300.95083367389554
  0
LINE
  8
_0-1_
  6
CENTER1
 62
  152
 10
132.46587900140548
 20
293.70083367389554
 11
132.46587900140548
 21
308.20083367389554
  0
LINE
  8
_0-1_
  6
CENTER1
 62
  152
 10
207.46587900140548
 20
293.70083367389554
 11
207.46587900140548
 21
308.20083367389554
  0
LINE
  8
_0-1_
  6
CENTER1
 62
  152
 10
203.96592400140617
 20
317.60083367389564
 11
203.96592400140617
 21
359.30083367389591
  0
LINE
  8
_0-1_
  6
CENTER1
 62
  152
 10
207.46587900140548
 20
368.70083367389554
 11
207.46587900140548
 21
383.20083767389553
  0
LINE
  8
_0-1_
  6
CENTER1
 62
  152
 10
132.46587900140548
 20
383.20083767389553
 11
132.46587900140548
 21
368.70083367389554
  0
LINE
  8
_0-1_
  6
CENTER1
 62
  152
 10
139.71587900140548
 20
375.95083367389554
 11
125.21587900140548
 21
375.95083367389554
  0
LINE
  8
_0-1_
  6
CENTER1
 62
  152
 10
111.46592400140526
 20
338.45083367389554
 11
222.81587900140585
 21
338.45083367389554
  0
LINE
  8
_0-1_
  6
CENTER1
 62
  152
 10
214.71587900140548
 20
375.95083367389554
 11
200.21587900140548
 21
375.95083367389554
  0
LINE
  8
_0-1_
  6
CENTER1
 62
  152
 10
169.96587900140548
 20
384.45083767389553
 11
169.96587900140548
 21
292.45083367389554
  0
LINE
  8
_0-1_
  6
CENTER1
 62
  152
 10
200.21587900140548
 20
300.95083367389554
 11
214.71587900140548
 21
300.95083367389554
  0
LINE
  8
_0-1_
  6
CONTINUOUS
 62
  152
 10
199.77792400140606
 20
175.48408201305719
 11
198.96592400140617
 21
174.07765701305752
  0
LINE
  8
_0-1_
  6
CONTINUOUS
 62
  152
 10
297.87406024904158
 20
225.18408201305749
 11
295.69613524904071
 21
227.36200701305745
  0
LINE
  8
_0-1_
  6
CONTINUOUS
 62
  152
 10
278.83814424904085
 20
226.71086801305739
 11
277.31135924904083
 21
225.18408201305749
  0
LINE
  8
_0-1_
  6
CONTINUOUS
 62
  152
 10
276.66085624904099
 20
225.18408201305749
 11
274.48293224904137
 21
227.36200701305745
  0
LINE
  8
_0-1_
  6
CONTINUOUS
 62
  152
 10
273.83242924904152
 20
227.36200701305745
 11
271.65450424904066
 21
225.18408201305749
  0
LINE
  8
_0-1_
  6
CONTINUOUS
 62
  152
 10
271.00400224904115
 20
225.18408201305749
 11
268.82607724904119
 21
227.36200701305745
  0
LINE
  8
_0-1_
  6
CONTINUOUS
 62
  152
 10
268.17557524904078
 20
227.36200701305745
 11
265.99765024904082
 21
225.18408201305749
  0
LINE
  8
_0-1_
  6
CONTINUOUS
 62
  152
 10
265.34714824904131
 20
225.18408201305749
 11
264.25818524904116
 21
226.2730440130573
  0
LINE
  8
_0-1_
  6
CONTINUOUS
 62
  152
 10
264.25818524904116
 20
226.2730440130573
 11
265.34714824904131
 21
227.36200701305745
  0
LINE
  8
_0-1_
  6
CONTINUOUS
 62
  152
 10
265.99765024904082
 20
227.36200701305745
 11
268.17557524904078
 21
225.18408201305749
  0
LINE
  8
_0-1_
  6
CONTINUOUS
 62
  152
 10
268.82607724904119
 20
225.18408201305749
 11
271.00400224904115
 21
227.36200701305745
  0
LINE
  8
_0-1_
  6
CONTINUOUS
 62
  152
 10
271.65450424904066
 20
227.36200701305745
 11
273.83242924904152
 21
225.18408201305749
  0
LINE
  8
_0-1_
  6
CONTINUOUS
 62
  152
 10
274.48293224904137
 20
225.18408201305749
 11
276.66085624904099
 21
227.36200701305745
  0
LINE
  8
_0-1_
  6
CONTINUOUS
 62
  152
 10
277.31135924904083
 20
227.36200701305745
 11
278.83814424904085
 21
225.83522101305755
  0
LINE
  8
_0-1_
  6
CONTINUOUS
 62
  152
 10
278.07507024904135
 20
227.36200701305745
 11
275.89714524904139
 21
225.18408201305749
  0
LINE
  8
_0-1_
  6
CONTINUOUS
 62
  152
 10
275.24664324904097
 20
225.18408201305749
 11
273.06871824904101
 21
227.36200701305745
  0
LINE
  8
_0-1_
  6
CONTINUOUS
 62
  152
 10
272.41821624904151
 20
227.36200701305745
 11
270.24029124904155
 21
225.18408201305749
  0
LINE
  8
_0-1_
  6
CONTINUOUS
 62
  152
 10
269.58978824904079
 20
225.18408201305749
 11
267.41186424904117
 21
227.36200701305745
  0
LINE
  8
_0-1_
  6
CONTINUOUS
 62
  152
 10
266.76136124904133
 20
227.36200701305745
 11
264.5834372490408
 21
225.18408201305749
  0
LINE
  8
_0-1_
  6
CONTINUOUS
 62
  152
 10
266.76136124904133
 20
225.18408201305749
 11
264.5834372490408
 21
227.36200701305745
  0
LINE
  8
_0-1_
  6
CONTINUOUS
 62
  152
 10
269.58978824904079
 20
227.36200701305745
 11
267.41186424904117
 21
225.18408201305749
  0
LINE
  8
_0-1_
  6
CONTINUOUS
 62
  152
 10
272.41821624904151
 20
225.18408201305749
 11
270.24029124904155
 21
227.36200701305745
  0
LINE
  8
_0-1_
  6
CONTINUOUS
 62
  152
 10
275.24664324904097
 20
227.36200701305745
 11
273.06871824904101
 21
225.18408201305749
  0
LINE
  8
_0-1_
  6
CONTINUOUS
 62
  152
 10
278.07507024904135
 20
225.18408201305749
 11
275.89714524904139
 21
227.36200701305745
  0
LINE
  8
_0-1_
  6
CONTINUOUS
 62
  152
 10
291.10904824904082
 20
190.68408601305745
 11
291.10904824904082
 21
175.48408201305719
  0
LINE
  8
_0-1_
  6
CONTINUOUS
 62
  152
 10
291.10904824904082
 20
175.48408201305719
 11
291.92104824904072
 21
174.07765701305752
  0
LINE
  8
_0-1_
  6
CONTINUOUS
 62
  152
 10
291.92104824904072
 20
175.48408201305719
 11
281.92104824904072
 21
175.48408201305719
  0
LINE
  8
_0-1_
  6
CONTINUOUS
 62
  152
 10
282.73304824904153
 20
175.48408201305719
 11
282.73304824904153
 21
190.68408601305745
  0
LINE
  8
_0-1_
  6
CONTINUOUS
 62
  152
 10
281.92104824904072
 20
174.07765701305752
 11
282.73304824904153
 21
175.48408201305719
  0
LINE
  8
_0-1_
  6
CENTER1
 62
  152
 10
286.92104824904163
 20
153.98408201305722
 11
286.92104824904163
 21
237.19125901305745
  0
LINE
  8
_0-1_
  6
CONTINUOUS
 62
  152
 10
295.0039522490415
 20
226.63997601305721
 11
296.45984624904122
 21
225.18408201305749
  0
LINE
  8
_0-1_
  6
CONTINUOUS
 62
  152
 10
297.11034924904106
 20
225.18408201305749
 11
299.28827324904159
 21
227.36200701305745
  0
LINE
  8
_0-1_
  6
CONTINUOUS
 62
  152
 10
299.93877624904144
 20
227.36200701305745
 11
302.11670024904106
 21
225.18408201305749
  0
LINE
  8
_0-1_
  6
CONTINUOUS
 62
  152
 10
302.7672032490409
 20
225.18408201305749
 11
304.94512824904086
 21
227.36200701305745
  0
LINE
  8
_0-1_
  6
CONTINUOUS
 62
  152
 10
305.59563024904128
 20
227.36200701305745
 11
307.77355524904124
 21
225.18408201305749
  0
LINE
  8
_0-1_
  6
CONTINUOUS
 62
  152
 10
308.42405724904165
 20
225.18408201305749
 11
309.58318524904098
 21
226.34321001305727
  0
LINE
  8
_0-1_
  6
CONTINUOUS
 62
  152
 10
309.58318524904098
 20
226.20287901305721
 11
308.42405724904165
 21
227.36200701305745
  0
LINE
  8
_0-1_
  6
CONTINUOUS
 62
  152
 10
307.77355524904124
 20
227.36200701305745
 11
305.59563024904128
 21
225.18408201305749
  0
LINE
  8
_0-1_
  6
CONTINUOUS
 62
  152
 10
304.94512824904086
 20
225.18408201305749
 11
302.7672032490409
 21
227.36200701305745
  0
LINE
  8
_0-1_
  6
CONTINUOUS
 62
  152
 10
302.11670024904106
 20
227.36200701305745
 11
299.93877624904144
 21
225.18408201305749
  0
LINE
  8
_0-1_
  6
CONTINUOUS
 62
  152
 10
299.28827324904159
 20
225.18408201305749
 11
297.11034924904106
 21
227.36200701305745
  0
LINE
  8
_0-1_
  6
CONTINUOUS
 62
  152
 10
296.45984624904122
 20
227.36200701305745
 11
295.0039522490415
 21
225.90611301305728
  0
LINE
  8
_0-1_
  6
CONTINUOUS
 62
  152
 10
295.69613524904071
 20
225.18408201305749
 11
297.87406024904158
 21
227.36200701305745
  0
LINE
  8
_0-1_
  6
CONTINUOUS
 62
  152
 10
298.52456224904108
 20
227.36200701305745
 11
300.70248724904104
 21
225.18408201305749
  0
LINE
  8
_0-1_
  6
CONTINUOUS
 62
  152
 10
301.35298924904146
 20
225.18408201305749
 11
303.53091424904051
 21
227.36200701305745
  0
LINE
  8
_0-1_
  6
CONTINUOUS
 62
  152
 10
304.18141624904092
 20
227.36200701305745
 11
306.35934124904088
 21
225.18408201305749
  0
LINE
  8
_0-1_
  6
CONTINUOUS
 62
  152
 10
307.0098432490413
 20
225.18408201305749
 11
309.18776824904126
 21
227.36200701305745
  0
LINE
  8
_0-1_
  6
CONTINUOUS
 62
  152
 10
307.0098432490413
 20
227.36200701305745
 11
309.18776824904126
 21
225.18408201305749
  0
LINE
  8
_0-1_
  6
CONTINUOUS
 62
  152
 10
304.18141624904092
 20
225.18408201305749
 11
306.35934124904088
 21
227.36200701305745
  0
LINE
  8
_0-1_
  6
CONTINUOUS
 62
  152
 10
301.35298924904146
 20
227.36200701305745
 11
303.53091424904051
 21
225.18408201305749
  0
LINE
  8
_0-1_
  6
CONTINUOUS
 62
  152
 10
298.52456224904108
 20
225.18408201305749
 11
300.70248724904104
 21
227.36200701305745
  0
LINE
  8
_0-1_
  6
CENTER1
 62
  152
 10
310.83893024904137
 20
185.48408201305719
 11
261.99120924904128
 21
185.48408201305719
  0
LINE
  8
_0-1_
  6
CENTER1
 62
  152
 10
249.42104824904163
 20
229.68393001305742
 11
249.42104824904163
 21
237.19125901305745
  0
LINE
  8
_0-1_
  6
CENTER1
 62
  152
 10
324.42104824904163
 20
229.68393001305742
 11
324.42104824904163
 21
236.96376801305735
  0
LINE
  8
_0-1_
  6
CENTER1
 62
  152
 10
142.96592400140526
 20
314.5824876738958
 11
142.96592400140526
 21
360.88385367389594
  0
ARC
  8
_0-1_
  6
PHANTOM1
 62
  152
 10
219.81592400140562
 20
148.48408201305722
 40
3
 50
0
 51
90
  0
ARC
  8
_0-1_
  6
PHANTOM1
 62
  152
 10
188.1159240014058
 20
148.48408201305722
 40
3
 50
90
 51
180
  0
ARC
  8
_0-1_
  6
PHANTOM1
 62
  152
 10
219.81592400140562
 20
178.48408201305719
 40
3
 50
0
 51
90
  0
ARC
  8
_0-1_
  6
PHANTOM1
 62
  152
 10
188.1159240014058
 20
178.48408201305719
 40
3
 50
90
 51
180
  0
ENDSEC
  0
EOF
