  0
SECTION
  2
HEADER
  9
$ACADVER
  1
AC1009
  9
$INSBASE
 10
0
 20
0
 30
0
  9
$EXTMIN
 10
0
 20
0
  9
$EXTMAX
 10
1189
 20
841
  9
$LIMMIN
 10
0
 20
0
  9
$LIMMAX
 10
1189
 20
841
  9
$LTSCALE
 40
1
  0
ENDSEC
  0
SECTION
  2
TABLES
  0
TABLE
  2
LTYPE
 70
     9
  0
LTYPE
  2
CONTINUOUS
 70
    64
  3
実線
 72
    65
 73
     0
 40
0.0
  0
LTYPE
  2
DASHED1
 70
    64
  3
--  --  --  --  --  --  --  --  
 72
    65
 73
     2
 40
2.5
 49
1.25
 49
-1.25
  0
LTYPE
  2
DASHED2
 70
    64
  3
----    ----    ----    ----    
 72
    65
 73
     2
 40
5.0
 49
2.5
 49
-2.5
  0
LTYPE
  2
DASHED3
 70
    64
  3
------  ------  ------  ------  
 72
    65
 73
     2
 40
5.0
 49
3.75
 49
-1.25
  0
LTYPE
  2
CENTER1
 70
    64
  3
----- - ----- - ----- - ----- - 
 72
    65
 73
     4
 40
10.0
 49
6.25
 49
-1.25
 49
1.25
 49
-1.25
  0
LTYPE
  2
CENTER2
 70
    64
  3
----------  --  ----------  --  
 72
    65
 73
     4
 40
20.0
 49
12.5
 49
-2.5
 49
2.5
 49
-2.5
  0
LTYPE
  2
PHANTOM1
 70
    64
  3
--- - - --- - - --- - - --- - - 
 72
    65
 73
     6
 40
10.0
 49
3.25
 49
-1.25
 49
1.25
 49
-1.25
 49
1.25
 49
-1.25
  0
LTYPE
  2
PHANTOM2
 70
    64
  3
--------  -  -  --------  -  -  
 72
    65
 73
     6
 40
20.0
 49
10.0
 49
-2.5
 49
1.25
 49
-2.5
 49
1.25
 49
-2.5
  0
LTYPE
  2
DOT
 70
    64
  3
-   -   -   -   -   -   -   -   
 72
    65
 73
     2
 40
2.5
 49
0.625
 49
-1.875
  0
LTYPE
  2
DUMMY
 70
    64
  3
ダミー
 72
    65
 73
     0
 40
0.0
  0
LTYPE
  2
RAND1
 70
    64
  3
ランダム線1
 72
    65
 73
     4
 40
10.0
 49
1.0
 49
-2.0
 49
3.0
 49
-4.0
  0
LTYPE
  2
RAND2
 70
    64
  3
ランダム線2
 72
    65
 73
     4
 40
14.0
 49
2.0
 49
-3.0
 49
4.0
 49
-5.0
  0
LTYPE
  2
RAND3
 70
    64
  3
ランダム線3
 72
    65
 73
     4
 40
18.0
 49
3.0
 49
-4.0
 49
5.0
 49
-6.0
  0
LTYPE
  2
RAND4
 70
    64
  3
ランダム線4
 72
    65
 73
     4
 40
22.0
 49
4.0
 49
-5.0
 49
6.0
 49
-7.0
  0
LTYPE
  2
RAND5
 70
    64
  3
ランダム線5
 72
    65
 73
     4
 40
26.0
 49
5.0
 49
-6.0
 49
7.0
 49
-8.0
  0
LTYPE
  2
LONG1
 70
    64
  3
----------  --  ----------  --  
 72
    65
 73
     4
 40
40.0
 49
32.5
 49
-2.5
 49
2.5
 49
-2.5
  0
LTYPE
  2
LONG2
 70
    64
  3
--------  -  -  --------  -  -  
 72
    65
 73
     6
 40
40.0
 49
30.0
 49
-2.5
 49
1.25
 49
-2.5
 49
1.25
 49
-2.5
  0
LTYPE
  2
LONG3
 70
    64
  3
+++++++++++++++..+++++++++++++++
 72
    65
 73
     2
 40
40.0
 49
37.5
 49
-2.5
  0
LTYPE
  2
LONG4
 70
    64
  3
+++++++++++++++..+++++++++++++++
 72
    65
 73
     2
 40
80.0
 49
75.0
 49
-5.0
  0
LTYPE
  2
LONG5
 70
    64
  3
----------  --  ----------  --  
 72
    65
 73
     4
 40
60.0
 49
37.5
 49
-7.5
 49
7.5
 49
-7.5
  0
LTYPE
  2
dashed
 70
   64
  3
-------   -------------   ------
 72
   65
 73
    2
 40
7.5
 49
6
 49
-1.5
  0
LTYPE
  2
dashed_spaced
 70
   64
  3
----        --------        ----
 72
   65
 73
    2
 40
12
 49
6
 49
-6
  0
LTYPE
  2
long_dashed_dotted
 70
   64
  3
------------- --- --------------
 72
   65
 73
    4
 40
15.25
 49
12
 49
-1.5
 49
0.25
 49
-1.5
  0
LTYPE
  2
long_dashed_double-dotted
 70
   64
  3
----------- --- --- ------------
 72
   65
 73
    6
 40
17
 49
12
 49
-1.5
 49
0.25
 49
-1.5
 49
0.25
 49
-1.5
  0
LTYPE
  2
long_dashed_triplicate-dotted
 70
   64
  3
--------- --- --- --- ----------
 72
   65
 73
    8
 40
18.75
 49
12
 49
-1.5
 49
0.25
 49
-1.5
 49
0.25
 49
-1.5
 49
0.25
 49
-1.5
  0
LTYPE
  2
dotted
 70
   64
  3
   -       -       -       -    
 72
   65
 73
    2
 40
1.75
 49
0.25
 49
-1.5
  0
LTYPE
  2
chain
 70
   64
  3
-------------- -- --------------
 72
   65
 73
    4
 40
18.5
 49
12
 49
-1.5
 49
3.5
 49
-1.5
  0
LTYPE
  2
chain_double_dash
 70
   64
  3
------------ -- -- -------------
 72
   65
 73
    6
 40
23.5
 49
12
 49
-1.5
 49
3.5
 49
-1.5
 49
3.5
 49
-1.5
  0
LTYPE
  2
dashed_dotted
 70
   64
  3
-----------     -     ----------
 72
   65
 73
    4
 40
9.25
 49
6
 49
-1.5
 49
0.25
 49
-1.5
  0
LTYPE
  2
double-dashed_dotted
 70
   64
  3
------   -----------   -   -----
 72
   65
 73
    6
 40
16.75
 49
6
 49
-1.5
 49
6
 49
-1.5
 49
0.25
 49
-1.5
  0
LTYPE
  2
dashed_double-dotted
 70
   64
  3
---------    -    -    ---------
 72
   65
 73
    6
 40
11
 49
6
 49
-1.5
 49
0.25
 49
-1.5
 49
0.25
 49
-1.5
  0
LTYPE
  2
double-dashed_double-dotted
 70
   64
  3
-----   ---------   -   -   ----
 72
   65
 73
    8
 40
18.5
 49
6
 49
-1.5
 49
6
 49
-1.5
 49
0.25
 49
-1.5
 49
0.25
 49
-1.5
  0
LTYPE
  2
dashed_triplicate-dotted
 70
   64
  3
-------    -    -    -    ------
 72
   65
 73
    8
 40
12.75
 49
6
 49
-1.5
 49
0.25
 49
-1.5
 49
0.25
 49
-1.5
 49
0.25
 49
-1.5
  0
LTYPE
  2
double-dashed_triplicate-dotted
 70
   64
  3
-----  ---------  -  -  -  -----
 72
   65
 73
   10
 40
20.25
 49
6
 49
-1.5
 49
6
 49
-1.5
 49
0.25
 49
-1.5
 49
0.25
 49
-1.5
 49
0.25
 49
-1.5
  0
LTYPE
  2
undefined
 70
   64
  3
--------------------------------
 72
   65
 73
    0
 40
0
  0
LTYPE
  2
_
 70
   64
  3
                                
 72
   65
 73
    0
 40
0
  0
LTYPE
  2
__18
 70
   64
  3
                                
 72
   65
 73
    0
 40
0
  0
LTYPE
  2
__19
 70
   64
  3
                                
 72
   65
 73
    0
 40
0
  0
LTYPE
  2
__20
 70
   64
  3
                                
 72
   65
 73
    0
 40
0
  0
LTYPE
  2
__21
 70
   64
  3
                                
 72
   65
 73
    0
 40
0
  0
LTYPE
  2
__22
 70
   64
  3
                                
 72
   65
 73
    0
 40
0
  0
LTYPE
  2
__23
 70
   64
  3
                                
 72
   65
 73
    0
 40
0
  0
LTYPE
  2
__24
 70
   64
  3
                                
 72
   65
 73
    0
 40
0
  0
LTYPE
  2
__25
 70
   64
  3
                                
 72
   65
 73
    0
 40
0
  0
LTYPE
  2
__26
 70
   64
  3
                                
 72
   65
 73
    0
 40
0
  0
LTYPE
  2
__27
 70
   64
  3
                                
 72
   65
 73
    0
 40
0
  0
LTYPE
  2
__28
 70
   64
  3
                                
 72
   65
 73
    0
 40
0
  0
LTYPE
  2
__29
 70
   64
  3
                                
 72
   65
 73
    0
 40
0
  0
LTYPE
  2
__30
 70
   64
  3
                                
 72
   65
 73
    0
 40
0
  0
LTYPE
  2
__31
 70
   64
  3
                                
 72
   65
 73
    0
 40
0
  0
LTYPE
  2
__32
 70
   64
  3
                                
 72
   65
 73
    0
 40
0
  0
ENDTAB
  0
TABLE
  2
STYLE
  5
3
100
AcDbSymbolTable
 70
     1
  0
STYLE
  5
10
100
AcDbSymbolTableRecord
100
AcDbTextStyleTableRecord
  2
STANDARD
 70
     0
 40
0.0
 41
1.0
 50
0.0
 71
     0
 42
0.2
  3
txt
  4
bigfont.shx
  0
STYLE
  5
26
100
AcDbSymbolTableRecord
100
AcDbTextStyleTableRecord
  2
TATEGAKI
 70
    68
 40
0.0
 41
1.0
 50
0.0
 71
     0
 42
1.0
  3
txt
  4
bigfont.shx
  0
ENDTAB
  0
TABLE
  2
LAYER
 70
    5
  0
LAYER
  2
_0-0_
 70
   64
 62
    7
  6
CONTINUOUS
  0
LAYER
  2
_0-1_
 70
   64
 62
    7
  6
CONTINUOUS
  0
LAYER
  2
_0-4_
 70
   64
 62
    7
  6
CONTINUOUS
  0
LAYER
  2
_0-c_
 70
   64
 62
    7
  6
CONTINUOUS
  0
LAYER
  2
ADD_LINE
 70
   64
 62
    7
  6
CONTINUOUS
  0
ENDTAB
  0
ENDSEC
  0
SECTION
  2
BLOCKS
  0
ENDSEC
  0
SECTION
  2
ENTITIES
  0
CIRCLE
  8
_0-0_
  6
CONTINUOUS
 62
    7
 10
232.64812206878094
 20
447.20209376221601
 40
3.125
  0
LINE
  8
_0-1_
  6
CENTER1
 62
  152
 10
238.16668917921663
 20
447.20209376221601
 11
227.83212407712745
 21
447.20209376221601
  0
LINE
  8
_0-1_
  6
CENTER1
 62
  152
 10
232.64812206878094
 20
442.20478761087691
 11
232.64812206878094
 21
451.81412007422284
  0
LINE
  8
_0-0_
  6
CONTINUOUS
 62
    7
 10
361.14812206878105
 20
403.95945307509669
 11
361.14812206878105
 21
377.20209376221601
  0
LINE
  8
_0-0_
  6
CONTINUOUS
 62
    7
 10
251.39076275590048
 20
377.20209376221601
 11
361.14812206878105
 21
377.20209376221601
  0
ARC
  8
_0-0_
  6
CONTINUOUS
 62
    7
 10
251.39076275590048
 20
380.20209376221601
 40
3.0000000000000009
 50
225.00000000000006
 51
270
  0
LINE
  8
_0-0_
  6
CONTINUOUS
 62
    7
 10
219.02680172522116
 20
408.32341410577578
 11
249.26944241234071
 21
378.08077341865646
  0
LINE
  8
_0-0_
  6
CONTINUOUS
 62
    7
 10
218.14812206878105
 20
410.44473444933533
 11
218.14812206878105
 21
520.20209376221601
  0
ARC
  8
_0-0_
  6
CONTINUOUS
 62
    7
 10
221.14812206878116
 20
410.44473444933533
 40
3.0000000000000009
 50
180
 51
225.00000000000006
  0
LINE
  8
_0-0_
  6
CONTINUOUS
 62
    7
 10
244.90548138166139
 20
520.20209376221601
 11
218.14812206878105
 21
520.20209376221601
  0
ARC
  8
_0-0_
  6
CONTINUOUS
 62
    7
 10
244.90548138166139
 20
517.20209376221601
 40
3.0000000000000009
 50
45
 51
90
  0
LINE
  8
_0-0_
  6
CONTINUOUS
 62
    7
 10
360.26944241234082
 20
406.08077341865624
 11
247.02680172522128
 21
519.32341410577567
  0
ARC
  8
_0-0_
  6
CONTINUOUS
 62
    7
 10
358.14812206878105
 20
403.95945307509669
 40
3.0000000000000009
 50
359.99999999999994
 51
44.99999999999995
  0
ARC
  8
_0-0_
  6
CONTINUOUS
 62
    7
 10
242.54812206878091
 20
467.20209376221601
 40
4.1499999999999782
 50
270
 51
90
  0
LINE
  8
_0-0_
  6
CONTINUOUS
 62
    7
 10
237.74812206878141
 20
471.35209376221587
 11
242.54812206878091
 21
471.35209376221587
  0
ARC
  8
_0-0_
  6
CONTINUOUS
 62
    7
 10
237.74812206878141
 20
467.20209376221601
 40
4.1499999999999782
 50
90
 51
270
  0
LINE
  8
_0-0_
  6
CONTINUOUS
 62
    7
 10
237.74812206878141
 20
463.05209376221592
 11
242.54812206878091
 21
463.05209376221592
  0
LINE
  8
_0-1_
  6
CENTER1
 62
  152
 10
237.74812206878141
 20
462.07453932270278
 11
237.74812206878141
 21
472.05248309689057
  0
LINE
  8
_0-1_
  6
CENTER1
 62
  152
 10
242.54812206878091
 20
462.07453932270278
 11
242.54812206878091
 21
472.05248309689057
  0
LINE
  8
_0-1_
  6
CENTER1
 62
  152
 10
240.14812206878094
 20
462.07453932270278
 11
240.14812206878094
 21
472.05248309689057
  0
LINE
  8
_0-1_
  6
CENTER1
 62
  152
 10
232.46359733366182
 20
467.20209376221601
 11
247.58889305485161
 21
467.20209376221601
  0
ARC
  8
_0-0_
  6
CONTINUOUS
 62
    7
 10
242.54812206878091
 20
497.20209376221601
 40
4.1499999999999782
 50
270
 51
90
  0
LINE
  8
_0-0_
  6
CONTINUOUS
 62
    7
 10
237.74812206878141
 20
501.35209376221599
 11
242.54812206878091
 21
501.35209376221599
  0
ARC
  8
_0-0_
  6
CONTINUOUS
 62
    7
 10
237.74812206878141
 20
497.20209376221601
 40
4.1499999999999782
 50
90
 51
270
  0
LINE
  8
_0-0_
  6
CONTINUOUS
 62
    7
 10
237.74812206878141
 20
493.05209376221592
 11
242.54812206878091
 21
493.05209376221592
  0
LINE
  8
_0-1_
  6
CENTER1
 62
  152
 10
237.74812206878141
 20
492.07453932270278
 11
237.74812206878141
 21
502.05248309689057
  0
LINE
  8
_0-1_
  6
CENTER1
 62
  152
 10
242.54812206878091
 20
492.07453932270278
 11
242.54812206878091
 21
502.05248309689057
  0
LINE
  8
_0-1_
  6
CENTER1
 62
  152
 10
240.14812206878094
 20
492.07453932270278
 11
240.14812206878094
 21
502.05248309689057
  0
LINE
  8
_0-1_
  6
CENTER1
 62
  152
 10
232.46359733366182
 20
497.20209376221601
 11
247.58889305485161
 21
497.20209376221601
  0
CIRCLE
  8
_0-0_
  6
CONTINUOUS
 62
    7
 10
232.64812206878094
 20
482.20209376221601
 40
3.125
  0
LINE
  8
_0-1_
  6
CENTER1
 62
  152
 10
238.16668917921663
 20
482.20209376221601
 11
227.83212407712745
 21
482.20209376221601
  0
LINE
  8
_0-1_
  6
CENTER1
 62
  152
 10
232.64812206878094
 20
477.20478761087702
 11
232.64812206878094
 21
486.81412007422284
  0
CIRCLE
  8
_0-0_
  6
CONTINUOUS
 62
    7
 10
288.14812206878094
 20
391.7020937622159
 40
3.125
  0
LINE
  8
_0-1_
  6
CENTER1
 62
  152
 10
288.14812206878094
 20
397.22066087265159
 11
288.14812206878094
 21
386.88609577056252
  0
LINE
  8
_0-1_
  6
CENTER1
 62
  152
 10
283.15081591744195
 20
391.7020937622159
 11
292.76014838078811
 21
391.7020937622159
  0
ARC
  8
_0-0_
  6
CONTINUOUS
 62
    7
 10
308.14812206878094
 20
401.60209376221599
 40
4.1499999999999755
 50
0
 51
179.99999999999994
  0
LINE
  8
_0-0_
  6
CONTINUOUS
 62
    7
 10
312.29812206878057
 20
396.80209376221592
 11
312.29812206878114
 21
401.60209376221599
  0
ARC
  8
_0-0_
  6
CONTINUOUS
 62
    7
 10
308.14812206878094
 20
396.80209376221592
 40
4.1499999999999764
 50
179.99999999999997
 51
359.99999999999994
  0
LINE
  8
_0-0_
  6
CONTINUOUS
 62
    7
 10
303.99812206878084
 20
396.80209376221592
 11
303.9981220687813
 21
401.60209376221599
  0
LINE
  8
_0-1_
  6
CENTER1
 62
  152
 10
303.02056762926759
 20
396.80209376221592
 11
312.99851140345572
 21
396.80209376221592
  0
LINE
  8
_0-1_
  6
CENTER1
 62
  152
 10
303.02056762926827
 20
401.60209376221599
 11
312.99851140345572
 21
401.60209376221599
  0
LINE
  8
_0-1_
  6
CENTER1
 62
  152
 10
303.02056762926759
 20
399.2020937622159
 11
312.99851140345572
 21
399.2020937622159
  0
LINE
  8
_0-1_
  6
CENTER1
 62
  152
 10
308.14812206878094
 20
391.51756902709701
 11
308.14812206878094
 21
406.64286474828646
  0
ARC
  8
_0-0_
  6
CONTINUOUS
 62
    7
 10
338.14812206878094
 20
401.60209376221599
 40
4.1499999999999755
 50
0
 51
179.99999999999994
  0
LINE
  8
_0-0_
  6
CONTINUOUS
 62
    7
 10
342.29812206878091
 20
396.80209376221592
 11
342.29812206878114
 21
401.60209376221599
  0
ARC
  8
_0-0_
  6
CONTINUOUS
 62
    7
 10
338.14812206878094
 20
396.80209376221592
 40
4.1499999999999764
 50
179.99999999999997
 51
359.99999999999994
  0
LINE
  8
_0-0_
  6
CONTINUOUS
 62
    7
 10
333.99812206878073
 20
396.80209376221592
 11
333.99812206878073
 21
401.60209376221599
  0
LINE
  8
_0-1_
  6
CENTER1
 62
  152
 10
333.02056762926759
 20
396.80209376221592
 11
342.99851140345572
 21
396.80209376221592
  0
LINE
  8
_0-1_
  6
CENTER1
 62
  152
 10
333.02056762926759
 20
401.60209376221599
 11
342.99851140345572
 21
401.60209376221599
  0
LINE
  8
_0-1_
  6
CENTER1
 62
  152
 10
333.02056762926759
 20
399.2020937622159
 11
342.99851140345572
 21
399.2020937622159
  0
LINE
  8
_0-1_
  6
CENTER1
 62
  152
 10
338.14812206878094
 20
391.51756902709701
 11
338.14812206878094
 21
406.64286474828646
  0
CIRCLE
  8
_0-0_
  6
CONTINUOUS
 62
    7
 10
323.14812206878094
 20
391.7020937622159
 40
3.125
  0
LINE
  8
_0-1_
  6
CENTER1
 62
  152
 10
323.14812206878094
 20
397.22066087265159
 11
323.14812206878094
 21
386.88609577056252
  0
LINE
  8
_0-1_
  6
CENTER1
 62
  152
 10
318.15081591744195
 20
391.7020937622159
 11
327.760148380788
 21
391.7020937622159
  0
LINE
  8
_0-1_
  6
CENTER1
 62
  152
 10
268.14812206878105
 20
388.42769499840938
 11
268.14812206878105
 21
466.73673586904363
  0
LINE
  8
_0-1_
  6
CENTER1
 62
  152
 10
197.00630724938014
 20
427.20209376221601
 11
308.41406558990263
 21
427.20209376221601
  0
ARC
  8
_0-0_
  6
CONTINUOUS
 62
    7
 10
216.64812206878116
 20
449.20209376221601
 40
1
 50
90
 51
180
  0
LINE
  8
_0-0_
  6
CONTINUOUS
 62
    7
 10
215.64812206878105
 20
442.20209376221601
 11
215.64812206878105
 21
449.20209376221601
  0
ARC
  8
_0-0_
  6
CONTINUOUS
 62
    7
 10
216.64812206878116
 20
442.20209376221601
 40
1
 50
180
 51
270
  0
ARC
  8
_0-0_
  6
CONTINUOUS
 62
    7
 10
216.64812206878116
 20
405.20209376221612
 40
1
 50
180
 51
270
  0
LINE
  8
_0-0_
  6
CONTINUOUS
 62
    7
 10
215.64812206878105
 20
412.20209376221601
 11
215.64812206878105
 21
405.20209376221612
  0
ARC
  8
_0-0_
  6
CONTINUOUS
 62
    7
 10
216.64812206878116
 20
412.20209376221601
 40
1
 50
90
 51
180
  0
LINE
  8
_0-0_
  6
CONTINUOUS
 62
    7
 10
216.64812206878116
 20
450.20209376221612
 11
218.14812206878105
 21
450.20209376221612
  0
LINE
  8
_0-0_
  6
CONTINUOUS
 62
    7
 10
216.64812206878116
 20
441.20209376221601
 11
218.14812206878105
 21
441.20209376221601
  0
LINE
  8
_0-0_
  6
CONTINUOUS
 62
    7
 10
216.64812206878116
 20
413.20209376221601
 11
218.14812206878105
 21
413.20209376221601
  0
LINE
  8
_0-0_
  6
CONTINUOUS
 62
    7
 10
216.64812206878116
 20
404.20209376221601
 11
223.14812206878105
 21
404.20209376221601
  0
CIRCLE
  8
_0-0_
  6
CONTINUOUS
 62
    7
 10
268.14812206878105
 20
427.20209376221601
 40
25
  0
CIRCLE
  8
_0-0_
  6
CONTINUOUS
 62
    7
 10
268.14812206878105
 20
427.20209376221601
 40
23.000000000000004
  0
CIRCLE
  8
_0-0_
  6
CONTINUOUS
 62
    7
 10
268.14812206878105
 20
427.20209376221601
 40
13.500000000000004
  0
LINE
  8
_0-0_
  6
CONTINUOUS
 62
    7
 10
271.58499471209188
 20
440.02867708619578
 11
258.75841138811256
 21
436.59180444288506
  0
LINE
  8
_0-0_
  6
CONTINUOUS
 62
    7
 10
280.97470539276094
 20
430.63896640552696
 11
271.58499471209188
 21
440.02867708619578
  0
LINE
  8
_0-0_
  6
CONTINUOUS
 62
    7
 10
277.53783274944954
 20
417.81238308154707
 11
280.97470539276094
 21
430.63896640552696
  0
LINE
  8
_0-0_
  6
CONTINUOUS
 62
    7
 10
264.71124942546999
 20
414.37551043823635
 11
277.53783274944954
 21
417.81238308154707
  0
LINE
  8
_0-0_
  6
CONTINUOUS
 62
    7
 10
255.3215387448015
 20
423.76522111890506
 11
264.71124942546999
 21
414.37551043823635
  0
LINE
  8
_0-0_
  6
CONTINUOUS
 62
    7
 10
258.75841138811256
 20
436.59180444288506
 11
255.3215387448015
 21
423.76522111890506
  0
LINE
  8
_0-0_
  6
CONTINUOUS
 62
    7
 10
268.75195476722217
 20
434.10393308751861
 11
262.47287022945136
 21
431.1759478813533
  0
LINE
  8
_0-0_
  6
CONTINUOUS
 62
    7
 10
274.42720660655175
 20
430.13007896838144
 11
268.75195476722217
 21
434.10393308751861
  0
LINE
  8
_0-0_
  6
CONTINUOUS
 62
    7
 10
273.82337390811051
 20
423.22823964307872
 11
274.42720660655175
 21
430.13007896838144
  0
LINE
  8
_0-0_
  6
CONTINUOUS
 62
    7
 10
267.5442893703397
 20
420.30025443691341
 11
273.82337390811051
 21
423.22823964307872
  0
LINE
  8
_0-0_
  6
CONTINUOUS
 62
    7
 10
267.5442893703397
 20
420.30025443691341
 11
261.86903753101012
 21
424.27410855605058
  0
LINE
  8
_0-0_
  6
CONTINUOUS
 62
    7
 10
262.47287022945136
 20
431.1759478813533
 11
261.86903753101012
 21
424.27410855605058
  0
CIRCLE
  8
_0-0_
  6
CONTINUOUS
 62
    7
 10
268.14812206878105
 20
427.20209376221601
 40
9
  0
LINE
  8
_0-4_
  6
PHANTOM1
 62
   56
 10
387.106779549046
 20
379.12209376221585
 11
220.06812206878112
 21
379.12209376221585
  0
LINE
  8
_0-4_
  6
PHANTOM1
 62
   56
 10
220.06812206878112
 20
543.0585402556319
 11
220.06812206878112
 21
379.12209376221585
  0
LINE
  8
_0-4_
  6
PHANTOM1
 62
   56
 10
245.06812206878101
 20
543.0585402556319
 11
245.06812206878101
 21
379.12209376221585
  0
LINE
  8
_0-4_
  6
PHANTOM1
 62
   56
 10
387.106779549046
 20
404.12209376221585
 11
220.06812206878112
 21
404.12209376221585
  0
LINE
  8
_0-4_
  6
PHANTOM1
 62
   56
 10
387.106779549046
 20
395.22209376221588
 11
245.06812206878101
 21
395.22209376221588
  0
LINE
  8
_0-4_
  6
PHANTOM1
 62
   56
 10
387.106779549046
 20
388.02209376221583
 11
245.06812206878101
 21
388.02209376221583
  0
LINE
  8
_0-4_
  6
PHANTOM1
 62
   56
 10
228.96812206878087
 20
546.16075124248096
 11
228.96812206878087
 21
404.12209376221585
  0
LINE
  8
_0-4_
  6
PHANTOM1
 62
   56
 10
236.16812206878114
 20
546.16075124248096
 11
236.16812206878114
 21
404.12209376221585
  0
ARC
  8
_0-0_
  6
CONTINUOUS
 62
    7
 10
206.50521449519238
 20
415.65209376221594
 40
1
 50
188.4879540707918
 51
270
  0
ARC
  8
_0-0_
  6
CONTINUOUS
 62
    7
 10
283.89937204714602
 20
427.20209376221601
 40
79.251249978365095
 50
171.51204592920809
 51
188.48795407079191
  0
ARC
  8
_0-0_
  6
CONTINUOUS
 62
    7
 10
206.50521449519238
 20
438.75209376221596
 40
1
 50
90
 51
171.5120459292082
  0
LINE
  8
_0-0_
  6
CONTINUOUS
 62
    7
 10
206.50521449519238
 20
439.75209376221596
 11
218.14812206878105
 21
439.75209376221596
  0
LINE
  8
_0-0_
  6
CONTINUOUS
 62
    7
 10
206.50521449519238
 20
414.65209376221605
 11
218.14812206878105
 21
414.65209376221605
  0
LINE
  8
_0-0_
  6
CONTINUOUS
 62
    7
 10
353.75803862315399
 20
268.88109839673723
 11
218.14812206878094
 21
268.88109839673723
  0
LINE
  8
_0-0_
  6
CONTINUOUS
 62
    7
 10
294.14812206878128
 20
200.88109839673729
 11
294.68145540211401
 21
208.88109839673729
  0
LINE
  8
_0-0_
  6
CONTINUOUS
 62
    7
 10
294.14812206878128
 20
200.88109839673729
 11
243.8994107628165
 21
200.88109839673729
  0
LINE
  8
_0-0_
  6
CONTINUOUS
 62
    7
 10
243.8994107628165
 20
200.88109839673729
 11
243.8994107628165
 21
208.88109839673729
  0
LINE
  8
_0-0_
  6
CONTINUOUS
 62
    7
 10
361.14812206878105
 20
265.08109839673727
 11
357.68402045364337
 21
263.08109839673722
  0
LINE
  8
_0-0_
  6
CONTINUOUS
 62
    7
 10
354.62406402693819
 20
268.38109839673723
 11
357.68402045364337
 21
263.08109839673722
  0
ARC
  8
_0-0_
  6
CONTINUOUS
 62
    7
 10
353.75803862315399
 20
267.88109839673712
 40
1
 50
30.000000000000068
 51
90.000000000000057
  0
LINE
  8
_0-0_
  6
CONTINUOUS
 62
    7
 10
358.08816564207609
 20
270.38109839673712
 11
361.14812206878105
 21
265.08109839673727
  0
ARC
  8
_0-0_
  6
CONTINUOUS
 62
    7
 10
353.75803862315399
 20
267.88109839673712
 40
5
 50
30.00000000000027
 51
90
  0
LINE
  8
_0-0_
  6
CONTINUOUS
 62
    7
 10
353.75803862315399
 20
272.88109839673712
 11
218.14812206878094
 21
272.88109839673712
  0
LINE
  8
_0-0_
  6
CONTINUOUS
 62
    7
 10
218.14812206878094
 20
268.88109839673723
 11
218.14812206878094
 21
272.88109839673712
  0
LINE
  8
_0-1_
  6
PHANTOM1
 62
  152
 10
294.14812206878128
 20
183.88109839673717
 11
296.14812206878116
 21
213.88109839673717
  0
LINE
  8
_0-1_
  6
PHANTOM1
 62
  152
 10
294.14812206878128
 20
183.88109839673717
 11
243.8994107628165
 21
183.88109839673717
  0
LINE
  8
_0-0_
  6
CONTINUOUS
 62
    7
 10
265.71195629281692
 20
200.88109839673729
 11
265.71195629281692
 21
208.88109839673729
  0
LINE
  8
_0-0_
  6
CONTINUOUS
 62
    7
 10
266.64812206881652
 20
200.88109839673729
 11
266.64812206881652
 21
208.88109839673729
  0
LINE
  8
_0-0_
  6
CONTINUOUS
 62
    7
 10
270.58428784474518
 20
200.88109839673729
 11
270.58428784474518
 21
208.88109839673729
  0
LINE
  8
_0-0_
  6
CONTINUOUS
 62
    7
 10
269.64812206874558
 20
200.88109839673729
 11
269.64812206874558
 21
208.88109839673729
  0
LINE
  8
_0-0_
  6
CONTINUOUS
 62
    7
 10
297.14812206878071
 20
268.88109839673723
 11
294.14812206878128
 21
265.88109839673723
  0
LINE
  8
_0-0_
  6
CONTINUOUS
 62
    7
 10
294.14812206878128
 20
265.88109839673723
 11
268.14812206878105
 21
265.88109839673723
  0
LINE
  8
_0-0_
  6
CONTINUOUS
 62
    7
 10
239.14812206878116
 20
268.88109839673723
 11
242.14812206878082
 21
265.88109839673723
  0
LINE
  8
_0-0_
  6
CONTINUOUS
 62
    7
 10
242.14812206878082
 20
265.88109839673723
 11
268.14812206878105
 21
265.88109839673723
  0
LINE
  8
_0-0_
  6
CONTINUOUS
 62
    7
 10
239.59149774175489
 20
264.88109839673723
 11
268.14812206878105
 21
264.88109839673723
  0
LINE
  8
_0-0_
  6
CONTINUOUS
 62
    7
 10
238.14812206878105
 20
262.38109839673723
 11
239.59149774175489
 21
264.88109839673723
  0
LINE
  8
_0-0_
  6
CONTINUOUS
 62
    7
 10
298.14812206878105
 20
264.88109839673723
 11
268.14812206878105
 21
264.88109839673723
  0
LINE
  8
_0-0_
  6
CONTINUOUS
 62
    7
 10
298.14812206878105
 20
253.88109839673723
 11
298.14812206878105
 21
264.88109839673723
  0
ARC
  8
_0-0_
  6
CONTINUOUS
 62
    7
 10
295.14812206878082
 20
253.88109839673723
 40
3.0000000000000009
 50
270
 51
0
  0
ARC
  8
_0-0_
  6
CONTINUOUS
 62
    7
 10
300.64812206878094
 20
211.88109839673729
 40
3.0000000000000009
 50
270
 51
0
  0
LINE
  8
_0-0_
  6
CONTINUOUS
 62
    7
 10
303.64812206878116
 20
228.31344813285574
 11
303.64812206878116
 21
211.88109839673729
  0
ARC
  8
_0-0_
  6
CONTINUOUS
 62
    7
 10
300.64812206878094
 20
228.31344813285574
 40
3.0000000000000009
 50
0
 51
81.119340849479769
  0
LINE
  8
_0-0_
  6
CONTINUOUS
 62
    7
 10
275.64812206878105
 20
250.88109839673723
 11
295.14812206878082
 21
250.88109839673723
  0
ARC
  8
_0-0_
  6
CONTINUOUS
 62
    7
 10
275.64812206878105
 20
246.88109839673717
 40
4
 50
90
 51
180
  0
LINE
  8
_0-0_
  6
CONTINUOUS
 62
    7
 10
271.64812206878128
 20
239.30463208191264
 11
271.64812206878128
 21
246.88109839673717
  0
LINE
  8
_0-0_
  6
CONTINUOUS
 62
    7
 10
275.03061454768647
 20
235.35258394690817
 11
301.11125270960179
 21
231.27748423410895
  0
ARC
  8
_0-0_
  6
CONTINUOUS
 62
    7
 10
275.64812206878105
 20
239.30463208191264
 40
4
 50
180
 51
261.11934084947967
  0
LINE
  8
_0-0_
  6
CONTINUOUS
 62
    7
 10
244.32389026484918
 20
208.88109839673729
 11
300.64812206878094
 21
208.88109839673729
  0
ARC
  8
_0-0_
  6
CONTINUOUS
 62
    7
 10
244.32389026484918
 20
212.88109839673729
 40
4
 50
180
 51
270
  0
LINE
  8
_0-0_
  6
CONTINUOUS
 62
    7
 10
291.7173909266163
 20
242.60423850559204
 11
288.55374053196306
 21
239.44058811093845
  0
LINE
  8
_0-0_
  6
CONTINUOUS
 62
    7
 10
291.7173909266163
 20
245.51479686870829
 11
291.7173909266163
 21
242.60423850559204
  0
LINE
  8
_0-0_
  6
CONTINUOUS
 62
    7
 10
271.64812206878128
 20
245.51479686870829
 11
291.7173909266163
 21
245.51479686870829
  0
LINE
  8
_0-0_
  6
CONTINUOUS
 62
    7
 10
288.55374053196306
 20
239.44058811093845
 11
271.64812206878128
 21
239.44058811093845
  0
LINE
  8
_0-0_
  6
CONTINUOUS
 62
    7
 10
287.14812206878082
 20
248.17226320024935
 11
287.14812206878082
 21
250.88109839673723
  0
LINE
  8
_0-0_
  6
CONTINUOUS
 62
    7
 10
287.14812206878082
 20
248.17226320024935
 11
271.86224126635625
 21
248.17226320024935
  0
LINE
  8
_0-0_
  6
CONTINUOUS
 62
    7
 10
276.14812206878105
 20
245.51479686870829
 11
276.14812206878105
 21
248.17226320024935
  0
LINE
  8
_0-0_
  6
CONTINUOUS
 62
    7
 10
274.35949576107464
 20
239.44058811093845
 11
274.35949576107464
 21
235.51788648191695
  0
LINE
  8
_0-0_
  6
CONTINUOUS
 62
    7
 10
238.14812206878105
 20
262.38109839673723
 11
298.14812206878105
 21
262.38109839673723
  0
LINE
  8
_0-1_
  6
PHANTOM1
 62
  152
 10
321.9934232610284
 20
190.88109839673729
 11
200.94006668243344
 21
190.88109839673729
  0
ARC
  8
_0-0_
  6
CONTINUOUS
 62
    7
 10
90.781370690781728
 20
255.63845770961797
 40
3.0000000000000009
 50
135.00000000000031
 51
180
  0
LINE
  8
_0-0_
  6
CONTINUOUS
 62
    7
 10
88.660050347222409
 20
257.75977805317757
 11
93.281370690781728
 21
262.38109839673723
  0
LINE
  8
_0-0_
  6
CONTINUOUS
 62
    7
 10
152.28137069078161
 20
268.88109839673723
 11
149.28137069078196
 21
265.88109839673723
  0
LINE
  8
_0-0_
  6
CONTINUOUS
 62
    7
 10
149.28137069078196
 20
265.88109839673723
 11
123.28137069078173
 21
265.88109839673723
  0
LINE
  8
_0-0_
  6
CONTINUOUS
 62
    7
 10
94.281370690781955
 20
268.88109839673723
 11
97.2813706907815
 21
265.88109839673723
  0
LINE
  8
_0-0_
  6
CONTINUOUS
 62
    7
 10
97.2813706907815
 20
265.88109839673723
 11
123.28137069078173
 21
265.88109839673723
  0
LINE
  8
_0-0_
  6
CONTINUOUS
 62
    7
 10
94.724746363755571
 20
264.88109839673723
 11
123.28137069078173
 21
264.88109839673723
  0
LINE
  8
_0-0_
  6
CONTINUOUS
 62
    7
 10
93.281370690781728
 20
262.38109839673723
 11
94.724746363755571
 21
264.88109839673723
  0
LINE
  8
_0-0_
  6
CONTINUOUS
 62
    7
 10
87.781370690781614
 20
211.88109839673729
 11
87.781370690781614
 21
255.63845770961797
  0
ARC
  8
_0-0_
  6
CONTINUOUS
 62
    7
 10
90.781370690781728
 20
211.88109839673729
 40
3.0000000000000009
 50
180
 51
270
  0
ARC
  8
_0-0_
  6
CONTINUOUS
 62
    7
 10
155.78137069078184
 20
255.63845770961797
 40
3.0000000000000009
 50
0
 51
44.999999999999694
  0
LINE
  8
_0-0_
  6
CONTINUOUS
 62
    7
 10
157.90269103434161
 20
257.75977805317757
 11
153.28137069078173
 21
262.38109839673723
  0
LINE
  8
_0-0_
  6
CONTINUOUS
 62
    7
 10
158.78137069078184
 20
211.88109839673729
 11
158.78137069078184
 21
255.63845770961797
  0
ARC
  8
_0-0_
  6
CONTINUOUS
 62
    7
 10
155.78137069078184
 20
211.88109839673729
 40
3.0000000000000009
 50
270
 51
0
  0
LINE
  8
_0-0_
  6
CONTINUOUS
 62
    7
 10
151.83799501780788
 20
264.88109839673723
 11
123.28137069078173
 21
264.88109839673723
  0
LINE
  8
_0-0_
  6
CONTINUOUS
 62
    7
 10
153.28137069078173
 20
262.38109839673723
 11
151.83799501780788
 21
264.88109839673723
  0
ARC
  8
_0-0_
  6
CONTINUOUS
 62
    7
 10
103.28137069078184
 20
204.38109839673717
 40
3.0000000000000009
 50
180
 51
270
  0
ARC
  8
_0-0_
  6
CONTINUOUS
 62
    7
 10
143.28137069078173
 20
204.38109839673717
 40
3.0000000000000009
 50
270
 51
0
  0
LINE
  8
_0-0_
  6
CONTINUOUS
 62
    7
 10
149.28137069078196
 20
200.88109839673729
 11
149.8147040241148
 21
208.88109839673729
  0
LINE
  8
_0-0_
  6
CONTINUOUS
 62
    7
 10
97.2813706907815
 20
200.88109839673729
 11
96.748037357448766
 21
208.88109839673729
  0
LINE
  8
_0-0_
  6
CONTINUOUS
 62
    7
 10
97.2813706907815
 20
200.88109839673729
 11
110.73137069078189
 21
200.88109839673729
  0
LINE
  8
_0-0_
  6
CONTINUOUS
 62
    7
 10
135.83137069078168
 20
200.88109839673729
 11
149.28137069078196
 21
200.88109839673729
  0
LINE
  8
_0-0_
  6
CONTINUOUS
 62
    7
 10
155.78137069078184
 20
208.88109839673729
 11
146.28137069078196
 21
208.88109839673729
  0
LINE
  8
_0-0_
  6
CONTINUOUS
 62
    7
 10
100.28137069078161
 20
208.88109839673729
 11
90.781370690781728
 21
208.88109839673729
  0
ARC
  8
_0-0_
  6
CONTINUOUS
 62
    7
 10
123.28137069078173
 20
301.19538612369684
 40
46.360499061197721
 50
246.67331538339872
 51
293.14275851696539
  0
LINE
  8
_0-0_
  6
CONTINUOUS
 62
    7
 10
93.281370690781728
 20
262.38109839673723
 11
153.28137069078173
 21
262.38109839673723
  0
LINE
  8
_0-0_
  6
CONTINUOUS
 62
    7
 10
102.2813706907815
 20
220.9477354235861
 11
102.2813706907815
 21
259.96730734862126
  0
LINE
  8
_0-0_
  6
CONTINUOUS
 62
    7
 10
144.28137069078207
 20
220.9477354235861
 11
144.28137069078207
 21
259.96730734862126
  0
LINE
  8
_0-0_
  6
CONTINUOUS
 62
    7
 10
100.28137069078161
 20
228.38109839673723
 11
100.28137069078161
 21
204.38109839673717
  0
LINE
  8
_0-0_
  6
CONTINUOUS
 62
    7
 10
146.28137069078196
 20
228.38109839673723
 11
146.28137069078196
 21
204.38109839673717
  0
ARC
  8
_0-0_
  6
CONTINUOUS
 62
    7
 10
103.28137069078184
 20
228.38109839673723
 40
3.0000000000000009
 50
109.47122063449055
 51
180
  0
ARC
  8
_0-0_
  6
CONTINUOUS
 62
    7
 10
143.28137069078173
 20
228.38109839673723
 40
3.0000000000000009
 50
0
 51
70.52877936550945
  0
LINE
  8
_0-1_
  6
CENTER1
 62
  152
 10
123.28137069078173
 20
180.17340107959006
 11
123.28137069078173
 21
276.61614473795726
  0
LINE
  8
_0-1_
  6
PHANTOM1
 62
  152
 10
243.8994107628165
 20
184.38109839673706
 11
243.8994107628165
 21
200.29458112681419
  0
LINE
  8
_0-0_
  6
CONTINUOUS
 62
    7
 10
224.4151570645389
 20
246.64997186390133
 11
216.3601611833011
 21
221.44773542358604
  0
ARC
  8
_0-0_
  6
CONTINUOUS
 62
    7
 10
242.13610170959259
 20
240.98610403731158
 40
18.604066164958066
 50
92.878584898103924
 51
162.2753753740451
  0
ARC
  8
_0-0_
  6
CONTINUOUS
 62
    7
 10
230.64812206878105
 20
216.88109839673717
 40
13.000000000000002
 50
41.901860400798917
 51
329.3442036445947
  0
ARC
  8
_0-0_
  6
CONTINUOUS
 62
    7
 10
230.64812206878105
 20
216.88109839673717
 40
15
 50
49.830484642209449
 51
330.23743253030375
  0
LINE
  8
_0-0_
  6
CONTINUOUS
 62
   56
 10
233.74812197341362
 20
216.26109839196869
 11
233.74812197341362
 21
217.50109840150566
  0
LINE
  8
_0-0_
  6
CONTINUOUS
 62
   56
 10
230.0281220640129
 20
219.98109830136974
 11
231.26812207354919
 21
219.98109830136974
  0
LINE
  8
_0-0_
  6
CONTINUOUS
 62
   56
 10
227.54812216414825
 20
216.26109839196869
 11
227.54812216414825
 21
217.50109840150566
  0
LINE
  8
_0-0_
  6
CONTINUOUS
 62
   56
 10
230.0281220640129
 20
213.7810984921046
 11
231.26812207354919
 21
213.7810984921046
  0
LINE
  8
_0-0_
  6
CONTINUOUS
 62
   56
 10
231.26812207354919
 20
218.74109841104229
 11
231.26812207354919
 21
219.98109830136974
  0
LINE
  8
_0-0_
  6
CONTINUOUS
 62
   56
 10
232.50812208308594
 20
217.50109840150566
 11
233.74812197341362
 21
217.50109840150566
  0
LINE
  8
_0-0_
  6
CONTINUOUS
 62
   56
 10
232.50812208308594
 20
216.26109839196869
 11
233.74812197341362
 21
216.26109839196869
  0
LINE
  8
_0-0_
  6
CONTINUOUS
 62
   56
 10
231.26812207354919
 20
215.02109838243206
 11
231.26812207354919
 21
213.7810984921046
  0
LINE
  8
_0-0_
  6
CONTINUOUS
 62
   56
 10
230.0281220640129
 20
215.02109838243206
 11
230.0281220640129
 21
213.7810984921046
  0
LINE
  8
_0-0_
  6
CONTINUOUS
 62
   56
 10
228.78812205447593
 20
216.26109839196869
 11
227.54812216414825
 21
216.26109839196869
  0
LINE
  8
_0-0_
  6
CONTINUOUS
 62
   56
 10
228.78812205447593
 20
217.50109840150566
 11
227.54812216414825
 21
217.50109840150566
  0
LINE
  8
_0-0_
  6
CONTINUOUS
 62
   56
 10
230.0281220640129
 20
218.74109841104229
 11
230.0281220640129
 21
219.98109830136974
  0
CIRCLE
  8
_0-0_
  6
CONTINUOUS
 62
   56
 10
230.64812206878105
 20
216.88109839673717
 40
5.2500000000000009
  0
ARC
  8
_0-0_
  6
CONTINUOUS
 62
   56
 10
232.50812208308594
 20
218.74109841104229
 40
1.2400000095367432
 50
180
 51
270
  0
ARC
  8
_0-0_
  6
CONTINUOUS
 62
   56
 10
232.50812208308594
 20
215.02109838243206
 40
1.2400000095367432
 50
90
 51
180
  0
ARC
  8
_0-0_
  6
CONTINUOUS
 62
   56
 10
228.78812205447593
 20
215.02109838243206
 40
1.2400000095367432
 50
0
 51
90
  0
ARC
  8
_0-0_
  6
CONTINUOUS
 62
   56
 10
228.78812205447593
 20
218.74109841104229
 40
1.2400000095367432
 50
270
 51
0
  0
CIRCLE
  8
_0-0_
  6
CONTINUOUS
 62
    7
 10
230.64812206878105
 20
216.88109839673717
 40
6.3499999999999996
  0
ARC
  8
_0-0_
  6
CONTINUOUS
 62
    7
 10
230.64812206878105
 20
216.88109839673717
 40
18
 50
128.71806561212412
 51
317.40724784703838
  0
LINE
  8
_0-1_
  6
CENTER1
 62
  152
 10
199.82322162334333
 20
216.88109839673717
 11
260.40487342279596
 21
216.88109839673717
  0
LINE
  8
_0-1_
  6
CENTER1
 62
  152
 10
230.64812206878105
 20
186.90261539260956
 11
230.64812206878105
 21
248.84512241382032
  0
ARC
  8
_0-0_
  6
CONTINUOUS
 62
   56
 10
110.03137069125148
 20
216.38109839673717
 40
14.000000000000004
 50
164.63751220703125
 51
195.36247253417969
  0
ARC
  8
_0-0_
  6
CONTINUOUS
 62
   56
 10
98.36371450800857
 20
213.17550814862926
 40
1.8999999761581421
 50
195.36247253417966
 51
257.12857806732154
  0
LINE
  8
_0-0_
  6
CONTINUOUS
 62
   56
 10
98.781370690781841
 20
211.13109839673729
 11
97.940463111797158
 21
211.3232505625993
  0
ARC
  8
_0-0_
  6
CONTINUOUS
 62
   56
 10
98.36371450800857
 20
219.58668864484508
 40
1.8999999761581421
 50
102.87142193267849
 51
164.63752746582034
  0
LINE
  8
_0-0_
  6
CONTINUOUS
 62
   56
 10
98.781370690781841
 20
221.63109839673695
 11
97.940463111797158
 21
221.43894623087493
  0
LINE
  8
_0-0_
  6
CONTINUOUS
 62
   56
 10
98.781370690781841
 20
222.73109839673697
 11
98.781370690781841
 21
210.03109839673726
  0
LINE
  8
_0-0_
  6
CONTINUOUS
 62
   56
 10
98.781370690781841
 20
210.03109839673726
 11
100.28137069078161
 21
210.03109839673726
  0
LINE
  8
_0-0_
  6
CONTINUOUS
 62
   56
 10
100.28137069078161
 20
222.73109839673697
 11
98.781370690781841
 21
222.73109839673697
  0
ARC
  8
_0-0_
  6
CONTINUOUS
 62
   56
 10
136.53137069031197
 20
216.38109839673717
 40
14.000000000000004
 50
344.63752746582031
 51
15.362487792968741
  0
ARC
  8
_0-0_
  6
CONTINUOUS
 62
   56
 10
148.19902687355466
 20
213.17550814862926
 40
1.8999999761581421
 50
282.87142193267846
 51
344.63752746582031
  0
LINE
  8
_0-0_
  6
CONTINUOUS
 62
   56
 10
147.78137069078161
 20
211.13109839673729
 11
148.6222782697663
 21
211.32325056259918
  0
ARC
  8
_0-0_
  6
CONTINUOUS
 62
   56
 10
148.19902687355466
 20
219.58668864484508
 40
1.8999999761581421
 50
15.36247253417967
 51
77.128578067321499
  0
LINE
  8
_0-0_
  6
CONTINUOUS
 62
   56
 10
147.78137069078161
 20
221.63109839673683
 11
148.6222782697663
 21
221.43894623087493
  0
LINE
  8
_0-0_
  6
CONTINUOUS
 62
   56
 10
147.78137069078161
 20
222.73109839673697
 11
147.78137069078161
 21
210.03109839673715
  0
LINE
  8
_0-0_
  6
CONTINUOUS
 62
   56
 10
147.78137069078161
 20
210.03109839673715
 11
146.28137069078173
 21
210.03109839673715
  0
LINE
  8
_0-0_
  6
CONTINUOUS
 62
   56
 10
146.28137069078173
 20
222.73109839673697
 11
147.78137069078161
 21
222.73109839673697
  0
LINE
  8
_0-1_
  6
CENTER1
 62
  152
 10
97.506573889775609
 20
216.88109839673717
 11
149.97173160492343
 21
216.88109839673717
  0
ARC
  8
_0-0_
  6
CONTINUOUS
 62
    7
 10
134.83137069078145
 20
241.02400597032556
 40
1
 50
0
 51
81.512045929208185
  0
ARC
  8
_0-0_
  6
CONTINUOUS
 62
    7
 10
123.28137069078173
 20
163.62984841837209
 40
79.251249978365095
 50
81.512045929208114
 51
98.487954070791886
  0
ARC
  8
_0-0_
  6
CONTINUOUS
 62
    7
 10
111.731370690782
 20
241.02400597032556
 40
1
 50
98.48795407079183
 51
180
  0
LINE
  8
_0-0_
  6
CONTINUOUS
 62
    7
 10
137.28137069078161
 20
243.88109839673729
 11
109.28137069078196
 21
243.88109839673729
  0
ARC
  8
_0-0_
  6
CONTINUOUS
 62
    7
 10
111.731370690782
 20
192.73819082314907
 40
1
 50
180
 51
261.51204592920817
  0
ARC
  8
_0-0_
  6
CONTINUOUS
 62
    7
 10
123.28137069078173
 20
270.13234837510242
 40
79.251249978365095
 50
261.51204592920811
 51
278.48795407079189
  0
ARC
  8
_0-0_
  6
CONTINUOUS
 62
    7
 10
134.83137069078145
 20
192.73819082314907
 40
1
 50
278.48795407079183
 51
0
  0
LINE
  8
_0-0_
  6
CONTINUOUS
 62
    7
 10
110.73137069078189
 20
241.02400597032556
 11
110.73137069078189
 21
192.73819082314907
  0
LINE
  8
_0-0_
  6
CONTINUOUS
 62
    7
 10
135.83137069078168
 20
241.02400597032556
 11
135.83137069078168
 21
192.73819082314907
  0
LINE
  8
_0-0_
  6
CONTINUOUS
 62
    7
 10
137.28137069078161
 20
201.38109839673729
 11
137.28137069078161
 21
243.88109839673729
  0
LINE
  8
_0-0_
  6
CONTINUOUS
 62
    7
 10
143.28137069078173
 20
201.38109839673729
 11
137.28137069078161
 21
201.38109839673729
  0
LINE
  8
_0-0_
  6
CONTINUOUS
 62
    7
 10
109.28137069078196
 20
201.38109839673729
 11
109.28137069078196
 21
243.88109839673729
  0
LINE
  8
_0-0_
  6
CONTINUOUS
 62
    7
 10
103.28137069078184
 20
201.38109839673729
 11
109.28137069078196
 21
201.38109839673729
  0
LINE
  8
_0-0_
  6
CONTINUOUS
 62
    7
 10
240.32389026484941
 20
212.88109839673729
 11
240.32389026484941
 21
257.4303020428876
  0
ARC
  8
_0-0_
  6
CONTINUOUS
 62
    7
 10
243.32389026484907
 20
257.4303020428876
 40
3.0000000000000009
 50
135.00000000000031
 51
180
  0
LINE
  8
_0-0_
  6
CONTINUOUS
 62
    7
 10
232.90608790175713
 20
257.13906422971303
 11
238.14812206878105
 21
262.38109839673723
  0
ARC
  8
_0-0_
  6
CONTINUOUS
 62
    7
 10
230.64812206878105
 20
216.88109839673717
 40
26.000000000000007
 50
108.30725444651557
 51
322.02012755514818
  0
LINE
  8
_0-0_
  6
CONTINUOUS
 62
    7
 10
37.67145413640867
 20
268.88109839673723
 11
173.28137069078173
 21
268.88109839673723
  0
LINE
  8
_0-0_
  6
CONTINUOUS
 62
    7
 10
30.281370690781614
 20
265.08109839673727
 11
33.745472305919293
 21
263.08109839673722
  0
LINE
  8
_0-0_
  6
CONTINUOUS
 62
    7
 10
36.805428732624478
 20
268.38109839673723
 11
33.745472305919293
 21
263.08109839673722
  0
ARC
  8
_0-0_
  6
CONTINUOUS
 62
    7
 10
37.67145413640867
 20
267.88109839673712
 40
1
 50
89.999999999999943
 51
149.99999999999994
  0
LINE
  8
_0-0_
  6
CONTINUOUS
 62
    7
 10
33.341327117486571
 20
270.38109839673712
 11
30.281370690781614
 21
265.08109839673727
  0
ARC
  8
_0-0_
  6
CONTINUOUS
 62
    7
 10
37.67145413640867
 20
267.88109839673712
 40
5
 50
90
 51
149.99999999999972
  0
LINE
  8
_0-0_
  6
CONTINUOUS
 62
    7
 10
37.67145413640867
 20
272.88109839673712
 11
173.28137069078173
 21
272.88109839673712
  0
LINE
  8
_0-0_
  6
CONTINUOUS
 62
    7
 10
173.28137069078173
 20
268.88109839673723
 11
173.28137069078173
 21
272.88109839673712
  0
ARC
  8
_0-0_
  6
CONTINUOUS
 62
    7
 10
148.10560249471371
 20
257.4303020428876
 40
3.0000000000000009
 50
0
 51
44.999999999999702
  0
LINE
  8
_0-1_
  6
CENTER1
 62
  152
 10
268.14812206878105
 20
182.15583344900784
 11
268.14812206878105
 21
285.38504454531267
  0
LINE
  8
_0-4_
  6
PHANTOM1
 62
   56
 10
245.06812206878101
 20
330.54063671845222
 11
245.06812206878101
 21
272.88109839673712
  0
LINE
  8
_0-4_
  6
PHANTOM1
 62
   56
 10
228.96812206878099
 20
330.54063671845222
 11
228.96812206878099
 21
272.88109839673712
  0
LINE
  8
_0-4_
  6
PHANTOM1
 62
   56
 10
236.16812206878103
 20
330.54063671845222
 11
236.16812206878103
 21
272.88109839673712
  0
LINE
  8
_0-4_
  6
PHANTOM1
 62
   56
 10
383.35651403008751
 20
272.88109839673712
 11
220.06812206878101
 21
272.88109839673712
  0
LINE
  8
_0-4_
  6
PHANTOM1
 62
   56
 10
220.06812206878101
 20
330.54063671845222
 11
220.06812206878101
 21
272.88109839673712
  0
LINE
  8
_0-4_
  6
PHANTOM1
 62
   56
 10
383.35651403008751
 20
297.88109839673712
 11
245.06812206878101
 21
297.88109839673712
  0
LINE
  8
_0-4_
  6
PHANTOM1
 62
   56
 10
383.35651403008751
 20
288.98109839673714
 11
245.06812206878101
 21
288.98109839673714
  0
LINE
  8
_0-4_
  6
PHANTOM1
 62
   56
 10
383.35651403008751
 20
281.78109839673709
 11
245.06812206878101
 21
281.78109839673709
  0
LINE
  8
_0-4_
  6
PHANTOM1
 62
   56
 10
146.36137069078177
 20
330.54063671845222
 11
146.36137069078177
 21
272.88109839673712
  0
LINE
  8
_0-4_
  6
PHANTOM1
 62
   56
 10
162.46137069078168
 20
330.54063671845222
 11
162.46137069078168
 21
272.88109839673712
  0
LINE
  8
_0-4_
  6
PHANTOM1
 62
   56
 10
155.26137069078163
 20
330.54063671845222
 11
155.26137069078163
 21
272.88109839673712
  0
LINE
  8
_0-4_
  6
PHANTOM1
 62
   56
 10
8.0729787294751532
 20
272.88109839673712
 11
171.36137069078165
 21
272.88109839673712
  0
LINE
  8
_0-4_
  6
PHANTOM1
 62
   56
 10
171.36137069078165
 20
330.54063671845222
 11
171.36137069078165
 21
272.88109839673712
  0
LINE
  8
_0-4_
  6
PHANTOM1
 62
   56
 10
8.0729787294751532
 20
297.88109839673712
 11
146.36137069078177
 21
297.88109839673712
  0
LINE
  8
_0-4_
  6
PHANTOM1
 62
   56
 10
8.0729787294751532
 20
288.98109839673714
 11
146.36137069078177
 21
288.98109839673714
  0
LINE
  8
_0-4_
  6
PHANTOM1
 62
   56
 10
8.0729787294751532
 20
281.78109839673709
 11
146.36137069078177
 21
281.78109839673709
  0
LINE
  8
_0-1_
  6
CENTER1
 62
  152
 10
288.14812206878094
 20
282.66944002662206
 11
288.14812206878094
 21
256.33176222041681
  0
LINE
  8
_0-1_
  6
CENTER1
 62
  152
 10
323.14812206878094
 20
282.66944002662206
 11
323.14812206878094
 21
256.33176222041681
  0
LINE
  8
_0-4_
  6
CONTINUOUS
 62
    7
 10
235.80317306878158
 20
277.54249839673707
 11
234.92950906878139
 21
277.86048839673691
  0
LINE
  8
_0-4_
  6
CONTINUOUS
 62
    7
 10
234.24546906878129
 20
277.98109839673702
 11
231.05077606878137
 21
277.98109839673702
  0
LINE
  8
_0-4_
  6
CONTINUOUS
 62
    7
 10
230.36673606878128
 20
277.86048839673691
 11
229.49307206878154
 21
277.54249839673707
  0
ARC
  8
_0-4_
  6
CONTINUOUS
 62
    7
 10
234.24546906878129
 20
275.98109839673708
 40
2
 50
69.999999999999972
 51
90
  0
ARC
  8
_0-4_
  6
CONTINUOUS
 62
    7
 10
231.05077606878137
 20
275.98109839673708
 40
2
 50
90
 51
110
  0
ARC
  8
_0-4_
  6
CONTINUOUS
 62
    7
 10
234.94812206878157
 20
275.19326839673681
 40
2.5
 50
348.17822799457855
 51
69.999999999999943
  0
LINE
  8
_0-4_
  6
CONTINUOUS
 62
    7
 10
236.21965997557379
 20
274.6810983967369
 11
237.39509609624895
 21
274.6810983967369
  0
ARC
  8
_0-4_
  6
CONTINUOUS
 62
    7
 10
230.34812206878166
 20
275.19326839673681
 40
2.5
 50
110.00000000000003
 51
191.82177200542145
  0
LINE
  8
_0-4_
  6
CONTINUOUS
 62
    7
 10
227.90114804131429
 20
274.6810983967369
 11
229.07658516198933
 21
274.6810983967369
  0
LINE
  8
_0-4_
  6
CONTINUOUS
 62
    7
 10
229.39812097557365
 20
273.48109839673702
 11
229.07658516198933
 21
274.6810983967369
  0
LINE
  8
_0-4_
  6
CONTINUOUS
 62
    7
 10
236.21965997557379
 20
274.6810983967369
 11
235.89812416198936
 21
273.48109839673702
  0
LINE
  8
_0-4_
  6
CONTINUOUS
 62
    7
 10
229.39812097557365
 20
273.48109839673702
 11
235.89812416198936
 21
273.48109839673702
  0
LINE
  8
_0-c_
  6
PHANTOM1
 62
  116
 10
244.06812206878101
 20
272.88109839673712
 11
236.4681220687811
 21
272.88109839673712
  0
LINE
  8
_0-c_
  6
PHANTOM1
 62
  116
 10
236.16812206878092
 20
273.18109839673684
 11
236.16812206878092
 21
274.38109839673712
  0
LINE
  8
_0-c_
  6
PHANTOM1
 62
  116
 10
236.46812206878087
 20
274.68109839673684
 11
238.26812206878105
 21
274.68109839673684
  0
LINE
  8
_0-c_
  6
PHANTOM1
 62
  116
 10
238.56812206878101
 20
274.98109839673697
 11
238.56812206878101
 21
277.75683432802521
  0
LINE
  8
_0-c_
  6
PHANTOM1
 62
  116
 10
238.48025410313687
 20
277.96896636238102
 11
237.45599003442487
 21
278.99323043109302
  0
LINE
  8
_0-c_
  6
PHANTOM1
 62
  116
 10
237.24385800006905
 20
279.08109839673693
 11
227.89238613749296
 21
279.08109839673693
  0
LINE
  8
_0-c_
  6
PHANTOM1
 62
  116
 10
227.68025410313692
 20
278.99323043109302
 11
226.65599003442514
 21
277.96896636238102
  0
LINE
  8
_0-c_
  6
PHANTOM1
 62
  116
 10
226.56812206878101
 20
277.75683432802521
 11
226.56812206878101
 21
274.98109839673697
  0
LINE
  8
_0-c_
  6
PHANTOM1
 62
  116
 10
226.86812206878096
 20
274.68109839673684
 11
228.66812206878092
 21
274.68109839673684
  0
LINE
  8
_0-c_
  6
PHANTOM1
 62
  116
 10
228.9681220687811
 20
274.38109839673712
 11
228.9681220687811
 21
273.18109839673684
  0
LINE
  8
_0-c_
  6
PHANTOM1
 62
  116
 10
228.66812206878092
 20
272.88109839673712
 11
221.06812206878101
 21
272.88109839673712
  0
LINE
  8
_0-c_
  6
PHANTOM1
 62
  116
 10
220.06812206878101
 20
273.88109839673712
 11
220.06812206878101
 21
281.48109839673702
  0
LINE
  8
_0-c_
  6
PHANTOM1
 62
  116
 10
220.36812206878119
 20
281.78109839673675
 11
221.56812206878101
 21
281.78109839673675
  0
LINE
  8
_0-c_
  6
PHANTOM1
 62
  116
 10
221.86812206878074
 20
281.48109839673702
 11
221.86812206878074
 21
279.68109839673679
  0
LINE
  8
_0-c_
  6
PHANTOM1
 62
  116
 10
222.16812206878092
 20
279.38109839673706
 11
224.9438580000691
 21
279.38109839673706
  0
LINE
  8
_0-c_
  6
PHANTOM1
 62
  116
 10
225.15599003442492
 20
279.46896636238102
 11
226.18025410313692
 21
280.49323043109302
  0
LINE
  8
_0-c_
  6
PHANTOM1
 62
  116
 10
226.26812206878083
 20
280.70536246544879
 11
226.26812206878083
 21
285.18109839673684
  0
LINE
  8
_0-c_
  6
PHANTOM1
 62
  116
 10
226.26812206878083
 20
285.18109839673684
 11
226.46812206878076
 21
285.38109839673706
  0
LINE
  8
_0-c_
  6
PHANTOM1
 62
  116
 10
226.46812206878076
 20
285.38109839673706
 11
226.26812206878083
 21
285.58109839673688
  0
LINE
  8
_0-c_
  6
PHANTOM1
 62
  116
 10
226.26812206878083
 20
285.58109839673688
 11
226.26812206878083
 21
290.05683432802493
  0
LINE
  8
_0-c_
  6
PHANTOM1
 62
  116
 10
226.18025410313692
 20
290.26896636238121
 11
225.15599003442492
 21
291.29323043109275
  0
LINE
  8
_0-c_
  6
PHANTOM1
 62
  116
 10
224.9438580000691
 20
291.38109839673706
 11
222.16812206878092
 21
291.38109839673706
  0
LINE
  8
_0-c_
  6
PHANTOM1
 62
  116
 10
221.86812206878074
 20
291.08109839673693
 11
221.86812206878074
 21
289.28109839673721
  0
LINE
  8
_0-c_
  6
PHANTOM1
 62
  116
 10
221.56812206878101
 20
288.98109839673702
 11
220.36812206878119
 21
288.98109839673702
  0
LINE
  8
_0-c_
  6
PHANTOM1
 62
  116
 10
220.06812206878101
 20
289.28109839673675
 11
220.06812206878101
 21
296.88109839673712
  0
LINE
  8
_0-c_
  6
PHANTOM1
 62
  116
 10
221.06812206878101
 20
297.88109839673712
 11
228.66812206878092
 21
297.88109839673712
  0
LINE
  8
_0-c_
  6
PHANTOM1
 62
  116
 10
228.9681220687811
 20
297.58109839673688
 11
228.9681220687811
 21
296.38109839673712
  0
LINE
  8
_0-c_
  6
PHANTOM1
 62
  116
 10
228.66812206878114
 20
296.08109839673739
 11
226.86812206878096
 21
296.08109839673739
  0
LINE
  8
_0-c_
  6
PHANTOM1
 62
  116
 10
226.56812206878101
 20
295.78109839673715
 11
226.56812206878101
 21
293.00536246544902
  0
LINE
  8
_0-c_
  6
PHANTOM1
 62
  116
 10
226.65599003442514
 20
292.79323043109321
 11
227.68025410313714
 21
291.76896636238121
  0
LINE
  8
_0-c_
  6
PHANTOM1
 62
  116
 10
227.89238613749296
 20
291.6810983967373
 11
237.24385800006905
 21
291.6810983967373
  0
LINE
  8
_0-c_
  6
PHANTOM1
 62
  116
 10
237.4559900344251
 20
291.76896636238121
 11
238.48025410313687
 21
292.79323043109321
  0
LINE
  8
_0-c_
  6
PHANTOM1
 62
  116
 10
238.56812206878101
 20
293.00536246544902
 11
238.56812206878101
 21
295.78109839673715
  0
LINE
  8
_0-c_
  6
PHANTOM1
 62
  116
 10
238.26812206878105
 20
296.08109839673739
 11
236.4681220687811
 21
296.08109839673739
  0
LINE
  8
_0-c_
  6
PHANTOM1
 62
  116
 10
236.16812206878092
 20
296.38109839673712
 11
236.16812206878092
 21
297.58109839673688
  0
LINE
  8
_0-c_
  6
PHANTOM1
 62
  116
 10
236.4681220687811
 20
297.88109839673712
 11
244.06812206878101
 21
297.88109839673712
  0
LINE
  8
_0-c_
  6
PHANTOM1
 62
  116
 10
245.06812206878101
 20
296.88109839673712
 11
245.06812206878101
 21
289.28109839673675
  0
LINE
  8
_0-c_
  6
PHANTOM1
 62
  116
 10
244.76812206878105
 20
288.98109839673702
 11
243.56812206878101
 21
288.98109839673702
  0
LINE
  8
_0-c_
  6
PHANTOM1
 62
  116
 10
243.26812206878128
 20
289.28109839673675
 11
243.26812206878128
 21
291.08109839673693
  0
LINE
  8
_0-c_
  6
PHANTOM1
 62
  116
 10
242.9681220687811
 20
291.38109839673706
 11
240.19238613749292
 21
291.38109839673706
  0
LINE
  8
_0-c_
  6
PHANTOM1
 62
  116
 10
239.9802541031371
 20
291.29323043109275
 11
238.9559900344251
 21
290.26896636238075
  0
LINE
  8
_0-c_
  6
PHANTOM1
 62
  116
 10
238.86812206878119
 20
290.05683432802493
 11
238.86812206878119
 21
285.58109839673688
  0
LINE
  8
_0-c_
  6
PHANTOM1
 62
  116
 10
238.86812206878119
 20
285.58109839673688
 11
238.66812206878114
 21
285.38109839673706
  0
LINE
  8
_0-c_
  6
PHANTOM1
 62
  116
 10
238.66812206878114
 20
285.38109839673706
 11
238.86812206878119
 21
285.18109839673684
  0
LINE
  8
_0-c_
  6
PHANTOM1
 62
  116
 10
238.86812206878119
 20
285.18109839673684
 11
238.86812206878119
 21
280.70536246544879
  0
LINE
  8
_0-c_
  6
PHANTOM1
 62
  116
 10
238.9559900344251
 20
280.49323043109302
 11
239.9802541031371
 21
279.46896636238102
  0
LINE
  8
_0-c_
  6
PHANTOM1
 62
  116
 10
240.19238613749292
 20
279.38109839673706
 11
242.9681220687811
 21
279.38109839673706
  0
LINE
  8
_0-c_
  6
PHANTOM1
 62
  116
 10
243.26812206878128
 20
279.68109839673679
 11
243.26812206878128
 21
281.48109839673702
  0
LINE
  8
_0-c_
  6
PHANTOM1
 62
  116
 10
243.56812206878101
 20
281.78109839673675
 11
244.76812206878105
 21
281.78109839673675
  0
LINE
  8
_0-c_
  6
PHANTOM1
 62
  116
 10
245.06812206878101
 20
281.48109839673702
 11
245.06812206878101
 21
273.88109839673712
  0
LINE
  8
_0-c_
  6
PHANTOM1
 62
  116
 10
227.99047635525028
 20
288.22344253389042
 11
229.04576778231183
 21
287.94067804822976
  0
LINE
  8
_0-c_
  6
PHANTOM1
 62
  116
 10
229.26812206878105
 20
287.65090030034321
 11
229.26812206878105
 21
283.11129649313051
  0
LINE
  8
_0-c_
  6
PHANTOM1
 62
  116
 10
229.04576778231183
 20
282.82151874524402
 11
227.99047635525028
 21
282.5387542595833
  0
LINE
  8
_0-c_
  6
PHANTOM1
 62
  116
 10
227.76812206878105
 20
282.2489765116963
 11
227.76812206878105
 21
280.78109839673675
  0
LINE
  8
_0-c_
  6
PHANTOM1
 62
  116
 10
228.06812206878101
 20
280.48109839673702
 11
237.06812206878101
 21
280.48109839673702
  0
LINE
  8
_0-c_
  6
PHANTOM1
 62
  116
 10
237.36812206878119
 20
280.78109839673675
 11
237.36812206878119
 21
282.2489765116963
  0
LINE
  8
_0-c_
  6
PHANTOM1
 62
  116
 10
237.14576778231174
 20
282.5387542595833
 11
236.09047635525019
 21
282.82151874524402
  0
LINE
  8
_0-c_
  6
PHANTOM1
 62
  116
 10
235.86812206878119
 20
283.11129649313051
 11
235.86812206878119
 21
287.65090030034321
  0
LINE
  8
_0-c_
  6
PHANTOM1
 62
  116
 10
236.09047635525019
 20
287.94067804822976
 11
237.14576778231174
 21
288.22344253389042
  0
LINE
  8
_0-c_
  6
PHANTOM1
 62
  116
 10
237.36812206878119
 20
288.51322028177742
 11
237.36812206878119
 21
289.98109839673697
  0
LINE
  8
_0-c_
  6
PHANTOM1
 62
  116
 10
237.06812206878101
 20
290.2810983967367
 11
228.06812206878101
 21
290.2810983967367
  0
LINE
  8
_0-c_
  6
PHANTOM1
 62
  116
 10
227.76812206878105
 20
289.98109839673697
 11
227.76812206878105
 21
288.51322028177742
  0
ARC
  8
_0-c_
  6
PHANTOM1
 62
  116
 10
221.06812206878101
 20
273.88109839673712
 40
1
 50
180
 51
270
  0
ARC
  8
_0-c_
  6
PHANTOM1
 62
  116
 10
221.06812206878101
 20
296.88109839673712
 40
1
 50
90
 51
180.00000000000003
  0
ARC
  8
_0-c_
  6
PHANTOM1
 62
  116
 10
244.06812206878101
 20
296.88109839673712
 40
1
 50
0
 51
90
  0
ARC
  8
_0-c_
  6
PHANTOM1
 62
  116
 10
244.06812206878101
 20
273.88109839673712
 40
1
 50
270
 51
0
  0
ARC
  8
_0-c_
  6
PHANTOM1
 62
  116
 10
220.36812206878119
 20
281.48109839673702
 40
0.2999999999999998
 50
90
 51
180.00000000000003
  0
ARC
  8
_0-c_
  6
PHANTOM1
 62
  116
 10
220.36812206878119
 20
289.28109839673675
 40
0.2999999999999998
 50
180
 51
270
  0
ARC
  8
_0-c_
  6
PHANTOM1
 62
  116
 10
228.66812206878092
 20
273.18109839673684
 40
0.2999999999999998
 50
270
 51
0
  0
ARC
  8
_0-c_
  6
PHANTOM1
 62
  116
 10
236.4681220687811
 20
273.18109839673684
 40
0.2999999999999998
 50
180
 51
270
  0
ARC
  8
_0-c_
  6
PHANTOM1
 62
  116
 10
228.66812206878092
 20
297.58109839673688
 40
0.2999999999999998
 50
0
 51
90
  0
ARC
  8
_0-c_
  6
PHANTOM1
 62
  116
 10
236.4681220687811
 20
297.58109839673688
 40
0.2999999999999998
 50
90
 51
180.00000000000003
  0
ARC
  8
_0-c_
  6
PHANTOM1
 62
  116
 10
244.76812206878105
 20
289.28109839673675
 40
0.2999999999999998
 50
270
 51
0
  0
ARC
  8
_0-c_
  6
PHANTOM1
 62
  116
 10
244.76812206878105
 20
281.48109839673702
 40
0.2999999999999998
 50
0
 51
90
  0
ARC
  8
_0-c_
  6
PHANTOM1
 62
  116
 10
228.06812206878101
 20
280.78109839673675
 40
0.2999999999999998
 50
180
 51
270
  0
ARC
  8
_0-c_
  6
PHANTOM1
 62
  116
 10
228.06812206878101
 20
282.2489765116963
 40
0.2999999999999998
 50
104.99999999999999
 51
180
  0
ARC
  8
_0-c_
  6
PHANTOM1
 62
  116
 10
228.9681220687811
 20
283.11129649313051
 40
0.2999999999999998
 50
285.00000000000023
 51
0.0000000000000127
  0
ARC
  8
_0-c_
  6
PHANTOM1
 62
  116
 10
228.9681220687811
 20
287.65090030034321
 40
0.2999999999999998
 50
0
 51
75
  0
ARC
  8
_0-c_
  6
PHANTOM1
 62
  116
 10
228.06812206878101
 20
288.51322028177742
 40
0.2999999999999998
 50
180
 51
254.9999999999998
  0
ARC
  8
_0-c_
  6
PHANTOM1
 62
  116
 10
228.06812206878101
 20
289.98109839673697
 40
0.2999999999999998
 50
90
 51
180.00000000000003
  0
ARC
  8
_0-c_
  6
PHANTOM1
 62
  116
 10
237.06812206878101
 20
289.98109839673697
 40
0.2999999999999998
 50
0
 51
90
  0
ARC
  8
_0-c_
  6
PHANTOM1
 62
  116
 10
237.06812206878101
 20
288.51322028177742
 40
0.2999999999999998
 50
284.99999999999994
 51
0.0000000000000127
  0
ARC
  8
_0-c_
  6
PHANTOM1
 62
  116
 10
236.16812206878092
 20
287.65090030034321
 40
0.2999999999999998
 50
105.00000000000018
 51
180.00000000000006
  0
ARC
  8
_0-c_
  6
PHANTOM1
 62
  116
 10
236.16812206878092
 20
283.11129649313051
 40
0.2999999999999998
 50
180
 51
255.00000000000003
  0
ARC
  8
_0-c_
  6
PHANTOM1
 62
  116
 10
237.06812206878101
 20
282.2489765116963
 40
0.2999999999999998
 50
0
 51
74.999999999999829
  0
ARC
  8
_0-c_
  6
PHANTOM1
 62
  116
 10
237.06812206878101
 20
280.78109839673675
 40
0.2999999999999998
 50
270
 51
0
  0
ARC
  8
_0-c_
  6
PHANTOM1
 62
  116
 10
243.56812206878101
 20
289.28109839673675
 40
0.2999999999999998
 50
180
 51
270
  0
ARC
  8
_0-c_
  6
PHANTOM1
 62
  116
 10
242.9681220687811
 20
291.08109839673693
 40
0.2999999999999998
 50
0
 51
90
  0
ARC
  8
_0-c_
  6
PHANTOM1
 62
  116
 10
240.19238613749292
 20
291.08109839673693
 40
0.2999999999999998
 50
90
 51
135
  0
ARC
  8
_0-c_
  6
PHANTOM1
 62
  116
 10
239.16812206878137
 20
290.05683432802493
 40
0.2999999999999998
 50
135.00000000000037
 51
180
  0
ARC
  8
_0-c_
  6
PHANTOM1
 62
  116
 10
240.19238613749292
 20
279.68109839673679
 40
0.2999999999999998
 50
224.99999999999963
 51
270.00000000000006
  0
ARC
  8
_0-c_
  6
PHANTOM1
 62
  116
 10
242.9681220687811
 20
279.68109839673679
 40
0.2999999999999998
 50
270
 51
0
  0
ARC
  8
_0-c_
  6
PHANTOM1
 62
  116
 10
243.56812206878101
 20
281.48109839673702
 40
0.2999999999999998
 50
90
 51
180
  0
ARC
  8
_0-c_
  6
PHANTOM1
 62
  116
 10
239.16812206878137
 20
280.70536246544879
 40
0.2999999999999998
 50
180
 51
225
  0
ARC
  8
_0-c_
  6
PHANTOM1
 62
  116
 10
228.66812206878114
 20
296.38109839673712
 40
0.2999999999999998
 50
270
 51
0
  0
ARC
  8
_0-c_
  6
PHANTOM1
 62
  116
 10
226.86812206878096
 20
295.78109839673715
 40
0.2999999999999998
 50
90
 51
180
  0
ARC
  8
_0-c_
  6
PHANTOM1
 62
  116
 10
226.86812206878096
 20
293.00536246544902
 40
0.2999999999999998
 50
180
 51
225
  0
ARC
  8
_0-c_
  6
PHANTOM1
 62
  116
 10
227.89238613749296
 20
291.98109839673748
 40
0.2999999999999998
 50
225.00000000000037
 51
270
  0
ARC
  8
_0-c_
  6
PHANTOM1
 62
  116
 10
238.26812206878105
 20
293.00536246544902
 40
0.2999999999999998
 50
314.99999999999966
 51
0.000000000000019
  0
ARC
  8
_0-c_
  6
PHANTOM1
 62
  116
 10
238.26812206878105
 20
295.78109839673715
 40
0.2999999999999998
 50
0
 51
90
  0
ARC
  8
_0-c_
  6
PHANTOM1
 62
  116
 10
236.4681220687811
 20
296.38109839673712
 40
0.2999999999999998
 50
180
 51
270
  0
ARC
  8
_0-c_
  6
PHANTOM1
 62
  116
 10
237.24385800006905
 20
291.98109839673748
 40
0.2999999999999998
 50
270
 51
315
  0
ARC
  8
_0-c_
  6
PHANTOM1
 62
  116
 10
221.56812206878101
 20
281.48109839673702
 40
0.2999999999999998
 50
0
 51
90
  0
ARC
  8
_0-c_
  6
PHANTOM1
 62
  116
 10
222.16812206878092
 20
279.68109839673679
 40
0.2999999999999998
 50
180
 51
270
  0
ARC
  8
_0-c_
  6
PHANTOM1
 62
  116
 10
224.9438580000691
 20
279.68109839673679
 40
0.2999999999999998
 50
270
 51
315
  0
ARC
  8
_0-c_
  6
PHANTOM1
 62
  116
 10
225.96812206878064
 20
280.70536246544879
 40
0.2999999999999998
 50
315.00000000000034
 51
0.0000000000000127
  0
ARC
  8
_0-c_
  6
PHANTOM1
 62
  116
 10
224.9438580000691
 20
291.08109839673693
 40
0.2999999999999998
 50
44.999999999999645
 51
89.999999999999986
  0
ARC
  8
_0-c_
  6
PHANTOM1
 62
  116
 10
222.16812206878092
 20
291.08109839673693
 40
0.2999999999999998
 50
90
 51
180
  0
ARC
  8
_0-c_
  6
PHANTOM1
 62
  116
 10
221.56812206878101
 20
289.28109839673721
 40
0.2999999999999998
 50
270
 51
0
  0
ARC
  8
_0-c_
  6
PHANTOM1
 62
  116
 10
225.96812206878064
 20
290.05683432802493
 40
0.2999999999999998
 50
0
 51
45
  0
ARC
  8
_0-c_
  6
PHANTOM1
 62
  116
 10
236.46812206878087
 20
274.38109839673712
 40
0.2999999999999998
 50
90
 51
180
  0
ARC
  8
_0-c_
  6
PHANTOM1
 62
  116
 10
238.26812206878105
 20
274.98109839673697
 40
0.2999999999999998
 50
270
 51
0
  0
ARC
  8
_0-c_
  6
PHANTOM1
 62
  116
 10
238.26812206878105
 20
277.75683432802521
 40
0.2999999999999998
 50
0
 51
45
  0
ARC
  8
_0-c_
  6
PHANTOM1
 62
  116
 10
237.24385800006905
 20
278.78109839673675
 40
0.2999999999999998
 50
45.000000000000405
 51
90.000000000000014
  0
ARC
  8
_0-c_
  6
PHANTOM1
 62
  116
 10
226.86812206878096
 20
277.75683432802521
 40
0.2999999999999998
 50
134.99999999999963
 51
180.00000000000003
  0
ARC
  8
_0-c_
  6
PHANTOM1
 62
  116
 10
226.86812206878096
 20
274.98109839673697
 40
0.2999999999999998
 50
180
 51
270
  0
ARC
  8
_0-c_
  6
PHANTOM1
 62
  116
 10
228.66812206878092
 20
274.38109839673712
 40
0.2999999999999998
 50
0
 51
90
  0
ARC
  8
_0-c_
  6
PHANTOM1
 62
  116
 10
227.89238613749296
 20
278.78109839673675
 40
0.2999999999999998
 50
90
 51
135
  0
CIRCLE
  8
_0-c_
  6
PHANTOM1
 62
  116
 10
223.31812206878101
 20
276.13109839673712
 40
2.0999999999999996
  0
CIRCLE
  8
_0-c_
  6
PHANTOM1
 62
  116
 10
223.31812206878101
 20
294.63109839673712
 40
2.0999999999999996
  0
CIRCLE
  8
_0-c_
  6
PHANTOM1
 62
  116
 10
241.81812206878101
 20
294.63109839673712
 40
2.0999999999999996
  0
CIRCLE
  8
_0-c_
  6
PHANTOM1
 62
  116
 10
241.81812206878101
 20
276.13109839673712
 40
2.0999999999999996
  0
CIRCLE
  8
_0-4_
  6
CONTINUOUS
 62
   56
 10
288.77312206878094
 20
391.7020937622159
 40
4.25
  0
CIRCLE
  8
_0-4_
  6
CONTINUOUS
 62
   56
 10
288.77312206878094
 20
391.7020937622159
 40
2.5
  0
LINE
  8
_0-c_
  6
PHANTOM1
 62
  116
 10
170.36137069078177
 20
272.88109839673712
 11
162.76137069078186
 21
272.88109839673712
  0
LINE
  8
_0-c_
  6
PHANTOM1
 62
  116
 10
162.46137069078156
 20
273.18109839673684
 11
162.46137069078156
 21
274.38109839673712
  0
LINE
  8
_0-c_
  6
PHANTOM1
 62
  116
 10
162.76137069078152
 20
274.68109839673684
 11
164.5613706907817
 21
274.68109839673684
  0
LINE
  8
_0-c_
  6
PHANTOM1
 62
  116
 10
164.86137069078165
 20
274.98109839673697
 11
164.86137069078165
 21
277.75683432802521
  0
LINE
  8
_0-c_
  6
PHANTOM1
 62
  116
 10
164.77350272513752
 20
277.96896636238102
 11
163.74923865642552
 21
278.99323043109302
  0
LINE
  8
_0-c_
  6
PHANTOM1
 62
  116
 10
163.5371066220697
 20
279.08109839673693
 11
154.18563475949372
 21
279.08109839673693
  0
LINE
  8
_0-c_
  6
PHANTOM1
 62
  116
 10
153.97350272513756
 20
278.99323043109302
 11
152.94923865642579
 21
277.96896636238102
  0
LINE
  8
_0-c_
  6
PHANTOM1
 62
  116
 10
152.86137069078165
 20
277.75683432802521
 11
152.86137069078165
 21
274.98109839673697
  0
LINE
  8
_0-c_
  6
PHANTOM1
 62
  116
 10
153.16137069078172
 20
274.68109839673684
 11
154.96137069078156
 21
274.68109839673684
  0
LINE
  8
_0-c_
  6
PHANTOM1
 62
  116
 10
155.26137069078186
 20
274.38109839673712
 11
155.26137069078186
 21
273.18109839673684
  0
LINE
  8
_0-c_
  6
PHANTOM1
 62
  116
 10
154.96137069078156
 20
272.88109839673712
 11
147.36137069078165
 21
272.88109839673712
  0
LINE
  8
_0-c_
  6
PHANTOM1
 62
  116
 10
146.36137069078177
 20
273.88109839673712
 11
146.36137069078177
 21
281.48109839673702
  0
LINE
  8
_0-c_
  6
PHANTOM1
 62
  116
 10
146.66137069078184
 20
281.78109839673675
 11
147.86137069078177
 21
281.78109839673675
  0
LINE
  8
_0-c_
  6
PHANTOM1
 62
  116
 10
148.1613706907815
 20
281.48109839673702
 11
148.1613706907815
 21
279.68109839673679
  0
LINE
  8
_0-c_
  6
PHANTOM1
 62
  116
 10
148.46137069078156
 20
279.38109839673706
 11
151.23710662206986
 21
279.38109839673706
  0
LINE
  8
_0-c_
  6
PHANTOM1
 62
  116
 10
151.44923865642556
 20
279.46896636238102
 11
152.47350272513756
 21
280.49323043109302
  0
LINE
  8
_0-c_
  6
PHANTOM1
 62
  116
 10
152.56137069078159
 20
280.70536246544879
 11
152.56137069078159
 21
285.18109839673684
  0
LINE
  8
_0-c_
  6
PHANTOM1
 62
  116
 10
152.56137069078159
 20
285.18109839673684
 11
152.7613706907814
 21
285.38109839673706
  0
LINE
  8
_0-c_
  6
PHANTOM1
 62
  116
 10
152.7613706907814
 20
285.38109839673706
 11
152.56137069078159
 21
285.58109839673688
  0
LINE
  8
_0-c_
  6
PHANTOM1
 62
  116
 10
152.56137069078159
 20
285.58109839673688
 11
152.56137069078159
 21
290.05683432802493
  0
LINE
  8
_0-c_
  6
PHANTOM1
 62
  116
 10
152.47350272513756
 20
290.26896636238121
 11
151.44923865642556
 21
291.29323043109275
  0
LINE
  8
_0-c_
  6
PHANTOM1
 62
  116
 10
151.23710662206986
 20
291.38109839673706
 11
148.46137069078156
 21
291.38109839673706
  0
LINE
  8
_0-c_
  6
PHANTOM1
 62
  116
 10
148.1613706907815
 20
291.08109839673693
 11
148.1613706907815
 21
289.28109839673721
  0
LINE
  8
_0-c_
  6
PHANTOM1
 62
  116
 10
147.86137069078177
 20
288.98109839673702
 11
146.66137069078184
 21
288.98109839673702
  0
LINE
  8
_0-c_
  6
PHANTOM1
 62
  116
 10
146.36137069078177
 20
289.28109839673675
 11
146.36137069078177
 21
296.88109839673712
  0
LINE
  8
_0-c_
  6
PHANTOM1
 62
  116
 10
147.36137069078165
 20
297.88109839673712
 11
154.96137069078156
 21
297.88109839673712
  0
LINE
  8
_0-c_
  6
PHANTOM1
 62
  116
 10
155.26137069078186
 20
297.58109839673688
 11
155.26137069078186
 21
296.38109839673712
  0
LINE
  8
_0-c_
  6
PHANTOM1
 62
  116
 10
154.96137069078179
 20
296.08109839673739
 11
153.16137069078172
 21
296.08109839673739
  0
LINE
  8
_0-c_
  6
PHANTOM1
 62
  116
 10
152.86137069078165
 20
295.78109839673715
 11
152.86137069078165
 21
293.00536246544902
  0
LINE
  8
_0-c_
  6
PHANTOM1
 62
  116
 10
152.94923865642579
 20
292.79323043109321
 11
153.97350272513779
 21
291.76896636238121
  0
LINE
  8
_0-c_
  6
PHANTOM1
 62
  116
 10
154.18563475949372
 20
291.6810983967373
 11
163.5371066220697
 21
291.6810983967373
  0
LINE
  8
_0-c_
  6
PHANTOM1
 62
  116
 10
163.74923865642586
 20
291.76896636238121
 11
164.77350272513752
 21
292.79323043109321
  0
LINE
  8
_0-c_
  6
PHANTOM1
 62
  116
 10
164.86137069078165
 20
293.00536246544902
 11
164.86137069078165
 21
295.78109839673715
  0
LINE
  8
_0-c_
  6
PHANTOM1
 62
  116
 10
164.5613706907817
 20
296.08109839673739
 11
162.76137069078186
 21
296.08109839673739
  0
LINE
  8
_0-c_
  6
PHANTOM1
 62
  116
 10
162.46137069078156
 20
296.38109839673712
 11
162.46137069078156
 21
297.58109839673688
  0
LINE
  8
_0-c_
  6
PHANTOM1
 62
  116
 10
162.76137069078186
 20
297.88109839673712
 11
170.36137069078177
 21
297.88109839673712
  0
LINE
  8
_0-c_
  6
PHANTOM1
 62
  116
 10
171.36137069078165
 20
296.88109839673712
 11
171.36137069078165
 21
289.28109839673675
  0
LINE
  8
_0-c_
  6
PHANTOM1
 62
  116
 10
171.06137069078181
 20
288.98109839673702
 11
169.86137069078165
 21
288.98109839673702
  0
LINE
  8
_0-c_
  6
PHANTOM1
 62
  116
 10
169.56137069078193
 20
289.28109839673675
 11
169.56137069078193
 21
291.08109839673693
  0
LINE
  8
_0-c_
  6
PHANTOM1
 62
  116
 10
169.26137069078175
 20
291.38109839673706
 11
166.48563475949356
 21
291.38109839673706
  0
LINE
  8
_0-c_
  6
PHANTOM1
 62
  116
 10
166.27350272513786
 20
291.29323043109275
 11
165.24923865642586
 21
290.26896636238075
  0
LINE
  8
_0-c_
  6
PHANTOM1
 62
  116
 10
165.16137069078184
 20
290.05683432802493
 11
165.16137069078184
 21
285.58109839673688
  0
LINE
  8
_0-c_
  6
PHANTOM1
 62
  116
 10
165.16137069078184
 20
285.58109839673688
 11
164.96137069078191
 21
285.38109839673706
  0
LINE
  8
_0-c_
  6
PHANTOM1
 62
  116
 10
164.96137069078191
 20
285.38109839673706
 11
165.16137069078184
 21
285.18109839673684
  0
LINE
  8
_0-c_
  6
PHANTOM1
 62
  116
 10
165.16137069078184
 20
285.18109839673684
 11
165.16137069078184
 21
280.70536246544879
  0
LINE
  8
_0-c_
  6
PHANTOM1
 62
  116
 10
165.24923865642586
 20
280.49323043109302
 11
166.27350272513786
 21
279.46896636238102
  0
LINE
  8
_0-c_
  6
PHANTOM1
 62
  116
 10
166.48563475949356
 20
279.38109839673706
 11
169.26137069078175
 21
279.38109839673706
  0
LINE
  8
_0-c_
  6
PHANTOM1
 62
  116
 10
169.56137069078193
 20
279.68109839673679
 11
169.56137069078193
 21
281.48109839673702
  0
LINE
  8
_0-c_
  6
PHANTOM1
 62
  116
 10
169.86137069078165
 20
281.78109839673675
 11
171.06137069078181
 21
281.78109839673675
  0
LINE
  8
_0-c_
  6
PHANTOM1
 62
  116
 10
171.36137069078165
 20
281.48109839673702
 11
171.36137069078165
 21
273.88109839673712
  0
LINE
  8
_0-c_
  6
PHANTOM1
 62
  116
 10
154.28372497725093
 20
288.22344253389042
 11
155.33901640431259
 21
287.94067804822976
  0
LINE
  8
_0-c_
  6
PHANTOM1
 62
  116
 10
155.5613706907817
 20
287.65090030034321
 11
155.5613706907817
 21
283.11129649313051
  0
LINE
  8
_0-c_
  6
PHANTOM1
 62
  116
 10
155.33901640431259
 20
282.82151874524402
 11
154.28372497725093
 21
282.5387542595833
  0
LINE
  8
_0-c_
  6
PHANTOM1
 62
  116
 10
154.0613706907817
 20
282.2489765116963
 11
154.0613706907817
 21
280.78109839673675
  0
LINE
  8
_0-c_
  6
PHANTOM1
 62
  116
 10
154.36137069078165
 20
280.48109839673702
 11
163.36137069078165
 21
280.48109839673702
  0
LINE
  8
_0-c_
  6
PHANTOM1
 62
  116
 10
163.66137069078184
 20
280.78109839673675
 11
163.66137069078184
 21
282.2489765116963
  0
LINE
  8
_0-c_
  6
PHANTOM1
 62
  116
 10
163.43901640431238
 20
282.5387542595833
 11
162.38372497725084
 21
282.82151874524402
  0
LINE
  8
_0-c_
  6
PHANTOM1
 62
  116
 10
162.16137069078184
 20
283.11129649313051
 11
162.16137069078184
 21
287.65090030034321
  0
LINE
  8
_0-c_
  6
PHANTOM1
 62
  116
 10
162.38372497725084
 20
287.94067804822976
 11
163.43901640431238
 21
288.22344253389042
  0
LINE
  8
_0-c_
  6
PHANTOM1
 62
  116
 10
163.66137069078184
 20
288.51322028177742
 11
163.66137069078184
 21
289.98109839673697
  0
LINE
  8
_0-c_
  6
PHANTOM1
 62
  116
 10
163.36137069078165
 20
290.2810983967367
 11
154.36137069078165
 21
290.2810983967367
  0
LINE
  8
_0-c_
  6
PHANTOM1
 62
  116
 10
154.0613706907817
 20
289.98109839673697
 11
154.0613706907817
 21
288.51322028177742
  0
ARC
  8
_0-c_
  6
PHANTOM1
 62
  116
 10
147.36137069078165
 20
273.88109839673712
 40
1
 50
180
 51
270
  0
ARC
  8
_0-c_
  6
PHANTOM1
 62
  116
 10
147.36137069078165
 20
296.88109839673712
 40
1
 50
90
 51
180.00000000000003
  0
ARC
  8
_0-c_
  6
PHANTOM1
 62
  116
 10
170.36137069078177
 20
296.88109839673712
 40
1
 50
0
 51
90
  0
ARC
  8
_0-c_
  6
PHANTOM1
 62
  116
 10
170.36137069078177
 20
273.88109839673712
 40
1
 50
270
 51
0
  0
ARC
  8
_0-c_
  6
PHANTOM1
 62
  116
 10
146.66137069078184
 20
281.48109839673702
 40
0.2999999999999998
 50
90
 51
180.00000000000003
  0
ARC
  8
_0-c_
  6
PHANTOM1
 62
  116
 10
146.66137069078184
 20
289.28109839673675
 40
0.2999999999999998
 50
180
 51
270
  0
ARC
  8
_0-c_
  6
PHANTOM1
 62
  116
 10
154.96137069078156
 20
273.18109839673684
 40
0.2999999999999998
 50
270
 51
0
  0
ARC
  8
_0-c_
  6
PHANTOM1
 62
  116
 10
162.76137069078186
 20
273.18109839673684
 40
0.2999999999999998
 50
180
 51
270
  0
ARC
  8
_0-c_
  6
PHANTOM1
 62
  116
 10
154.96137069078156
 20
297.58109839673688
 40
0.2999999999999998
 50
0
 51
90
  0
ARC
  8
_0-c_
  6
PHANTOM1
 62
  116
 10
162.76137069078186
 20
297.58109839673688
 40
0.2999999999999998
 50
90
 51
180.00000000000003
  0
ARC
  8
_0-c_
  6
PHANTOM1
 62
  116
 10
171.06137069078181
 20
289.28109839673675
 40
0.2999999999999998
 50
270
 51
0
  0
ARC
  8
_0-c_
  6
PHANTOM1
 62
  116
 10
171.06137069078181
 20
281.48109839673702
 40
0.2999999999999998
 50
0
 51
90
  0
ARC
  8
_0-c_
  6
PHANTOM1
 62
  116
 10
154.36137069078165
 20
280.78109839673675
 40
0.2999999999999998
 50
180
 51
270
  0
ARC
  8
_0-c_
  6
PHANTOM1
 62
  116
 10
154.36137069078165
 20
282.2489765116963
 40
0.2999999999999998
 50
104.99999999999999
 51
180
  0
ARC
  8
_0-c_
  6
PHANTOM1
 62
  116
 10
155.26137069078186
 20
283.11129649313051
 40
0.2999999999999998
 50
285.00000000000023
 51
0.0000000000000127
  0
ARC
  8
_0-c_
  6
PHANTOM1
 62
  116
 10
155.26137069078186
 20
287.65090030034321
 40
0.2999999999999998
 50
0
 51
75
  0
ARC
  8
_0-c_
  6
PHANTOM1
 62
  116
 10
154.36137069078165
 20
288.51322028177742
 40
0.2999999999999998
 50
180
 51
254.9999999999998
  0
ARC
  8
_0-c_
  6
PHANTOM1
 62
  116
 10
154.36137069078165
 20
289.98109839673697
 40
0.2999999999999998
 50
90
 51
180.00000000000003
  0
ARC
  8
_0-c_
  6
PHANTOM1
 62
  116
 10
163.36137069078165
 20
289.98109839673697
 40
0.2999999999999998
 50
0
 51
90
  0
ARC
  8
_0-c_
  6
PHANTOM1
 62
  116
 10
163.36137069078165
 20
288.51322028177742
 40
0.2999999999999998
 50
284.99999999999994
 51
0.0000000000000127
  0
ARC
  8
_0-c_
  6
PHANTOM1
 62
  116
 10
162.46137069078156
 20
287.65090030034321
 40
0.2999999999999998
 50
105.00000000000018
 51
180.00000000000006
  0
ARC
  8
_0-c_
  6
PHANTOM1
 62
  116
 10
162.46137069078156
 20
283.11129649313051
 40
0.2999999999999998
 50
180
 51
255.00000000000003
  0
ARC
  8
_0-c_
  6
PHANTOM1
 62
  116
 10
163.36137069078165
 20
282.2489765116963
 40
0.2999999999999998
 50
0
 51
74.999999999999829
  0
ARC
  8
_0-c_
  6
PHANTOM1
 62
  116
 10
163.36137069078165
 20
280.78109839673675
 40
0.2999999999999998
 50
270
 51
0
  0
ARC
  8
_0-c_
  6
PHANTOM1
 62
  116
 10
169.86137069078165
 20
289.28109839673675
 40
0.2999999999999998
 50
180
 51
270
  0
ARC
  8
_0-c_
  6
PHANTOM1
 62
  116
 10
169.26137069078175
 20
291.08109839673693
 40
0.2999999999999998
 50
0
 51
90
  0
ARC
  8
_0-c_
  6
PHANTOM1
 62
  116
 10
166.48563475949356
 20
291.08109839673693
 40
0.2999999999999998
 50
90
 51
135
  0
ARC
  8
_0-c_
  6
PHANTOM1
 62
  116
 10
165.46137069078213
 20
290.05683432802493
 40
0.2999999999999998
 50
135.00000000000037
 51
180
  0
ARC
  8
_0-c_
  6
PHANTOM1
 62
  116
 10
166.48563475949356
 20
279.68109839673679
 40
0.2999999999999998
 50
224.99999999999963
 51
270.00000000000006
  0
ARC
  8
_0-c_
  6
PHANTOM1
 62
  116
 10
169.26137069078175
 20
279.68109839673679
 40
0.2999999999999998
 50
270
 51
0
  0
ARC
  8
_0-c_
  6
PHANTOM1
 62
  116
 10
169.86137069078165
 20
281.48109839673702
 40
0.2999999999999998
 50
90
 51
180
  0
ARC
  8
_0-c_
  6
PHANTOM1
 62
  116
 10
165.46137069078213
 20
280.70536246544879
 40
0.2999999999999998
 50
180
 51
225
  0
ARC
  8
_0-c_
  6
PHANTOM1
 62
  116
 10
154.96137069078179
 20
296.38109839673712
 40
0.2999999999999998
 50
270
 51
0
  0
ARC
  8
_0-c_
  6
PHANTOM1
 62
  116
 10
153.16137069078172
 20
295.78109839673715
 40
0.2999999999999998
 50
90
 51
180
  0
ARC
  8
_0-c_
  6
PHANTOM1
 62
  116
 10
153.16137069078172
 20
293.00536246544902
 40
0.2999999999999998
 50
180
 51
225
  0
ARC
  8
_0-c_
  6
PHANTOM1
 62
  116
 10
154.18563475949372
 20
291.98109839673748
 40
0.2999999999999998
 50
225.00000000000037
 51
270
  0
ARC
  8
_0-c_
  6
PHANTOM1
 62
  116
 10
164.5613706907817
 20
293.00536246544902
 40
0.2999999999999998
 50
314.99999999999966
 51
0.000000000000019
  0
ARC
  8
_0-c_
  6
PHANTOM1
 62
  116
 10
164.5613706907817
 20
295.78109839673715
 40
0.2999999999999998
 50
0
 51
90
  0
ARC
  8
_0-c_
  6
PHANTOM1
 62
  116
 10
162.76137069078186
 20
296.38109839673712
 40
0.2999999999999998
 50
180
 51
270
  0
ARC
  8
_0-c_
  6
PHANTOM1
 62
  116
 10
163.5371066220697
 20
291.98109839673748
 40
0.2999999999999998
 50
270
 51
315
  0
ARC
  8
_0-c_
  6
PHANTOM1
 62
  116
 10
147.86137069078177
 20
281.48109839673702
 40
0.2999999999999998
 50
0
 51
90
  0
ARC
  8
_0-c_
  6
PHANTOM1
 62
  116
 10
148.46137069078156
 20
279.68109839673679
 40
0.2999999999999998
 50
180
 51
270
  0
ARC
  8
_0-c_
  6
PHANTOM1
 62
  116
 10
151.23710662206986
 20
279.68109839673679
 40
0.2999999999999998
 50
270
 51
315
  0
ARC
  8
_0-c_
  6
PHANTOM1
 62
  116
 10
152.26137069078129
 20
280.70536246544879
 40
0.2999999999999998
 50
315.00000000000034
 51
0.0000000000000127
  0
ARC
  8
_0-c_
  6
PHANTOM1
 62
  116
 10
151.23710662206986
 20
291.08109839673693
 40
0.2999999999999998
 50
44.999999999999645
 51
89.999999999999986
  0
ARC
  8
_0-c_
  6
PHANTOM1
 62
  116
 10
148.46137069078156
 20
291.08109839673693
 40
0.2999999999999998
 50
90
 51
180
  0
ARC
  8
_0-c_
  6
PHANTOM1
 62
  116
 10
147.86137069078177
 20
289.28109839673721
 40
0.2999999999999998
 50
270
 51
0
  0
ARC
  8
_0-c_
  6
PHANTOM1
 62
  116
 10
152.26137069078129
 20
290.05683432802493
 40
0.2999999999999998
 50
0
 51
45
  0
ARC
  8
_0-c_
  6
PHANTOM1
 62
  116
 10
162.76137069078152
 20
274.38109839673712
 40
0.2999999999999998
 50
90
 51
180
  0
ARC
  8
_0-c_
  6
PHANTOM1
 62
  116
 10
164.5613706907817
 20
274.98109839673697
 40
0.2999999999999998
 50
270
 51
0
  0
ARC
  8
_0-c_
  6
PHANTOM1
 62
  116
 10
164.5613706907817
 20
277.75683432802521
 40
0.2999999999999998
 50
0
 51
45
  0
ARC
  8
_0-c_
  6
PHANTOM1
 62
  116
 10
163.5371066220697
 20
278.78109839673675
 40
0.2999999999999998
 50
45.000000000000405
 51
90.000000000000014
  0
ARC
  8
_0-c_
  6
PHANTOM1
 62
  116
 10
153.16137069078172
 20
277.75683432802521
 40
0.2999999999999998
 50
134.99999999999963
 51
180.00000000000003
  0
ARC
  8
_0-c_
  6
PHANTOM1
 62
  116
 10
153.16137069078172
 20
274.98109839673697
 40
0.2999999999999998
 50
180
 51
270
  0
ARC
  8
_0-c_
  6
PHANTOM1
 62
  116
 10
154.96137069078156
 20
274.38109839673712
 40
0.2999999999999998
 50
0
 51
90
  0
ARC
  8
_0-c_
  6
PHANTOM1
 62
  116
 10
154.18563475949372
 20
278.78109839673675
 40
0.2999999999999998
 50
90
 51
135
  0
CIRCLE
  8
_0-c_
  6
PHANTOM1
 62
  116
 10
149.61137069078165
 20
276.13109839673712
 40
2.0999999999999996
  0
CIRCLE
  8
_0-c_
  6
PHANTOM1
 62
  116
 10
149.61137069078165
 20
294.63109839673712
 40
2.0999999999999996
  0
CIRCLE
  8
_0-c_
  6
PHANTOM1
 62
  116
 10
168.11137069078177
 20
294.63109839673712
 40
2.0999999999999996
  0
CIRCLE
  8
_0-c_
  6
PHANTOM1
 62
  116
 10
168.11137069078177
 20
276.13109839673712
 40
2.0999999999999996
  0
LINE
  8
ADD_LINE
  6
DOT
 62
    9
 10
232.64812206878139
 20
272.07109839435287
 11
233.35522884994896
 21
272.77820517552038
  0
LINE
  8
ADD_LINE
  6
DOT
 62
    9
 10
231.94101528757562
 20
272.77820517552038
 11
232.64812206876229
 21
272.07109839433372
  0
LINE
  8
_0-4_
  6
CONTINUOUS
 62
  152
 10
231.43383633746578
 20
263.57109815593441
 11
231.43383633746578
 21
268.07109839435304
  0
LINE
  8
_0-4_
  6
CONTINUOUS
 62
  152
 10
230.82669353141262
 20
263.57109815593441
 11
230.82669353141262
 21
268.07109839435304
  0
LINE
  8
_0-4_
  6
CONTINUOUS
 62
  152
 10
229.61240768088771
 20
263.57109815593441
 11
229.61240768088771
 21
268.07109839435304
  0
LINE
  8
_0-4_
  6
CONTINUOUS
 62
  152
 10
229.00526499404384
 20
263.57109815593441
 11
229.00526499404384
 21
268.07109839435304
  0
LINE
  8
_0-4_
  6
CONTINUOUS
 62
  152
 10
230.21955060615016
 20
263.57109815593441
 11
230.21955060615016
 21
268.07109839435304
  0
LINE
  8
_0-4_
  6
CONTINUOUS
 62
   56
 10
236.89812206878139
 20
263.57109815593441
 11
236.39812206878139
 21
263.07109815593446
  0
LINE
  8
_0-4_
  6
CONTINUOUS
 62
   56
 10
228.89812206878139
 20
263.07109815593446
 11
236.39812206878139
 21
263.07109815593446
  0
LINE
  8
_0-4_
  6
CONTINUOUS
 62
   56
 10
228.89812206878139
 20
263.07109815593446
 11
228.39812206878139
 21
263.57109815593441
  0
LINE
  8
_0-4_
  6
CONTINUOUS
 62
   56
 10
236.89812206878139
 20
263.57109815593441
 11
228.39812206878139
 21
263.57109815593441
  0
LINE
  8
_0-4_
  6
CONTINUOUS
 62
   56
 10
228.39812206878139
 20
263.57109815593441
 11
228.39812206878139
 21
268.07109839435304
  0
LINE
  8
_0-4_
  6
CONTINUOUS
 62
   56
 10
236.89812206878139
 20
268.07109839435304
 11
228.39812206878139
 21
268.07109839435304
  0
LINE
  8
_0-4_
  6
CONTINUOUS
 62
   56
 10
236.89812206878139
 20
263.57109815593441
 11
236.89812206878139
 21
268.07109839435304
  0
LINE
  8
_0-4_
  6
CONTINUOUS
 62
   56
 10
230.49812197341396
 20
278.07109839435293
 11
234.79812216414882
 21
278.07109839435293
  0
LINE
  8
_0-4_
  6
CONTINUOUS
 62
   56
 10
235.14812206878139
 20
277.7210980128832
 11
234.79812216414882
 21
278.07109839435293
  0
LINE
  8
_0-4_
  6
CONTINUOUS
 62
   56
 10
230.49812197341396
 20
278.07109839435293
 11
230.14812206878139
 21
277.7210980128832
  0
LINE
  8
_0-4_
  6
CONTINUOUS
 62
   56
 10
235.14812206878139
 20
277.7210980128832
 11
230.14812206878139
 21
277.7210980128832
  0
LINE
  8
_0-4_
  6
CONTINUOUS
 62
   56
 10
238.57812189712001
 20
268.07109839435304
 11
238.57812189712001
 21
268.88109839673723
  0
LINE
  8
_0-4_
  6
CONTINUOUS
 62
   56
 10
238.57812189712001
 20
268.07109839435304
 11
226.71812224044277
 21
268.07109839435304
  0
LINE
  8
_0-4_
  6
CONTINUOUS
 62
   56
 10
226.71812224044277
 20
268.07109839435304
 11
226.71812224044277
 21
268.88109839673723
  0
LINE
  8
_0-1_
  6
CENTER1
 62
  152
 10
232.64812206878139
 20
282.66944002662206
 11
232.64812206878139
 21
256.33176222041681
  0
LINE
  8
_0-4_
  6
CONTINUOUS
 62
  152
 10
234.79812216414882
 20
268.07109839435304
 11
234.79812216414882
 21
278.07109839435293
  0
LINE
  8
_0-4_
  6
CONTINUOUS
 62
  152
 10
230.49812197341396
 20
268.07109839435304
 11
230.49812197341396
 21
278.07109839435293
  0
LINE
  8
_0-4_
  6
CONTINUOUS
 62
   56
 10
235.14812206878139
 20
277.7210980128832
 11
235.14812206878139
 21
268.07109839435304
  0
LINE
  8
_0-4_
  6
CONTINUOUS
 62
   56
 10
230.14812206878139
 20
277.7210980128832
 11
230.14812206878139
 21
268.07109839435304
  0
LINE
  8
_0-1_
  6
CENTER1
 62
  152
 10
158.94137068878138
 20
282.66944002662206
 11
158.94137068878138
 21
256.33176222041681
  0
LINE
  8
ADD_LINE
  6
DOT
 62
    9
 10
288.14812206878094
 20
272.07109839435287
 11
288.8552288499485
 21
272.77820517552038
  0
LINE
  8
ADD_LINE
  6
DOT
 62
    9
 10
287.44101528757517
 20
272.77820517552038
 11
288.14812206876184
 21
272.07109839433372
  0
LINE
  8
_0-4_
  6
CONTINUOUS
 62
  152
 10
286.93383633746532
 20
263.57109815593441
 11
286.93383633746532
 21
268.07109839435304
  0
LINE
  8
_0-4_
  6
CONTINUOUS
 62
  152
 10
286.32669353141216
 20
263.57109815593441
 11
286.32669353141216
 21
268.07109839435304
  0
LINE
  8
_0-4_
  6
CONTINUOUS
 62
  152
 10
285.11240768088726
 20
263.57109815593441
 11
285.11240768088726
 21
268.07109839435304
  0
LINE
  8
_0-4_
  6
CONTINUOUS
 62
  152
 10
284.50526499404339
 20
263.57109815593441
 11
284.50526499404339
 21
268.07109839435304
  0
LINE
  8
_0-4_
  6
CONTINUOUS
 62
  152
 10
285.71955060614971
 20
263.57109815593441
 11
285.71955060614971
 21
268.07109839435304
  0
LINE
  8
_0-4_
  6
CONTINUOUS
 62
   56
 10
292.39812206878094
 20
263.57109815593441
 11
291.89812206878094
 21
263.07109815593446
  0
LINE
  8
_0-4_
  6
CONTINUOUS
 62
   56
 10
284.39812206878094
 20
263.07109815593446
 11
291.89812206878094
 21
263.07109815593446
  0
LINE
  8
_0-4_
  6
CONTINUOUS
 62
   56
 10
284.39812206878094
 20
263.07109815593446
 11
283.89812206878094
 21
263.57109815593441
  0
LINE
  8
_0-4_
  6
CONTINUOUS
 62
   56
 10
292.39812206878094
 20
263.57109815593441
 11
283.89812206878094
 21
263.57109815593441
  0
LINE
  8
_0-4_
  6
CONTINUOUS
 62
   56
 10
283.89812206878094
 20
263.57109815593441
 11
283.89812206878094
 21
268.07109839435304
  0
LINE
  8
_0-4_
  6
CONTINUOUS
 62
   56
 10
292.39812206878094
 20
268.07109839435304
 11
283.89812206878094
 21
268.07109839435304
  0
LINE
  8
_0-4_
  6
CONTINUOUS
 62
   56
 10
292.39812206878094
 20
263.57109815593441
 11
292.39812206878094
 21
268.07109839435304
  0
LINE
  8
_0-4_
  6
CONTINUOUS
 62
   56
 10
285.9981219734135
 20
278.07109839435293
 11
290.29812216414837
 21
278.07109839435293
  0
LINE
  8
_0-4_
  6
CONTINUOUS
 62
   56
 10
290.64812206878094
 20
277.7210980128832
 11
290.29812216414837
 21
278.07109839435293
  0
LINE
  8
_0-4_
  6
CONTINUOUS
 62
   56
 10
285.9981219734135
 20
278.07109839435293
 11
285.64812206878094
 21
277.7210980128832
  0
LINE
  8
_0-4_
  6
CONTINUOUS
 62
   56
 10
290.64812206878094
 20
277.7210980128832
 11
285.64812206878094
 21
277.7210980128832
  0
LINE
  8
_0-4_
  6
CONTINUOUS
 62
   56
 10
294.07812189711956
 20
268.07109839435304
 11
294.07812189711956
 21
268.88109839673723
  0
LINE
  8
_0-4_
  6
CONTINUOUS
 62
   56
 10
294.07812189711956
 20
268.07109839435304
 11
282.21812224044231
 21
268.07109839435304
  0
LINE
  8
_0-4_
  6
CONTINUOUS
 62
   56
 10
282.21812224044231
 20
268.07109839435304
 11
282.21812224044231
 21
268.88109839673723
  0
LINE
  8
_0-4_
  6
CONTINUOUS
 62
  152
 10
290.29812216414837
 20
268.07109839435304
 11
290.29812216414837
 21
278.07109839435293
  0
LINE
  8
_0-4_
  6
CONTINUOUS
 62
  152
 10
285.9981219734135
 20
268.07109839435304
 11
285.9981219734135
 21
278.07109839435293
  0
LINE
  8
_0-4_
  6
CONTINUOUS
 62
   56
 10
290.64812206878094
 20
277.7210980128832
 11
290.64812206878094
 21
268.07109839435304
  0
LINE
  8
_0-4_
  6
CONTINUOUS
 62
   56
 10
285.64812206878094
 20
277.7210980128832
 11
285.64812206878094
 21
268.07109839435304
  0
LINE
  8
_0-4_
  6
CONTINUOUS
 62
    7
 10
283.14812206878094
 20
273.48109839673702
 11
293.14812206878094
 21
273.48109839673702
  0
LINE
  8
_0-4_
  6
CONTINUOUS
 62
    7
 10
283.14812206878094
 20
274.6810983967369
 11
293.14812206878094
 21
274.6810983967369
  0
LINE
  8
_0-4_
  6
CONTINUOUS
 62
    7
 10
283.14812206878094
 20
277.98109839673702
 11
283.14812206878094
 21
273.48109839673702
  0
LINE
  8
_0-4_
  6
CONTINUOUS
 62
    7
 10
293.14812206878094
 20
277.98109839673702
 11
283.14812206878094
 21
277.98109839673702
  0
LINE
  8
_0-4_
  6
CONTINUOUS
 62
    7
 10
293.14812206878094
 20
277.98109839673702
 11
293.14812206878094
 21
273.48109839673702
  0
LINE
  8
ADD_LINE
  6
DOT
 62
    9
 10
323.14812206878094
 20
272.07109839435287
 11
323.8552288499485
 21
272.77820517552038
  0
LINE
  8
ADD_LINE
  6
DOT
 62
    9
 10
322.44101528757517
 20
272.77820517552038
 11
323.14812206876184
 21
272.07109839433372
  0
LINE
  8
_0-4_
  6
CONTINUOUS
 62
  152
 10
321.93383633746532
 20
263.57109815593441
 11
321.93383633746532
 21
268.07109839435304
  0
LINE
  8
_0-4_
  6
CONTINUOUS
 62
  152
 10
321.32669353141216
 20
263.57109815593441
 11
321.32669353141216
 21
268.07109839435304
  0
LINE
  8
_0-4_
  6
CONTINUOUS
 62
  152
 10
320.11240768088726
 20
263.57109815593441
 11
320.11240768088726
 21
268.07109839435304
  0
LINE
  8
_0-4_
  6
CONTINUOUS
 62
  152
 10
319.50526499404339
 20
263.57109815593441
 11
319.50526499404339
 21
268.07109839435304
  0
LINE
  8
_0-4_
  6
CONTINUOUS
 62
  152
 10
320.71955060614971
 20
263.57109815593441
 11
320.71955060614971
 21
268.07109839435304
  0
LINE
  8
_0-4_
  6
CONTINUOUS
 62
   56
 10
327.39812206878094
 20
263.57109815593441
 11
326.89812206878094
 21
263.07109815593446
  0
LINE
  8
_0-4_
  6
CONTINUOUS
 62
   56
 10
319.39812206878094
 20
263.07109815593446
 11
326.89812206878094
 21
263.07109815593446
  0
LINE
  8
_0-4_
  6
CONTINUOUS
 62
   56
 10
319.39812206878094
 20
263.07109815593446
 11
318.89812206878094
 21
263.57109815593441
  0
LINE
  8
_0-4_
  6
CONTINUOUS
 62
   56
 10
327.39812206878094
 20
263.57109815593441
 11
318.89812206878094
 21
263.57109815593441
  0
LINE
  8
_0-4_
  6
CONTINUOUS
 62
   56
 10
318.89812206878094
 20
263.57109815593441
 11
318.89812206878094
 21
268.07109839435304
  0
LINE
  8
_0-4_
  6
CONTINUOUS
 62
   56
 10
327.39812206878094
 20
268.07109839435304
 11
318.89812206878094
 21
268.07109839435304
  0
LINE
  8
_0-4_
  6
CONTINUOUS
 62
   56
 10
327.39812206878094
 20
263.57109815593441
 11
327.39812206878094
 21
268.07109839435304
  0
LINE
  8
_0-4_
  6
CONTINUOUS
 62
   56
 10
320.9981219734135
 20
278.07109839435293
 11
325.29812216414837
 21
278.07109839435293
  0
LINE
  8
_0-4_
  6
CONTINUOUS
 62
   56
 10
325.64812206878094
 20
277.7210980128832
 11
325.29812216414837
 21
278.07109839435293
  0
LINE
  8
_0-4_
  6
CONTINUOUS
 62
   56
 10
320.9981219734135
 20
278.07109839435293
 11
320.64812206878094
 21
277.7210980128832
  0
LINE
  8
_0-4_
  6
CONTINUOUS
 62
   56
 10
325.64812206878094
 20
277.7210980128832
 11
320.64812206878094
 21
277.7210980128832
  0
LINE
  8
_0-4_
  6
CONTINUOUS
 62
   56
 10
329.07812189711956
 20
268.07109839435304
 11
329.07812189711956
 21
268.88109839673723
  0
LINE
  8
_0-4_
  6
CONTINUOUS
 62
   56
 10
329.07812189711956
 20
268.07109839435304
 11
317.21812224044231
 21
268.07109839435304
  0
LINE
  8
_0-4_
  6
CONTINUOUS
 62
   56
 10
317.21812224044231
 20
268.07109839435304
 11
317.21812224044231
 21
268.88109839673723
  0
LINE
  8
_0-4_
  6
CONTINUOUS
 62
  152
 10
325.29812216414837
 20
268.07109839435304
 11
325.29812216414837
 21
278.07109839435293
  0
LINE
  8
_0-4_
  6
CONTINUOUS
 62
  152
 10
320.9981219734135
 20
268.07109839435304
 11
320.9981219734135
 21
278.07109839435293
  0
LINE
  8
_0-4_
  6
CONTINUOUS
 62
   56
 10
325.64812206878094
 20
277.7210980128832
 11
325.64812206878094
 21
268.07109839435304
  0
LINE
  8
_0-4_
  6
CONTINUOUS
 62
   56
 10
320.64812206878094
 20
277.7210980128832
 11
320.64812206878094
 21
268.07109839435304
  0
LINE
  8
_0-4_
  6
CONTINUOUS
 62
    7
 10
318.14812206878094
 20
273.48109839673702
 11
328.14812206878094
 21
273.48109839673702
  0
LINE
  8
_0-4_
  6
CONTINUOUS
 62
    7
 10
318.14812206878094
 20
274.6810983967369
 11
328.14812206878094
 21
274.6810983967369
  0
LINE
  8
_0-4_
  6
CONTINUOUS
 62
    7
 10
318.14812206878094
 20
277.98109839673702
 11
318.14812206878094
 21
273.48109839673702
  0
LINE
  8
_0-4_
  6
CONTINUOUS
 62
    7
 10
328.14812206878094
 20
277.98109839673702
 11
318.14812206878094
 21
277.98109839673702
  0
LINE
  8
_0-4_
  6
CONTINUOUS
 62
    7
 10
328.14812206878094
 20
277.98109839673702
 11
328.14812206878094
 21
273.48109839673702
  0
LINE
  8
_0-1_
  6
CENTER1
 62
  152
 10
103.44137068878172
 20
282.66944002662206
 11
103.44137068878172
 21
256.33176222041681
  0
LINE
  8
_0-1_
  6
CENTER1
 62
  152
 10
68.441370688781717
 20
282.66944002662206
 11
68.441370688781717
 21
256.33176222041681
  0
LINE
  8
ADD_LINE
  6
DOT
 62
    9
 10
103.44137068878172
 20
272.07109839435287
 11
104.14847746994928
 21
272.77820517552038
  0
LINE
  8
ADD_LINE
  6
DOT
 62
    9
 10
102.73426390757595
 20
272.77820517552038
 11
103.44137068876262
 21
272.07109839433372
  0
LINE
  8
_0-4_
  6
CONTINUOUS
 62
  152
 10
102.2270849574661
 20
263.57109815593441
 11
102.2270849574661
 21
268.07109839435304
  0
LINE
  8
_0-4_
  6
CONTINUOUS
 62
  152
 10
101.61994215141294
 20
263.57109815593441
 11
101.61994215141294
 21
268.07109839435304
  0
LINE
  8
_0-4_
  6
CONTINUOUS
 62
  152
 10
100.40565630088804
 20
263.57109815593441
 11
100.40565630088804
 21
268.07109839435304
  0
LINE
  8
_0-4_
  6
CONTINUOUS
 62
  152
 10
99.798513614044168
 20
263.57109815593441
 11
99.798513614044168
 21
268.07109839435304
  0
LINE
  8
_0-4_
  6
CONTINUOUS
 62
  152
 10
101.01279922615049
 20
263.57109815593441
 11
101.01279922615049
 21
268.07109839435304
  0
LINE
  8
_0-4_
  6
CONTINUOUS
 62
   56
 10
107.69137068878172
 20
263.57109815593441
 11
107.19137068878172
 21
263.07109815593446
  0
LINE
  8
_0-4_
  6
CONTINUOUS
 62
   56
 10
99.691370688781717
 20
263.07109815593446
 11
107.19137068878172
 21
263.07109815593446
  0
LINE
  8
_0-4_
  6
CONTINUOUS
 62
   56
 10
99.691370688781717
 20
263.07109815593446
 11
99.191370688781717
 21
263.57109815593441
  0
LINE
  8
_0-4_
  6
CONTINUOUS
 62
   56
 10
107.69137068878172
 20
263.57109815593441
 11
99.191370688781717
 21
263.57109815593441
  0
LINE
  8
_0-4_
  6
CONTINUOUS
 62
   56
 10
99.191370688781717
 20
263.57109815593441
 11
99.191370688781717
 21
268.07109839435304
  0
LINE
  8
_0-4_
  6
CONTINUOUS
 62
   56
 10
107.69137068878172
 20
268.07109839435304
 11
99.191370688781717
 21
268.07109839435304
  0
LINE
  8
_0-4_
  6
CONTINUOUS
 62
   56
 10
107.69137068878172
 20
263.57109815593441
 11
107.69137068878172
 21
268.07109839435304
  0
LINE
  8
_0-4_
  6
CONTINUOUS
 62
   56
 10
101.29137059341429
 20
278.07109839435293
 11
105.59137078414915
 21
278.07109839435293
  0
LINE
  8
_0-4_
  6
CONTINUOUS
 62
   56
 10
105.94137068878172
 20
277.7210980128832
 11
105.59137078414915
 21
278.07109839435293
  0
LINE
  8
_0-4_
  6
CONTINUOUS
 62
   56
 10
101.29137059341429
 20
278.07109839435293
 11
100.94137068878172
 21
277.7210980128832
  0
LINE
  8
_0-4_
  6
CONTINUOUS
 62
   56
 10
105.94137068878172
 20
277.7210980128832
 11
100.94137068878172
 21
277.7210980128832
  0
LINE
  8
_0-4_
  6
CONTINUOUS
 62
   56
 10
109.37137051712034
 20
268.07109839435304
 11
109.37137051712034
 21
268.88109839673723
  0
LINE
  8
_0-4_
  6
CONTINUOUS
 62
   56
 10
109.37137051712034
 20
268.07109839435304
 11
97.511370860443094
 21
268.07109839435304
  0
LINE
  8
_0-4_
  6
CONTINUOUS
 62
   56
 10
97.511370860443094
 20
268.07109839435304
 11
97.511370860443094
 21
268.88109839673723
  0
LINE
  8
_0-4_
  6
CONTINUOUS
 62
  152
 10
105.59137078414915
 20
268.07109839435304
 11
105.59137078414915
 21
278.07109839435293
  0
LINE
  8
_0-4_
  6
CONTINUOUS
 62
  152
 10
101.29137059341429
 20
268.07109839435304
 11
101.29137059341429
 21
278.07109839435293
  0
LINE
  8
_0-4_
  6
CONTINUOUS
 62
   56
 10
105.94137068878172
 20
277.7210980128832
 11
105.94137068878172
 21
268.07109839435304
  0
LINE
  8
_0-4_
  6
CONTINUOUS
 62
   56
 10
100.94137068878172
 20
277.7210980128832
 11
100.94137068878172
 21
268.07109839435304
  0
LINE
  8
_0-4_
  6
CONTINUOUS
 62
    7
 10
98.441370688781831
 20
273.48109839673702
 11
108.44137068878172
 21
273.48109839673702
  0
LINE
  8
_0-4_
  6
CONTINUOUS
 62
    7
 10
98.441370688781831
 20
274.6810983967369
 11
108.44137068878172
 21
274.6810983967369
  0
LINE
  8
_0-4_
  6
CONTINUOUS
 62
    7
 10
98.441370688781831
 20
277.98109839673702
 11
98.441370688781831
 21
273.48109839673702
  0
LINE
  8
_0-4_
  6
CONTINUOUS
 62
    7
 10
108.44137068878172
 20
277.98109839673702
 11
98.441370688781831
 21
277.98109839673702
  0
LINE
  8
_0-4_
  6
CONTINUOUS
 62
    7
 10
108.44137068878172
 20
277.98109839673702
 11
108.44137068878172
 21
273.48109839673702
  0
LINE
  8
ADD_LINE
  6
DOT
 62
    9
 10
68.441370688781717
 20
272.07109839435287
 11
69.148477469949285
 21
272.77820517552038
  0
LINE
  8
ADD_LINE
  6
DOT
 62
    9
 10
67.734263907575951
 20
272.77820517552038
 11
68.441370688762618
 21
272.07109839433372
  0
LINE
  8
_0-4_
  6
CONTINUOUS
 62
  152
 10
67.227084957466104
 20
263.57109815593441
 11
67.227084957466104
 21
268.07109839435304
  0
LINE
  8
_0-4_
  6
CONTINUOUS
 62
  152
 10
66.619942151412943
 20
263.57109815593441
 11
66.619942151412943
 21
268.07109839435304
  0
LINE
  8
_0-4_
  6
CONTINUOUS
 62
  152
 10
65.40565630088804
 20
263.57109815593441
 11
65.40565630088804
 21
268.07109839435304
  0
LINE
  8
_0-4_
  6
CONTINUOUS
 62
  152
 10
64.798513614044168
 20
263.57109815593441
 11
64.798513614044168
 21
268.07109839435304
  0
LINE
  8
_0-4_
  6
CONTINUOUS
 62
  152
 10
66.012799226150491
 20
263.57109815593441
 11
66.012799226150491
 21
268.07109839435304
  0
LINE
  8
_0-4_
  6
CONTINUOUS
 62
   56
 10
72.691370688781717
 20
263.57109815593441
 11
72.191370688781717
 21
263.07109815593446
  0
LINE
  8
_0-4_
  6
CONTINUOUS
 62
   56
 10
64.691370688781717
 20
263.07109815593446
 11
72.191370688781717
 21
263.07109815593446
  0
LINE
  8
_0-4_
  6
CONTINUOUS
 62
   56
 10
64.691370688781717
 20
263.07109815593446
 11
64.191370688781717
 21
263.57109815593441
  0
LINE
  8
_0-4_
  6
CONTINUOUS
 62
   56
 10
72.691370688781717
 20
263.57109815593441
 11
64.191370688781717
 21
263.57109815593441
  0
LINE
  8
_0-4_
  6
CONTINUOUS
 62
   56
 10
64.191370688781717
 20
263.57109815593441
 11
64.191370688781717
 21
268.07109839435304
  0
LINE
  8
_0-4_
  6
CONTINUOUS
 62
   56
 10
72.691370688781717
 20
268.07109839435304
 11
64.191370688781717
 21
268.07109839435304
  0
LINE
  8
_0-4_
  6
CONTINUOUS
 62
   56
 10
72.691370688781717
 20
263.57109815593441
 11
72.691370688781717
 21
268.07109839435304
  0
LINE
  8
_0-4_
  6
CONTINUOUS
 62
   56
 10
66.291370593414285
 20
278.07109839435293
 11
70.591370784149149
 21
278.07109839435293
  0
LINE
  8
_0-4_
  6
CONTINUOUS
 62
   56
 10
70.941370688781717
 20
277.7210980128832
 11
70.591370784149149
 21
278.07109839435293
  0
LINE
  8
_0-4_
  6
CONTINUOUS
 62
   56
 10
66.291370593414285
 20
278.07109839435293
 11
65.941370688781717
 21
277.7210980128832
  0
LINE
  8
_0-4_
  6
CONTINUOUS
 62
   56
 10
70.941370688781717
 20
277.7210980128832
 11
65.941370688781717
 21
277.7210980128832
  0
LINE
  8
_0-4_
  6
CONTINUOUS
 62
   56
 10
74.37137051712034
 20
268.07109839435304
 11
74.37137051712034
 21
268.88109839673723
  0
LINE
  8
_0-4_
  6
CONTINUOUS
 62
   56
 10
74.37137051712034
 20
268.07109839435304
 11
62.511370860443094
 21
268.07109839435304
  0
LINE
  8
_0-4_
  6
CONTINUOUS
 62
   56
 10
62.511370860443094
 20
268.07109839435304
 11
62.511370860443094
 21
268.88109839673723
  0
LINE
  8
_0-4_
  6
CONTINUOUS
 62
  152
 10
70.591370784149149
 20
268.07109839435304
 11
70.591370784149149
 21
278.07109839435293
  0
LINE
  8
_0-4_
  6
CONTINUOUS
 62
  152
 10
66.291370593414285
 20
268.07109839435304
 11
66.291370593414285
 21
278.07109839435293
  0
LINE
  8
_0-4_
  6
CONTINUOUS
 62
   56
 10
70.941370688781717
 20
277.7210980128832
 11
70.941370688781717
 21
268.07109839435304
  0
LINE
  8
_0-4_
  6
CONTINUOUS
 62
   56
 10
65.941370688781717
 20
277.7210980128832
 11
65.941370688781717
 21
268.07109839435304
  0
LINE
  8
_0-4_
  6
CONTINUOUS
 62
    7
 10
63.441370688781717
 20
273.48109839673702
 11
73.441370688781717
 21
273.48109839673702
  0
LINE
  8
_0-4_
  6
CONTINUOUS
 62
    7
 10
63.441370688781717
 20
274.6810983967369
 11
73.441370688781717
 21
274.6810983967369
  0
LINE
  8
_0-4_
  6
CONTINUOUS
 62
    7
 10
63.441370688781717
 20
277.98109839673702
 11
63.441370688781717
 21
273.48109839673702
  0
LINE
  8
_0-4_
  6
CONTINUOUS
 62
    7
 10
73.441370688781717
 20
277.98109839673702
 11
63.441370688781717
 21
277.98109839673702
  0
LINE
  8
_0-4_
  6
CONTINUOUS
 62
    7
 10
73.441370688781717
 20
277.98109839673702
 11
73.441370688781717
 21
273.48109839673702
  0
LINE
  8
_0-4_
  6
CONTINUOUS
 62
    7
 10
162.09642168878156
 20
277.54249839673707
 11
161.22275768878137
 21
277.86048839673691
  0
LINE
  8
_0-4_
  6
CONTINUOUS
 62
    7
 10
160.53871768878128
 20
277.98109839673702
 11
157.34402468878136
 21
277.98109839673702
  0
LINE
  8
_0-4_
  6
CONTINUOUS
 62
    7
 10
156.65998468878126
 20
277.86048839673691
 11
155.78632068878153
 21
277.54249839673707
  0
ARC
  8
_0-4_
  6
CONTINUOUS
 62
    7
 10
160.53871768878128
 20
275.98109839673708
 40
2
 50
69.999999999999972
 51
90
  0
ARC
  8
_0-4_
  6
CONTINUOUS
 62
    7
 10
157.34402468878136
 20
275.98109839673708
 40
2
 50
90
 51
110
  0
ARC
  8
_0-4_
  6
CONTINUOUS
 62
    7
 10
161.24137068878156
 20
275.19326839673681
 40
2.5
 50
348.17822799457855
 51
69.999999999999943
  0
LINE
  8
_0-4_
  6
CONTINUOUS
 62
    7
 10
162.51290859557378
 20
274.6810983967369
 11
163.68834471624893
 21
274.6810983967369
  0
ARC
  8
_0-4_
  6
CONTINUOUS
 62
    7
 10
156.64137068878165
 20
275.19326839673681
 40
2.5
 50
110.00000000000003
 51
191.82177200542145
  0
LINE
  8
_0-4_
  6
CONTINUOUS
 62
    7
 10
154.19439666131427
 20
274.6810983967369
 11
155.36983378198943
 21
274.6810983967369
  0
LINE
  8
_0-4_
  6
CONTINUOUS
 62
    7
 10
155.69136959557363
 20
273.48109839673702
 11
155.36983378198943
 21
274.6810983967369
  0
LINE
  8
_0-4_
  6
CONTINUOUS
 62
    7
 10
162.51290859557378
 20
274.6810983967369
 11
162.19137278198934
 21
273.48109839673702
  0
LINE
  8
_0-4_
  6
CONTINUOUS
 62
    7
 10
155.69136959557363
 20
273.48109839673702
 11
162.19137278198934
 21
273.48109839673702
  0
LINE
  8
ADD_LINE
  6
DOT
 62
    9
 10
158.94137068878138
 20
272.07109839435287
 11
159.64847746994894
 21
272.77820517552038
  0
LINE
  8
ADD_LINE
  6
DOT
 62
    9
 10
158.23426390757561
 20
272.77820517552038
 11
158.94137068876228
 21
272.07109839433372
  0
LINE
  8
_0-4_
  6
CONTINUOUS
 62
  152
 10
157.72708495746576
 20
263.57109815593441
 11
157.72708495746576
 21
268.07109839435304
  0
LINE
  8
_0-4_
  6
CONTINUOUS
 62
  152
 10
157.1199421514126
 20
263.57109815593441
 11
157.1199421514126
 21
268.07109839435304
  0
LINE
  8
_0-4_
  6
CONTINUOUS
 62
  152
 10
155.9056563008877
 20
263.57109815593441
 11
155.9056563008877
 21
268.07109839435304
  0
LINE
  8
_0-4_
  6
CONTINUOUS
 62
  152
 10
155.29851361404383
 20
263.57109815593441
 11
155.29851361404383
 21
268.07109839435304
  0
LINE
  8
_0-4_
  6
CONTINUOUS
 62
  152
 10
156.51279922615015
 20
263.57109815593441
 11
156.51279922615015
 21
268.07109839435304
  0
LINE
  8
_0-4_
  6
CONTINUOUS
 62
   56
 10
163.19137068878138
 20
263.57109815593441
 11
162.69137068878138
 21
263.07109815593446
  0
LINE
  8
_0-4_
  6
CONTINUOUS
 62
   56
 10
155.19137068878138
 20
263.07109815593446
 11
162.69137068878138
 21
263.07109815593446
  0
LINE
  8
_0-4_
  6
CONTINUOUS
 62
   56
 10
155.19137068878138
 20
263.07109815593446
 11
154.69137068878138
 21
263.57109815593441
  0
LINE
  8
_0-4_
  6
CONTINUOUS
 62
   56
 10
163.19137068878138
 20
263.57109815593441
 11
154.69137068878138
 21
263.57109815593441
  0
LINE
  8
_0-4_
  6
CONTINUOUS
 62
   56
 10
154.69137068878138
 20
263.57109815593441
 11
154.69137068878138
 21
268.07109839435304
  0
LINE
  8
_0-4_
  6
CONTINUOUS
 62
   56
 10
163.19137068878138
 20
268.07109839435304
 11
154.69137068878138
 21
268.07109839435304
  0
LINE
  8
_0-4_
  6
CONTINUOUS
 62
   56
 10
163.19137068878138
 20
263.57109815593441
 11
163.19137068878138
 21
268.07109839435304
  0
LINE
  8
_0-4_
  6
CONTINUOUS
 62
   56
 10
156.79137059341394
 20
278.07109839435293
 11
161.09137078414881
 21
278.07109839435293
  0
LINE
  8
_0-4_
  6
CONTINUOUS
 62
   56
 10
161.44137068878138
 20
277.7210980128832
 11
161.09137078414881
 21
278.07109839435293
  0
LINE
  8
_0-4_
  6
CONTINUOUS
 62
   56
 10
156.79137059341394
 20
278.07109839435293
 11
156.44137068878138
 21
277.7210980128832
  0
LINE
  8
_0-4_
  6
CONTINUOUS
 62
   56
 10
161.44137068878138
 20
277.7210980128832
 11
156.44137068878138
 21
277.7210980128832
  0
LINE
  8
_0-4_
  6
CONTINUOUS
 62
   56
 10
164.87137051712
 20
268.07109839435304
 11
164.87137051712
 21
268.88109839673723
  0
LINE
  8
_0-4_
  6
CONTINUOUS
 62
   56
 10
164.87137051712
 20
268.07109839435304
 11
153.01137086044275
 21
268.07109839435304
  0
LINE
  8
_0-4_
  6
CONTINUOUS
 62
   56
 10
153.01137086044275
 20
268.07109839435304
 11
153.01137086044275
 21
268.88109839673723
  0
LINE
  8
_0-4_
  6
CONTINUOUS
 62
  152
 10
161.09137078414881
 20
268.07109839435304
 11
161.09137078414881
 21
278.07109839435293
  0
LINE
  8
_0-4_
  6
CONTINUOUS
 62
  152
 10
156.79137059341394
 20
268.07109839435304
 11
156.79137059341394
 21
278.07109839435293
  0
LINE
  8
_0-4_
  6
CONTINUOUS
 62
   56
 10
161.44137068878138
 20
277.7210980128832
 11
161.44137068878138
 21
268.07109839435304
  0
LINE
  8
_0-4_
  6
CONTINUOUS
 62
   56
 10
156.44137068878138
 20
277.7210980128832
 11
156.44137068878138
 21
268.07109839435304
  0
TEXT
  8
_0-0_
 62
    7
 10
95.847427136575448
 20
385.37897377256996
 40
4.2999999999999998
 41
0.744186046511628
 50
0
  1
CAAJ25
  0
LINE
  8
_0-1_
  6
CENTER1
 62
  152
 10
268.14812206878105
 20
141.28109438448138
 11
268.14812206878105
 21
142.74805984602068
  0
LINE
  8
_0-1_
  6
CONTINUOUS
 62
    7
 10
206.5052144951926
 20
115.05669562067482
 11
254.79102964236949
 21
115.05669562067482
  0
LINE
  8
_0-1_
  6
CONTINUOUS
 62
    7
 10
206.5052144951926
 20
89.956695620674452
 11
254.79102964236949
 21
89.956695620674452
  0
ARC
  8
_0-1_
  6
CONTINUOUS
 62
    7
 10
206.5052144951926
 20
90.956695620674566
 40
1
 50
188.4879540707918
 51
270
  0
ARC
  8
_0-1_
  6
CONTINUOUS
 62
    7
 10
283.89937204714613
 20
102.50669562067463
 40
79.251249978365095
 50
171.51204592920809
 51
188.48795407079191
  0
ARC
  8
_0-1_
  6
CONTINUOUS
 62
    7
 10
206.5052144951926
 20
114.0566956206747
 40
1
 50
90
 51
171.5120459292082
  0
ARC
  8
_0-1_
  6
CONTINUOUS
 62
    7
 10
254.79102964236949
 20
114.0566956206747
 40
1
 50
8.4879540707918135
 51
90
  0
ARC
  8
_0-1_
  6
CONTINUOUS
 62
    7
 10
177.39687209041585
 20
102.50669562067463
 40
79.251249978365095
 50
351.51204592920811
 51
8.4879540707919006
  0
ARC
  8
_0-1_
  6
CONTINUOUS
 62
    7
 10
254.79102964236949
 20
90.956695620674566
 40
1
 50
270
 51
351.51204592920817
  0
ARC
  8
_0-1_
  6
PHANTOM1
 62
  152
 10
268.14812206878105
 20
102.50669562067463
 40
16.500000000000004
 50
243.87650363055934
 51
251.12349636944074
  0
ARC
  8
_0-1_
  6
PHANTOM1
 62
  152
 10
260.66289619922986
 20
87.243295158071362
 40
0.5
 50
63.87650363055667
 51
135
  0
LINE
  8
_0-1_
  6
PHANTOM1
 62
  152
 10
252.06241412663576
 20
97.506695620674634
 11
245.08299687943963
 21
97.506695620674634
  0
ARC
  8
_0-1_
  6
PHANTOM1
 62
  152
 10
245.08299687943963
 20
98.006695620674634
 40
0.5
 50
191.03971441403866
 51
270
  0
LINE
  8
_0-1_
  6
PHANTOM1
 62
  152
 10
260.30934280863664
 20
87.596848548664695
 11
255.37414954441363
 21
82.661655284441792
  0
ARC
  8
_0-1_
  6
PHANTOM1
 62
  152
 10
255.02059615382041
 20
83.01520867503524
 40
0.5
 50
236.03971441403866
 51
315.00000000000227
  0
ARC
  8
_0-1_
  6
PHANTOM1
 62
  152
 10
287.63960901442078
 20
115.63422153563528
 40
0.5
 50
315
 51
33.960285585961316
  0
ARC
  8
_0-1_
  6
PHANTOM1
 62
  152
 10
268.14812206878105
 20
102.50669562067463
 40
24.000000000000007
 50
33.960285585967029
 51
56.039714414033099
  0
LINE
  8
_0-1_
  6
PHANTOM1
 62
  152
 10
283.05796914079099
 20
110.34547488081927
 11
287.993162405014
 21
115.28066814504206
  0
ARC
  8
_0-1_
  6
PHANTOM1
 62
  152
 10
281.27564798374169
 20
121.99818256631426
 40
0.5
 50
56.039714414038684
 51
135
  0
LINE
  8
_0-1_
  6
PHANTOM1
 62
  152
 10
275.98690132892602
 20
117.41654269268457
 11
280.92209459314847
 21
122.35173595690736
  0
ARC
  8
_0-1_
  6
PHANTOM1
 62
  152
 10
273.64812206878116
 20
118.59240356282015
 40
0.5
 50
180.00000000000347
 51
251.12349636944333
  0
ARC
  8
_0-1_
  6
PHANTOM1
 62
  152
 10
268.14812206878105
 20
102.50669562067463
 40
16.500000000000004
 50
63.876503630559327
 51
71.123496369440744
  0
ARC
  8
_0-1_
  6
PHANTOM1
 62
  152
 10
275.63334793833224
 20
117.77009608327791
 40
0.5
 50
243.87650363055585
 51
315
  0
ARC
  8
_0-1_
  6
PHANTOM1
 62
  152
 10
291.21324725812246
 20
98.006695620674634
 40
0.5
 50
270
 51
348.96028558596134
  0
ARC
  8
_0-1_
  6
PHANTOM1
 62
  152
 10
268.14812206878105
 20
102.50669562067463
 40
24.000000000000007
 50
348.96028558596703
 51
11.039714414033094
  0
LINE
  8
_0-1_
  6
PHANTOM1
 62
  152
 10
284.23383001092634
 20
97.506695620674634
 11
291.21324725812246
 21
97.506695620674634
  0
ARC
  8
_0-1_
  6
PHANTOM1
 62
  152
 10
291.21324725812246
 20
107.00669562067463
 40
0.5
 50
11.039714414038682
 51
90
  0
LINE
  8
_0-1_
  6
PHANTOM1
 62
  152
 10
284.23383001092634
 20
107.50669562067486
 11
291.21324725812246
 21
107.50669562067486
  0
ARC
  8
_0-1_
  6
PHANTOM1
 62
  152
 10
283.41152253138421
 20
109.99192149022593
 40
0.5
 50
135.00000000000347
 51
206.12349636944336
  0
ARC
  8
_0-1_
  6
PHANTOM1
 62
  152
 10
268.14812206878105
 20
102.50669562067463
 40
16.500000000000004
 50
18.876503630559334
 51
26.123496369440748
  0
ARC
  8
_0-1_
  6
PHANTOM1
 62
  152
 10
284.23383001092634
 20
108.00669562067475
 40
0.5
 50
198.87650363055585
 51
270
  0
ARC
  8
_0-1_
  6
PHANTOM1
 62
  152
 10
281.27564798374169
 20
83.01520867503524
 40
0.5
 50
225
 51
303.96028558596129
  0
ARC
  8
_0-1_
  6
PHANTOM1
 62
  152
 10
268.14812206878105
 20
102.50669562067463
 40
24.000000000000007
 50
303.96028558596703
 51
326.03971441403309
  0
LINE
  8
_0-1_
  6
PHANTOM1
 62
  152
 10
275.98690132892602
 20
87.596848548664695
 11
280.92209459314847
 21
82.661655284441792
  0
ARC
  8
_0-1_
  6
PHANTOM1
 62
  152
 10
287.63960901442078
 20
89.379169705714105
 40
0.5
 50
326.03971441403871
 51
45
  0
LINE
  8
_0-1_
  6
PHANTOM1
 62
  152
 10
283.05796914079099
 20
94.66791636053
 11
287.993162405014
 21
89.732723096307211
  0
ARC
  8
_0-1_
  6
PHANTOM1
 62
  152
 10
284.23383001092634
 20
97.00669562067452
 40
0.5
 50
90.000000000003467
 51
161.12349636944336
  0
ARC
  8
_0-1_
  6
PHANTOM1
 62
  152
 10
268.14812206878105
 20
102.50669562067463
 40
16.500000000000004
 50
333.87650363055934
 51
341.12349636944077
  0
ARC
  8
_0-1_
  6
PHANTOM1
 62
  152
 10
283.41152253138421
 20
95.021469751123334
 40
0.5
 50
153.87650363055585
 51
225
  0
ARC
  8
_0-1_
  6
PHANTOM1
 62
  152
 10
263.64812206878116
 20
79.441570431332991
 40
0.5
 50
180
 51
258.96028558596134
  0
ARC
  8
_0-1_
  6
PHANTOM1
 62
  152
 10
268.14812206878105
 20
102.50669562067463
 40
24.000000000000007
 50
258.96028558596703
 51
281.03971441403309
  0
LINE
  8
_0-1_
  6
PHANTOM1
 62
  152
 10
263.14812206878105
 20
86.420987678529116
 11
263.14812206878105
 21
79.441570431332991
  0
ARC
  8
_0-1_
  6
PHANTOM1
 62
  152
 10
272.64812206878094
 20
79.441570431332991
 40
0.5
 50
281.03971441403866
 51
0
  0
LINE
  8
_0-1_
  6
PHANTOM1
 62
  152
 10
273.14812206878105
 20
86.420987678529116
 11
273.14812206878105
 21
79.441570431332991
  0
ARC
  8
_0-1_
  6
PHANTOM1
 62
  152
 10
275.63334793833224
 20
87.243295158071362
 40
0.5
 50
45.00000000000346
 51
116.12349636944334
  0
ARC
  8
_0-1_
  6
PHANTOM1
 62
  152
 10
268.14812206878105
 20
102.50669562067463
 40
16.500000000000004
 50
288.87650363055934
 51
296.12349636944077
  0
ARC
  8
_0-1_
  6
PHANTOM1
 62
  152
 10
273.64812206878116
 20
86.420987678529116
 40
0.5
 50
108.87650363055585
 51
180
  0
ARC
  8
_0-1_
  6
PHANTOM1
 62
  152
 10
248.65663512314131
 20
89.379169705714105
 40
0.5
 50
135
 51
213.96028558596134
  0
ARC
  8
_0-1_
  6
PHANTOM1
 62
  152
 10
268.14812206878105
 20
102.50669562067463
 40
24.000000000000007
 50
213.96028558596703
 51
236.03971441403306
  0
LINE
  8
_0-1_
  6
PHANTOM1
 62
  152
 10
253.23827499677111
 20
94.66791636053
 11
248.30308173254809
 21
89.732723096307211
  0
ARC
  8
_0-1_
  6
PHANTOM1
 62
  152
 10
262.64812206878094
 20
86.420987678529116
 40
0.5
 50
0.0000000000034604
 51
71.123496369443345
  0
ARC
  8
_0-1_
  6
PHANTOM1
 62
  152
 10
245.08299687943963
 20
107.00669562067463
 40
0.5
 50
90
 51
168.96028558596134
  0
ARC
  8
_0-1_
  6
PHANTOM1
 62
  152
 10
268.14812206878105
 20
102.50669562067463
 40
24.000000000000007
 50
168.96028558596703
 51
191.03971441403309
  0
LINE
  8
_0-1_
  6
PHANTOM1
 62
  152
 10
252.06241412663576
 20
107.50669562067486
 11
245.08299687943963
 21
107.50669562067486
  0
ARC
  8
_0-1_
  6
PHANTOM1
 62
  152
 10
252.88472160617789
 20
95.021469751123334
 40
0.5
 50
315.00000000000347
 51
26.123496369443345
  0
ARC
  8
_0-1_
  6
PHANTOM1
 62
  152
 10
268.14812206878105
 20
102.50669562067463
 40
16.500000000000004
 50
198.87650363055931
 51
206.12349636944074
  0
ARC
  8
_0-1_
  6
PHANTOM1
 62
  152
 10
252.06241412663576
 20
97.00669562067452
 40
0.5
 50
18.876503630555842
 51
90
  0
ARC
  8
_0-1_
  6
PHANTOM1
 62
  152
 10
255.02059615382041
 20
121.99818256631426
 40
0.5
 50
45
 51
123.96028558596133
  0
ARC
  8
_0-1_
  6
PHANTOM1
 62
  152
 10
268.14812206878105
 20
102.50669562067463
 40
24.000000000000007
 50
123.96028558596703
 51
146.03971441403309
  0
LINE
  8
_0-1_
  6
PHANTOM1
 62
  152
 10
260.30934280863664
 20
117.41654269268457
 11
255.37414954441363
 21
122.35173595690736
  0
ARC
  8
_0-1_
  6
PHANTOM1
 62
  152
 10
248.65663512314131
 20
115.63422153563528
 40
0.5
 50
146.03971441403866
 51
225
  0
LINE
  8
_0-1_
  6
PHANTOM1
 62
  152
 10
253.23827499677111
 20
110.34547488081927
 11
248.30308173254809
 21
115.28066814504206
  0
ARC
  8
_0-1_
  6
PHANTOM1
 62
  152
 10
252.06241412663576
 20
108.00669562067475
 40
0.5
 50
270.00000000000347
 51
341.12349636944333
  0
ARC
  8
_0-1_
  6
PHANTOM1
 62
  152
 10
268.14812206878105
 20
102.50669562067463
 40
16.500000000000004
 50
153.87650363055931
 51
161.12349636944074
  0
ARC
  8
_0-1_
  6
PHANTOM1
 62
  152
 10
252.88472160617789
 20
109.99192149022593
 40
0.5
 50
333.87650363055582
 51
45
  0
ARC
  8
_0-1_
  6
PHANTOM1
 62
  152
 10
272.64812206878094
 20
125.57182081001628
 40
0.5
 50
0
 51
78.960285585961316
  0
ARC
  8
_0-1_
  6
PHANTOM1
 62
  152
 10
268.14812206878105
 20
102.50669562067463
 40
24.000000000000007
 50
78.960285585967029
 51
101.0397144140331
  0
LINE
  8
_0-1_
  6
PHANTOM1
 62
  152
 10
273.14812206878105
 20
118.59240356282015
 11
273.14812206878105
 21
125.57182081001628
  0
ARC
  8
_0-1_
  6
PHANTOM1
 62
  152
 10
263.64812206878116
 20
125.57182081001628
 40
0.5
 50
101.03971441403868
 51
180
  0
LINE
  8
_0-1_
  6
PHANTOM1
 62
  152
 10
263.14812206878105
 20
118.59240356282015
 11
263.14812206878105
 21
125.57182081001628
  0
ARC
  8
_0-1_
  6
PHANTOM1
 62
  152
 10
260.66289619922986
 20
117.77009608327791
 40
0.5
 50
225.00000000000347
 51
296.12349636944333
  0
ARC
  8
_0-1_
  6
PHANTOM1
 62
  152
 10
268.14812206878105
 20
102.50669562067463
 40
16.500000000000004
 50
108.87650363055933
 51
116.12349636944074
  0
ARC
  8
_0-1_
  6
PHANTOM1
 62
  152
 10
262.64812206878094
 20
118.59240356282015
 40
0.5
 50
288.87650363055582
 51
0
  0
LINE
  8
_0-1_
  6
CONTINUOUS
 62
    7
 10
218.14812206878105
 20
79.506695620674634
 11
218.14812206878105
 21
9.506695620674634
  0
LINE
  8
_0-1_
  6
CONTINUOUS
 62
    7
 10
226.88206999952388
 20
129.24064355141701
 11
249.26944241234071
 21
151.62801596423424
  0
LINE
  8
_0-1_
  6
CENTER1
 62
  152
 10
230.64812206878105
 20
131.82163341964991
 11
230.64812206878105
 21
72.946099574436801
  0
LINE
  8
_0-1_
  6
CENTER1
 62
  152
 10
230.64812206878105
 20
133.00669562067452
 11
230.64812206878105
 21
131.82163341964991
  0
LINE
  8
_0-1_
  6
CONTINUOUS
 62
   56
 10
236.99812206878096
 20
79.506695620674634
 11
236.99812206878096
 21
78.006695620674748
  0
LINE
  8
_0-1_
  6
CONTINUOUS
 62
   56
 10
224.29812206878114
 20
78.006695620674748
 11
224.29812206878114
 21
79.506695620674634
  0
LINE
  8
_0-1_
  6
CONTINUOUS
 62
   56
 10
236.99812206878096
 20
78.006695620674748
 11
224.29812206878114
 21
78.006695620674748
  0
LINE
  8
_0-1_
  6
CONTINUOUS
 62
   56
 10
235.89812206878082
 20
78.006695620674748
 11
235.70596990291892
 21
77.165788041690064
  0
ARC
  8
_0-1_
  6
CONTINUOUS
 62
   56
 10
233.85371231688896
 20
77.589039437901704
 40
1.8999999761581421
 50
285.36247253417969
 51
347.12857806732154
  0
LINE
  8
_0-1_
  6
CONTINUOUS
 62
   56
 10
225.39812206878128
 20
78.006695620674748
 11
225.59027423464318
 21
77.165788041690064
  0
ARC
  8
_0-1_
  6
CONTINUOUS
 62
   56
 10
227.44253182067314
 20
77.589039437901704
 40
1.8999999761581421
 50
192.87142193267849
 51
254.63752746582031
  0
ARC
  8
_0-1_
  6
CONTINUOUS
 62
   56
 10
230.64812206878105
 20
89.256695621144388
 40
14.000000000000004
 50
254.63752746582031
 51
285.36248779296875
  0
LINE
  8
_0-1_
  6
CONTINUOUS
 62
   56
 10
236.99812206878096
 20
125.50669562067475
 11
236.99812206878096
 21
127.00669562067452
  0
LINE
  8
_0-1_
  6
CONTINUOUS
 62
   56
 10
224.29812206878114
 20
127.00669562067452
 11
224.29812206878114
 21
125.50669562067475
  0
LINE
  8
_0-1_
  6
CONTINUOUS
 62
   56
 10
236.99812206878096
 20
127.00669562067452
 11
224.29812206878114
 21
127.00669562067452
  0
LINE
  8
_0-1_
  6
CONTINUOUS
 62
   56
 10
235.89812206878082
 20
127.00669562067452
 11
235.70596990291892
 21
127.8476031996592
  0
ARC
  8
_0-1_
  6
CONTINUOUS
 62
   56
 10
233.85371231688896
 20
127.42435180344779
 40
1.8999999761581421
 50
12.871421932678484
 51
74.637527465820312
  0
LINE
  8
_0-1_
  6
CONTINUOUS
 62
   56
 10
225.39812206878128
 20
127.00669562067452
 11
225.59027423464318
 21
127.8476031996592
  0
ARC
  8
_0-1_
  6
CONTINUOUS
 62
   56
 10
227.44253182067314
 20
127.42435180344779
 40
1.8999999761581421
 50
105.36247253417969
 51
167.12857806732151
  0
ARC
  8
_0-1_
  6
CONTINUOUS
 62
   56
 10
230.64812206878105
 20
115.75669562020488
 40
14.000000000000004
 50
74.637512207031264
 51
105.3624725341797
  0
ARC
  8
_0-1_
  6
CONTINUOUS
 62
    7
 10
268.14812206878105
 20
102.50669562067463
 40
26.000000000000004
 50
274.2126037641533
 51
85.787396235846643
  0
ARC
  8
_0-1_
  6
CONTINUOUS
 62
    7
 10
268.14812206878105
 20
102.50669562067463
 40
26.000000000000004
 50
212.57897039280419
 51
265.7873962358467
  0
ARC
  8
_0-1_
  6
CONTINUOUS
 62
    7
 10
268.14812206878105
 20
102.50669562067463
 40
28.000000000000007
 50
274.99138309087925
 51
85.008616909120775
  0
ARC
  8
_0-1_
  6
CONTINUOUS
 62
    7
 10
268.14812206878105
 20
102.50669562067463
 40
28.000000000000007
 50
209.99999999999997
 51
265.00861690912075
  0
LINE
  8
_0-1_
  6
CONTINUOUS
 62
    7
 10
269.39812206878105
 20
73.533647800329561
 11
269.39812206878105
 21
76.706695620674566
  0
LINE
  8
_0-1_
  6
CONTINUOUS
 62
    7
 10
266.89812206878105
 20
73.533647800329561
 11
266.89812206878105
 21
76.706695620674566
  0
LINE
  8
_0-1_
  6
CONTINUOUS
 62
    7
 10
269.39812206878105
 20
76.706695620674566
 11
266.89812206878105
 21
76.706695620674566
  0
LINE
  8
_0-1_
  6
CONTINUOUS
 62
    7
 10
269.64812206878082
 20
78.106695620674657
 11
266.64812206878128
 21
78.106695620674657
  0
LINE
  8
_0-1_
  6
CONTINUOUS
 62
    7
 10
269.64812206878082
 20
78.106695620674657
 11
270.58428784612704
 21
74.612877375312848
  0
LINE
  8
_0-1_
  6
CONTINUOUS
 62
    7
 10
266.64812206878128
 20
78.106695620674657
 11
265.71195629143506
 21
74.612877375312848
  0
LINE
  8
_0-1_
  6
CONTINUOUS
 62
    7
 10
269.39812206878105
 20
131.47974344101971
 11
269.39812206878105
 21
128.3066956206747
  0
LINE
  8
_0-1_
  6
CONTINUOUS
 62
    7
 10
266.89812206878105
 20
131.47974344101971
 11
266.89812206878105
 21
128.3066956206747
  0
LINE
  8
_0-1_
  6
CONTINUOUS
 62
    7
 10
269.39812206878105
 20
128.3066956206747
 11
266.89812206878105
 21
128.3066956206747
  0
ARC
  8
_0-1_
  6
CONTINUOUS
 62
    7
 10
268.14812206878105
 20
102.50669562067463
 40
28.000000000000007
 50
94.991383090879268
 51
144.69001008646711
  0
ARC
  8
_0-1_
  6
CONTINUOUS
 62
    7
 10
268.14812206878105
 20
102.50669562067463
 40
26.000000000000004
 50
94.212603764153329
 51
147.42102960719581
  0
LINE
  8
_0-1_
  6
CONTINUOUS
 62
    7
 10
269.64812206878082
 20
126.90669562067461
 11
266.64812206878128
 21
126.90669562067461
  0
LINE
  8
_0-1_
  6
CONTINUOUS
 62
    7
 10
269.64812206878082
 20
126.90669562067461
 11
270.58428784612704
 21
130.40051386603676
  0
LINE
  8
_0-1_
  6
CONTINUOUS
 62
    7
 10
266.64812206878128
 20
126.90669562067461
 11
265.71195629143506
 21
130.40051386603676
  0
ARC
  8
_0-1_
  6
CONTINUOUS
 62
    7
 10
268.14812206878105
 20
102.50669562067463
 40
28.000000000000007
 50
144.69001008646714
 51
150.00000000000003
  0
LINE
  8
_0-1_
  6
CONTINUOUS
 62
    7
 10
256.14812206878116
 20
88.506695620674748
 11
243.89941076281661
 21
88.506695620674748
  0
LINE
  8
_0-1_
  6
CONTINUOUS
 62
    7
 10
256.14812206878116
 20
116.50669562067452
 11
243.89941076281661
 21
116.50669562067452
  0
ARC
  8
_0-1_
  6
CONTINUOUS
 62
    7
 10
256.14812206878116
 20
113.50669562067475
 40
3.0000000000000009
 50
0
 51
90.000000000000014
  0
LINE
  8
_0-1_
  6
CONTINUOUS
 62
    7
 10
259.14812206878128
 20
113.50669562067475
 11
259.14812206878128
 21
91.506695620674748
  0
ARC
  8
_0-1_
  6
CONTINUOUS
 62
    7
 10
256.14812206878116
 20
91.506695620674748
 40
3.0000000000000009
 50
270
 51
0
  0
ARC
  8
_0-1_
  6
CONTINUOUS
 62
    7
 10
268.14812206878105
 20
102.50669562067463
 40
29.000000000000004
 50
208.86572741500729
 51
151.13427258499271
  0
ARC
  8
_0-1_
  6
CONTINUOUS
 62
    7
 10
268.14812206878105
 20
102.50669562067463
 40
35.5
 50
220.38250389234636
 51
139.61749610765364
  0
LINE
  8
_0-1_
  6
CONTINUOUS
 62
    7
 10
216.64812206878128
 20
125.50669562067475
 11
242.75127187038083
 21
125.50669562067475
  0
LINE
  8
_0-1_
  6
CONTINUOUS
 62
    7
 10
242.75127187038083
 20
116.50669562067452
 11
242.75127187038083
 21
125.50669562067475
  0
LINE
  8
_0-1_
  6
CONTINUOUS
 62
    7
 10
216.64812206878128
 20
116.50669562067452
 11
242.75127187038083
 21
116.50669562067452
  0
ARC
  8
_0-1_
  6
CONTINUOUS
 62
    7
 10
216.64812206878128
 20
117.50669562067463
 40
1
 50
180
 51
270
  0
LINE
  8
_0-1_
  6
CONTINUOUS
 62
    7
 10
215.64812206878105
 20
117.50669562067463
 11
215.64812206878105
 21
124.50669562067475
  0
ARC
  8
_0-1_
  6
CONTINUOUS
 62
    7
 10
216.64812206878128
 20
124.50669562067475
 40
1
 50
90
 51
180
  0
LINE
  8
_0-1_
  6
CONTINUOUS
 62
    7
 10
216.64812206878128
 20
79.506695620674634
 11
242.75127187038083
 21
79.506695620674634
  0
LINE
  8
_0-1_
  6
CONTINUOUS
 62
    7
 10
242.75127187038083
 20
88.506695620674748
 11
242.75127187038083
 21
79.506695620674634
  0
LINE
  8
_0-1_
  6
CONTINUOUS
 62
    7
 10
216.64812206878128
 20
88.506695620674748
 11
242.75127187038083
 21
88.506695620674748
  0
ARC
  8
_0-1_
  6
CONTINUOUS
 62
    7
 10
216.64812206878128
 20
87.506695620674634
 40
1
 50
90
 51
180
  0
LINE
  8
_0-1_
  6
CONTINUOUS
 62
    7
 10
215.64812206878105
 20
87.506695620674634
 11
215.64812206878105
 21
80.50669562067452
  0
ARC
  8
_0-1_
  6
CONTINUOUS
 62
    7
 10
216.64812206878128
 20
80.50669562067452
 40
1
 50
180
 51
270
  0
LINE
  8
_0-1_
  6
CENTER1
 62
  152
 10
197.00630724938026
 20
102.50669562067463
 11
308.41406558990275
 21
102.50669562067463
  0
LINE
  8
_0-1_
  6
CENTER1
 62
  152
 10
268.14812206878105
 20
141.28109438448138
 11
268.14812206878105
 21
62.972053513846902
  0
LINE
  8
_0-1_
  6
CENTER1
 62
  152
 10
318.15081591744206
 20
138.00669562067475
 11
327.76014838078811
 21
138.00669562067475
  0
LINE
  8
_0-1_
  6
CENTER1
 62
  152
 10
323.14812206878105
 20
132.48812851023905
 11
323.14812206878105
 21
142.82269361232824
  0
CIRCLE
  8
_0-1_
  6
CONTINUOUS
 62
    7
 10
323.14812206878105
 20
138.00669562067475
 40
3.1249999999999996
  0
LINE
  8
_0-1_
  6
CENTER1
 62
  152
 10
338.14812206878105
 20
138.19122035579375
 11
338.14812206878105
 21
123.06592463460419
  0
LINE
  8
_0-1_
  6
CENTER1
 62
  152
 10
333.0205676292677
 20
130.50669562067475
 11
342.99851140345584
 21
130.50669562067475
  0
LINE
  8
_0-1_
  6
CENTER1
 62
  152
 10
333.0205676292677
 20
128.10669562067477
 11
342.99851140345584
 21
128.10669562067477
  0
LINE
  8
_0-1_
  6
CENTER1
 62
  152
 10
333.0205676292677
 20
132.90669562067484
 11
342.99851140345584
 21
132.90669562067484
  0
LINE
  8
_0-1_
  6
CONTINUOUS
 62
    7
 10
333.99812206878084
 20
132.90669562067484
 11
333.99812206878084
 21
128.10669562067477
  0
ARC
  8
_0-1_
  6
CONTINUOUS
 62
    7
 10
338.14812206878105
 20
132.90669562067484
 40
4.1499999999999755
 50
0.0000000000000381
 51
180
  0
LINE
  8
_0-1_
  6
CONTINUOUS
 62
    7
 10
342.29812206878103
 20
132.90669562067484
 11
342.29812206878125
 21
128.10669562067477
  0
ARC
  8
_0-1_
  6
CONTINUOUS
 62
    7
 10
338.14812206878105
 20
128.10669562067477
 40
4.1499999999999755
 50
180.00000000000006
 51
0
  0
LINE
  8
_0-1_
  6
CENTER1
 62
  152
 10
308.14812206878105
 20
138.19122035579375
 11
308.14812206878105
 21
123.06592463460419
  0
LINE
  8
_0-1_
  6
CENTER1
 62
  152
 10
303.0205676292677
 20
130.50669562067475
 11
312.99851140345584
 21
130.50669562067475
  0
LINE
  8
_0-1_
  6
CENTER1
 62
  152
 10
303.02056762926827
 20
128.10669562067477
 11
312.99851140345584
 21
128.10669562067477
  0
LINE
  8
_0-1_
  6
CENTER1
 62
  152
 10
303.0205676292677
 20
132.90669562067484
 11
312.99851140345584
 21
132.90669562067484
  0
LINE
  8
_0-1_
  6
CONTINUOUS
 62
    7
 10
303.99812206878084
 20
132.90669562067484
 11
303.99812206878141
 21
128.10669562067477
  0
ARC
  8
_0-1_
  6
CONTINUOUS
 62
    7
 10
308.14812206878105
 20
132.90669562067484
 40
4.1499999999999755
 50
0.0000000000000381
 51
180
  0
LINE
  8
_0-1_
  6
CONTINUOUS
 62
    7
 10
312.29812206878069
 20
132.90669562067484
 11
312.29812206878125
 21
128.10669562067477
  0
ARC
  8
_0-1_
  6
CONTINUOUS
 62
    7
 10
308.14812206878105
 20
128.10669562067477
 40
4.1499999999999755
 50
180.00000000000006
 51
0
  0
LINE
  8
_0-1_
  6
CENTER1
 62
  152
 10
283.15081591744206
 20
138.00669562067475
 11
292.76014838078811
 21
138.00669562067475
  0
LINE
  8
_0-1_
  6
CENTER1
 62
  152
 10
288.14812206878105
 20
132.48812851023905
 11
288.14812206878105
 21
142.82269361232824
  0
CIRCLE
  8
_0-1_
  6
CONTINUOUS
 62
    7
 10
288.14812206878105
 20
138.00669562067475
 40
3.1249999999999996
  0
LINE
  8
_0-1_
  6
CENTER1
 62
  152
 10
232.64812206878094
 20
52.504001772013737
 11
232.64812206878094
 21
42.894669308667687
  0
LINE
  8
_0-1_
  6
CENTER1
 62
  152
 10
238.16668917921663
 20
47.50669562067452
 11
227.83212407712756
 21
47.50669562067452
  0
CIRCLE
  8
_0-1_
  6
CONTINUOUS
 62
    7
 10
232.64812206878094
 20
47.50669562067452
 40
3.125
  0
LINE
  8
_0-1_
  6
CENTER1
 62
  152
 10
232.46359733366194
 20
32.50669562067452
 11
247.58889305485172
 21
32.50669562067452
  0
LINE
  8
_0-1_
  6
CENTER1
 62
  152
 10
240.14812206878094
 20
37.634250060187753
 11
240.14812206878094
 21
27.65630628599996
  0
LINE
  8
_0-1_
  6
CENTER1
 62
  152
 10
242.54812206878103
 20
37.634250060187753
 11
242.54812206878103
 21
27.65630628599996
  0
LINE
  8
_0-1_
  6
CENTER1
 62
  152
 10
237.74812206878141
 20
37.634250060187753
 11
237.74812206878141
 21
27.65630628599996
  0
LINE
  8
_0-1_
  6
CONTINUOUS
 62
    7
 10
237.74812206878141
 20
36.656695620674498
 11
242.54812206878103
 21
36.656695620674498
  0
ARC
  8
_0-1_
  6
CONTINUOUS
 62
    7
 10
237.74812206878141
 20
32.50669562067452
 40
4.1499999999999782
 50
90
 51
270
  0
LINE
  8
_0-1_
  6
CONTINUOUS
 62
    7
 10
237.74812206878141
 20
28.356695620674543
 11
242.54812206878103
 21
28.356695620674543
  0
ARC
  8
_0-1_
  6
CONTINUOUS
 62
    7
 10
242.54812206878103
 20
32.50669562067452
 40
4.1499999999999782
 50
270
 51
90
  0
LINE
  8
_0-1_
  6
CENTER1
 62
  152
 10
232.46359733366194
 20
62.50669562067452
 11
247.58889305485172
 21
62.50669562067452
  0
LINE
  8
_0-1_
  6
CENTER1
 62
  152
 10
240.14812206878094
 20
67.634250060187753
 11
240.14812206878094
 21
57.65630628599996
  0
LINE
  8
_0-1_
  6
CENTER1
 62
  152
 10
242.54812206878103
 20
67.634250060187753
 11
242.54812206878103
 21
57.65630628599996
  0
LINE
  8
_0-1_
  6
CENTER1
 62
  152
 10
237.74812206878141
 20
67.634250060187753
 11
237.74812206878141
 21
57.65630628599996
  0
LINE
  8
_0-1_
  6
CONTINUOUS
 62
    7
 10
237.74812206878141
 20
66.656695620674498
 11
242.54812206878103
 21
66.656695620674498
  0
ARC
  8
_0-1_
  6
CONTINUOUS
 62
    7
 10
237.74812206878141
 20
62.50669562067452
 40
4.1499999999999782
 50
90
 51
270
  0
LINE
  8
_0-1_
  6
CONTINUOUS
 62
    7
 10
237.74812206878141
 20
58.356695620674543
 11
242.54812206878103
 21
58.356695620674543
  0
ARC
  8
_0-1_
  6
CONTINUOUS
 62
    7
 10
242.54812206878103
 20
62.50669562067452
 40
4.1499999999999782
 50
270
 51
90
  0
LINE
  8
_0-1_
  6
CONTINUOUS
 62
    7
 10
357.14812206878116
 20
126.16354987016695
 11
244.49126781928885
 21
13.506695620674748
  0
LINE
  8
_0-1_
  6
CONTINUOUS
 62
    7
 10
357.14812206878116
 20
126.16354987016695
 11
357.14812206878116
 21
152.50669562067469
  0
LINE
  8
_0-1_
  6
CONTINUOUS
 62
    7
 10
244.49126781928885
 20
13.506695620674748
 11
218.14812206878105
 21
13.506695620674748
  0
ARC
  8
_0-1_
  6
CONTINUOUS
 62
    7
 10
358.14812206878105
 20
125.74933630779407
 40
3.0000000000000009
 50
315.00000000000006
 51
0.0000000000000508
  0
LINE
  8
_0-1_
  6
CONTINUOUS
 62
    7
 10
360.26944241234094
 20
123.62801596423441
 11
247.02680172522139
 21
10.385375277114974
  0
ARC
  8
_0-1_
  6
CONTINUOUS
 62
    7
 10
244.9054813816615
 20
12.506695620674634
 40
3.0000000000000009
 50
270
 51
315
  0
LINE
  8
_0-1_
  6
CONTINUOUS
 62
    7
 10
244.9054813816615
 20
9.506695620674634
 11
218.14812206878105
 21
9.506695620674634
  0
ARC
  8
_0-1_
  6
CONTINUOUS
 62
    7
 10
251.3907627559006
 20
149.50669562067452
 40
3.0000000000000009
 50
90
 51
134.99999999999994
  0
LINE
  8
_0-1_
  6
CONTINUOUS
 62
    7
 10
251.3907627559006
 20
152.50669562067469
 11
361.14812206878116
 21
152.50669562067469
  0
LINE
  8
_0-1_
  6
CONTINUOUS
 62
    7
 10
361.14812206878116
 20
125.74933630779407
 11
361.14812206878116
 21
152.50669562067469
  0
LINE
  8
_0-1_
  6
CENTER1
 62
  152
 10
232.64812206878094
 20
87.504001772013737
 11
232.64812206878094
 21
77.894669308667915
  0
LINE
  8
_0-1_
  6
CENTER1
 62
  152
 10
238.16668917921663
 20
82.506695620674407
 11
227.83212407712756
 21
82.506695620674407
  0
CIRCLE
  8
_0-1_
  6
CONTINUOUS
 62
    7
 10
232.64812206878094
 20
82.506695620674407
 40
3.125
  0
LINE
  8
_0-1_
  6
CENTER1
 62
  152
 10
388.14695935949089
 20
427.20209376221601
 11
499.5547177000135
 21
427.20209376221601
  0
ARC
  8
_0-1_
  6
CONTINUOUS
 62
    7
 10
453.78877417889169
 20
443.2878017043613
 40
0.5
 50
288.87650363055582
 51
0
  0
ARC
  8
_0-1_
  6
CONTINUOUS
 62
    7
 10
459.2887741788918
 20
427.20209376221601
 40
16.500000000000004
 50
108.87650363055933
 51
116.12349636944074
  0
ARC
  8
_0-1_
  6
CONTINUOUS
 62
    7
 10
451.80354830934061
 20
442.46549422481928
 40
0.5
 50
225.00000000000347
 51
296.12349636944333
  0
LINE
  8
_0-1_
  6
CONTINUOUS
 62
    7
 10
454.28877417889169
 20
443.2878017043613
 11
454.28877417889169
 21
450.26721895155742
  0
ARC
  8
_0-1_
  6
CONTINUOUS
 62
    7
 10
454.7887741788918
 20
450.26721895155742
 40
0.5
 50
101.03971441403868
 51
180
  0
LINE
  8
_0-1_
  6
CONTINUOUS
 62
    7
 10
464.2887741788918
 20
443.2878017043613
 11
464.2887741788918
 21
450.26721895155742
  0
ARC
  8
_0-1_
  6
CONTINUOUS
 62
    7
 10
459.2887741788918
 20
427.20209376221601
 40
24.000000000000007
 50
78.960285585967029
 51
101.0397144140331
  0
ARC
  8
_0-1_
  6
CONTINUOUS
 62
    7
 10
463.78877417889157
 20
450.26721895155742
 40
0.5
 50
0
 51
78.960285585961316
  0
ARC
  8
_0-1_
  6
CONTINUOUS
 62
    7
 10
459.2887741788918
 20
427.20209376221601
 40
21.000000000000004
 50
76.225853001973277
 51
103.77414699802672
  0
ARC
  8
_0-1_
  6
CONTINUOUS
 62
    7
 10
444.02537371628864
 20
434.68731963176731
 40
0.5
 50
333.87650363055582
 51
45
  0
ARC
  8
_0-1_
  6
CONTINUOUS
 62
    7
 10
459.2887741788918
 20
427.20209376221601
 40
16.500000000000004
 50
153.87650363055931
 51
161.12349636944074
  0
ARC
  8
_0-1_
  6
CONTINUOUS
 62
    7
 10
443.20306623674639
 20
432.70209376221578
 40
0.5
 50
270.00000000000347
 51
341.12349636944333
  0
LINE
  8
_0-1_
  6
CONTINUOUS
 62
    7
 10
444.37892710688186
 20
435.04087302236064
 11
439.44373384265873
 21
439.9760662865832
  0
ARC
  8
_0-1_
  6
CONTINUOUS
 62
    7
 10
439.79728723325206
 20
440.32961967717642
 40
0.5
 50
146.03971441403866
 51
225
  0
LINE
  8
_0-1_
  6
CONTINUOUS
 62
    7
 10
451.44999491874728
 20
442.11194083422595
 11
446.51480165452438
 21
447.04713409844874
  0
ARC
  8
_0-1_
  6
CONTINUOUS
 62
    7
 10
459.2887741788918
 20
427.20209376221601
 40
24.000000000000007
 50
123.96028558596703
 51
146.03971441403309
  0
ARC
  8
_0-1_
  6
CONTINUOUS
 62
    7
 10
446.16124826393116
 20
446.69358070785552
 40
0.5
 50
45
 51
123.96028558596133
  0
ARC
  8
_0-1_
  6
CONTINUOUS
 62
    7
 10
459.2887741788918
 20
427.20209376221601
 40
21.000000000000004
 50
121.22585300197328
 51
148.77414699802674
  0
ARC
  8
_0-1_
  6
CONTINUOUS
 62
    7
 10
443.20306623674639
 20
421.7020937622159
 40
0.5
 50
18.876503630555842
 51
90
  0
ARC
  8
_0-1_
  6
CONTINUOUS
 62
    7
 10
459.2887741788918
 20
427.20209376221601
 40
16.500000000000004
 50
198.87650363055931
 51
206.12349636944074
  0
ARC
  8
_0-1_
  6
CONTINUOUS
 62
    7
 10
444.02537371628864
 20
419.71686789266471
 40
0.5
 50
315.00000000000347
 51
26.123496369443345
  0
LINE
  8
_0-1_
  6
CONTINUOUS
 62
    7
 10
443.20306623674639
 20
432.2020937622159
 11
436.22364898955027
 21
432.2020937622159
  0
ARC
  8
_0-1_
  6
CONTINUOUS
 62
    7
 10
459.2887741788918
 20
427.20209376221601
 40
24.000000000000007
 50
168.96028558596703
 51
191.03971441403309
  0
ARC
  8
_0-1_
  6
CONTINUOUS
 62
    7
 10
436.22364898955027
 20
431.70209376221601
 40
0.5
 50
90
 51
168.96028558596134
  0
ARC
  8
_0-1_
  6
CONTINUOUS
 62
    7
 10
459.2887741788918
 20
427.20209376221601
 40
21.000000000000004
 50
166.22585300197326
 51
193.77414699802674
  0
ARC
  8
_0-1_
  6
CONTINUOUS
 62
    7
 10
453.78877417889169
 20
411.11638582007049
 40
0.5
 50
0.0000000000034604
 51
71.123496369443345
  0
LINE
  8
_0-1_
  6
CONTINUOUS
 62
    7
 10
444.37892710688186
 20
419.36331450207138
 11
439.44373384265873
 21
414.42812123784859
  0
ARC
  8
_0-1_
  6
CONTINUOUS
 62
    7
 10
459.2887741788918
 20
427.20209376221601
 40
24.000000000000007
 50
213.96028558596703
 51
236.03971441403306
  0
ARC
  8
_0-1_
  6
CONTINUOUS
 62
    7
 10
439.79728723325206
 20
414.07456784725525
 40
0.5
 50
135
 51
213.96028558596134
  0
ARC
  8
_0-1_
  6
CONTINUOUS
 62
    7
 10
459.2887741788918
 20
427.20209376221601
 40
21.000000000000004
 50
211.22585300197326
 51
238.77414699802674
  0
ARC
  8
_0-1_
  6
CONTINUOUS
 62
    7
 10
464.78877417889191
 20
411.11638582007049
 40
0.5
 50
108.87650363055585
 51
180
  0
ARC
  8
_0-1_
  6
CONTINUOUS
 62
    7
 10
459.2887741788918
 20
427.20209376221601
 40
16.500000000000004
 50
288.87650363055934
 51
296.12349636944077
  0
ARC
  8
_0-1_
  6
CONTINUOUS
 62
    7
 10
466.77400004844287
 20
411.93869329961274
 40
0.5
 50
45.00000000000346
 51
116.12349636944334
  0
LINE
  8
_0-1_
  6
CONTINUOUS
 62
    7
 10
464.2887741788918
 20
411.11638582007049
 11
464.2887741788918
 21
404.13696857287437
  0
ARC
  8
_0-1_
  6
CONTINUOUS
 62
    7
 10
463.78877417889157
 20
404.13696857287437
 40
0.5
 50
281.03971441403866
 51
0
  0
LINE
  8
_0-1_
  6
CONTINUOUS
 62
    7
 10
454.28877417889169
 20
411.11638582007049
 11
454.28877417889169
 21
404.13696857287437
  0
ARC
  8
_0-1_
  6
CONTINUOUS
 62
    7
 10
459.2887741788918
 20
427.20209376221601
 40
24.000000000000007
 50
258.96028558596703
 51
281.03971441403309
  0
ARC
  8
_0-1_
  6
CONTINUOUS
 62
    7
 10
454.7887741788918
 20
404.13696857287437
 40
0.5
 50
180
 51
258.96028558596134
  0
ARC
  8
_0-1_
  6
CONTINUOUS
 62
    7
 10
459.2887741788918
 20
427.20209376221601
 40
21.000000000000004
 50
256.22585300197329
 51
283.77414699802671
  0
ARC
  8
_0-1_
  6
CONTINUOUS
 62
    7
 10
474.55217464149484
 20
419.71686789266471
 40
0.5
 50
153.87650363055585
 51
225
  0
ARC
  8
_0-1_
  6
CONTINUOUS
 62
    7
 10
459.2887741788918
 20
427.20209376221601
 40
16.500000000000004
 50
333.87650363055934
 51
341.12349636944077
  0
ARC
  8
_0-1_
  6
CONTINUOUS
 62
    7
 10
475.37448212103709
 20
421.7020937622159
 40
0.5
 50
90.000000000003467
 51
161.12349636944336
  0
LINE
  8
_0-1_
  6
CONTINUOUS
 62
    7
 10
474.19862125090174
 20
419.36331450207138
 11
479.13381451512464
 21
414.42812123784859
  0
ARC
  8
_0-1_
  6
CONTINUOUS
 62
    7
 10
478.78026112453153
 20
414.07456784725525
 40
0.5
 50
326.03971441403871
 51
45
  0
LINE
  8
_0-1_
  6
CONTINUOUS
 62
    7
 10
467.12755343903677
 20
412.29224669020573
 11
472.06274670325922
 21
407.35705342598328
  0
ARC
  8
_0-1_
  6
CONTINUOUS
 62
    7
 10
459.2887741788918
 20
427.20209376221601
 40
24.000000000000007
 50
303.96028558596703
 51
326.03971441403309
  0
ARC
  8
_0-1_
  6
CONTINUOUS
 62
    7
 10
472.41630009385233
 20
407.71060681657627
 40
0.5
 50
225
 51
303.96028558596129
  0
ARC
  8
_0-1_
  6
CONTINUOUS
 62
    7
 10
459.2887741788918
 20
427.20209376221601
 40
21.000000000000004
 50
301.22585300197329
 51
328.77414699802671
  0
ARC
  8
_0-1_
  6
CONTINUOUS
 62
    7
 10
475.37448212103709
 20
432.70209376221578
 40
0.5
 50
198.87650363055585
 51
270
  0
ARC
  8
_0-1_
  6
CONTINUOUS
 62
    7
 10
459.2887741788918
 20
427.20209376221601
 40
16.500000000000004
 50
18.876503630559334
 51
26.123496369440748
  0
ARC
  8
_0-1_
  6
CONTINUOUS
 62
    7
 10
474.55217464149484
 20
434.68731963176731
 40
0.5
 50
135.00000000000347
 51
206.12349636944336
  0
LINE
  8
_0-1_
  6
CONTINUOUS
 62
    7
 10
475.37448212103709
 20
432.2020937622159
 11
482.35389936823321
 21
432.2020937622159
  0
ARC
  8
_0-1_
  6
CONTINUOUS
 62
    7
 10
482.35389936823321
 20
431.70209376221601
 40
0.5
 50
11.039714414038682
 51
90
  0
LINE
  8
_0-1_
  6
CONTINUOUS
 62
    7
 10
475.37448212103709
 20
422.20209376221578
 11
482.35389936823321
 21
422.20209376221578
  0
ARC
  8
_0-1_
  6
CONTINUOUS
 62
    7
 10
459.2887741788918
 20
427.20209376221601
 40
24.000000000000007
 50
348.96028558596703
 51
11.039714414033094
  0
ARC
  8
_0-1_
  6
CONTINUOUS
 62
    7
 10
482.35389936823321
 20
422.70209376221601
 40
0.5
 50
270
 51
348.96028558596134
  0
ARC
  8
_0-1_
  6
CONTINUOUS
 62
    7
 10
459.2887741788918
 20
427.20209376221601
 40
21.000000000000004
 50
346.22585300197329
 51
13.774146998026728
  0
ARC
  8
_0-1_
  6
CONTINUOUS
 62
    7
 10
466.77400004844287
 20
442.46549422481928
 40
0.5
 50
243.87650363055585
 51
315
  0
ARC
  8
_0-1_
  6
CONTINUOUS
 62
    7
 10
459.2887741788918
 20
427.20209376221601
 40
16.500000000000004
 50
63.876503630559327
 51
71.123496369440744
  0
ARC
  8
_0-1_
  6
CONTINUOUS
 62
    7
 10
464.78877417889191
 20
443.2878017043613
 40
0.5
 50
180.00000000000347
 51
251.12349636944333
  0
LINE
  8
_0-1_
  6
CONTINUOUS
 62
    7
 10
467.12755343903677
 20
442.11194083422595
 11
472.06274670325922
 21
447.04713409844874
  0
ARC
  8
_0-1_
  6
CONTINUOUS
 62
    7
 10
472.41630009385233
 20
446.69358070785552
 40
0.5
 50
56.039714414038684
 51
135
  0
LINE
  8
_0-1_
  6
CONTINUOUS
 62
    7
 10
474.19862125090174
 20
435.04087302236064
 11
479.13381451512464
 21
439.9760662865832
  0
ARC
  8
_0-1_
  6
CONTINUOUS
 62
    7
 10
459.2887741788918
 20
427.20209376221601
 40
24.000000000000007
 50
33.960285585967029
 51
56.039714414033099
  0
ARC
  8
_0-1_
  6
CONTINUOUS
 62
    7
 10
478.78026112453153
 20
440.32961967717642
 40
0.5
 50
315
 51
33.960285585961316
  0
ARC
  8
_0-1_
  6
CONTINUOUS
 62
    7
 10
459.2887741788918
 20
427.20209376221601
 40
21.000000000000004
 50
31.225853001973274
 51
58.77414699802673
  0
CIRCLE
  8
_0-1_
  6
CONTINUOUS
 62
    7
 10
459.2887741788918
 20
427.20209376221601
 40
10
  0
LINE
  8
_0-1_
  6
CENTER1
 62
  152
 10
459.2887741788918
 20
366.50406997892736
 11
459.2887741788918
 21
466.73673586904368
  0
LINE
  8
_0-1_
  6
CONTINUOUS
 62
    7
 10
462.75287579402971
 20
433.20209376221601
 11
455.82467256375435
 21
433.20209376221601
  0
LINE
  8
_0-1_
  6
CONTINUOUS
 62
    7
 10
466.21697740916727
 20
427.20209376221601
 11
462.75287579402971
 21
433.20209376221601
  0
LINE
  8
_0-1_
  6
CONTINUOUS
 62
    7
 10
466.21697740916727
 20
427.20209376221601
 11
462.75287579402971
 21
421.20209376221601
  0
LINE
  8
_0-1_
  6
CONTINUOUS
 62
    7
 10
462.75287579402971
 20
421.20209376221601
 11
455.82467256375435
 21
421.20209376221601
  0
LINE
  8
_0-1_
  6
CONTINUOUS
 62
    7
 10
455.82467256375435
 20
421.20209376221601
 11
452.36057094861633
 21
427.20209376221601
  0
LINE
  8
_0-1_
  6
CONTINUOUS
 62
    7
 10
455.82467256375435
 20
433.20209376221601
 11
452.36057094861633
 21
427.20209376221601
  0
CIRCLE
  8
_0-1_
  6
CONTINUOUS
 62
    7
 10
459.2887741788918
 20
427.20209376221601
 40
5
  0
LINE
  8
_0-1_
  6
CONTINUOUS
 62
    7
 10
438.28877417889157
 20
377.4867009584259
 11
435.28877417889191
 21
375.75465015085723
  0
LINE
  8
_0-1_
  6
CONTINUOUS
 62
    7
 10
435.28877417889191
 20
375.75465015085723
 11
435.28877417889191
 21
371.48670095842584
  0
LINE
  8
_0-1_
  6
CONTINUOUS
 62
    7
 10
438.28877417889157
 20
377.4867009584259
 11
459.2887741788918
 21
377.4867009584259
  0
LINE
  8
_0-1_
  6
CONTINUOUS
 62
    7
 10
435.28877417889191
 20
371.48670095842584
 11
459.2887741788918
 21
371.48670095842584
  0
LINE
  8
_0-1_
  6
CONTINUOUS
 62
    7
 10
439.29728723325252
 20
375.75465015085723
 11
441.33103517110339
 21
377.4867009584259
  0
LINE
  8
_0-1_
  6
CONTINUOUS
 62
    7
 10
438.81538499028079
 20
377.4867009584259
 11
435.81538499028056
 21
375.75465015085723
  0
LINE
  8
_0-1_
  6
CONTINUOUS
 62
    7
 10
435.81538499028056
 20
375.75465015085723
 11
435.81538499028056
 21
371.48670095842584
  0
LINE
  8
_0-1_
  6
CONTINUOUS
 62
    7
 10
439.29728723325252
 20
375.75465015085723
 11
439.29728723325252
 21
371.48670095842584
  0
LINE
  8
_0-1_
  6
CONTINUOUS
 62
    7
 10
446.22611541212689
 20
375.75465015085723
 11
446.22611541212689
 21
371.48670095842584
  0
LINE
  8
_0-1_
  6
CONTINUOUS
 62
    7
 10
446.22611541212689
 20
375.75465015085723
 11
448.40210298296881
 21
377.4867009584259
  0
LINE
  8
_0-1_
  6
CONTINUOUS
 62
    7
 10
435.28877417889191
 20
375.75465015085723
 11
435.81538499028056
 21
375.75465015085723
  0
LINE
  8
_0-1_
  6
CONTINUOUS
 62
    7
 10
439.29728723325252
 20
375.75465015085723
 11
446.22611541212689
 21
375.75465015085723
  0
LINE
  8
_0-1_
  6
CONTINUOUS
 62
    7
 10
454.28877417889169
 20
377.4867009584259
 11
454.28877417889169
 21
371.48670095842584
  0
LINE
  8
_0-1_
  6
CONTINUOUS
 62
    7
 10
454.28877417889169
 20
375.75465015085723
 11
459.2887741788918
 21
375.75465015085723
  0
LINE
  8
_0-1_
  6
CONTINUOUS
 62
    7
 10
451.70563010585568
 20
377.4867009584259
 11
451.70563010585568
 21
371.48670095842584
  0
ARC
  8
_0-1_
  6
CONTINUOUS
 62
    7
 10
446.16124826393116
 20
407.71060681657627
 40
0.5
 50
236.03971441403866
 51
315.00000000000227
  0
LINE
  8
_0-1_
  6
CONTINUOUS
 62
    7
 10
451.44999491874728
 20
412.29224669020573
 11
446.51480165452438
 21
407.35705342598328
  0
ARC
  8
_0-1_
  6
CONTINUOUS
 62
    7
 10
436.22364898955027
 20
422.70209376221601
 40
0.5
 50
191.03971441403866
 51
270
  0
LINE
  8
_0-1_
  6
CONTINUOUS
 62
    7
 10
443.20306623674639
 20
422.20209376221578
 11
436.22364898955027
 21
422.20209376221578
  0
ARC
  8
_0-1_
  6
CONTINUOUS
 62
    7
 10
451.80354830934061
 20
411.93869329961274
 40
0.5
 50
63.87650363055667
 51
135
  0
ARC
  8
_0-1_
  6
CONTINUOUS
 62
    7
 10
459.2887741788918
 20
427.20209376221601
 40
16.500000000000004
 50
243.87650363055934
 51
251.12349636944074
  0
LINE
  8
_0-1_
  6
CONTINUOUS
 62
    7
 10
452.36057094861633
 20
383.4867009584259
 11
452.36057094861633
 21
377.4867009584259
  0
LINE
  8
_0-1_
  6
CONTINUOUS
 62
    7
 10
455.82467256375435
 20
383.4867009584259
 11
455.82467256375435
 21
377.4867009584259
  0
LINE
  8
_0-1_
  6
CONTINUOUS
 62
    7
 10
452.36057094861633
 20
383.4867009584259
 11
459.2887741788918
 21
383.4867009584259
  0
LINE
  8
_0-1_
  6
CONTINUOUS
 62
    7
 10
454.28877417889169
 20
383.4867009584259
 11
454.28877417889169
 21
391.60175386025639
  0
LINE
  8
_0-1_
  6
CONTINUOUS
 62
    7
 10
480.28877417889191
 20
377.4867009584259
 11
483.28877417889157
 21
375.75465015085723
  0
LINE
  8
_0-1_
  6
CONTINUOUS
 62
    7
 10
483.28877417889157
 20
375.75465015085723
 11
483.28877417889157
 21
371.48670095842584
  0
LINE
  8
_0-1_
  6
CONTINUOUS
 62
    7
 10
480.28877417889191
 20
377.4867009584259
 11
459.2887741788918
 21
377.4867009584259
  0
LINE
  8
_0-1_
  6
CONTINUOUS
 62
    7
 10
483.28877417889157
 20
371.48670095842584
 11
459.2887741788918
 21
371.48670095842584
  0
LINE
  8
_0-1_
  6
CONTINUOUS
 62
    7
 10
479.28026112453108
 20
375.75465015085723
 11
477.24651318668066
 21
377.4867009584259
  0
LINE
  8
_0-1_
  6
CONTINUOUS
 62
    7
 10
479.76216336750281
 20
377.4867009584259
 11
482.76216336750281
 21
375.75465015085723
  0
LINE
  8
_0-1_
  6
CONTINUOUS
 62
    7
 10
482.76216336750281
 20
375.75465015085723
 11
482.76216336750281
 21
371.48670095842584
  0
LINE
  8
_0-1_
  6
CONTINUOUS
 62
    7
 10
479.28026112453108
 20
375.75465015085723
 11
479.28026112453108
 21
371.48670095842584
  0
LINE
  8
_0-1_
  6
CONTINUOUS
 62
    7
 10
472.35143294565671
 20
375.75465015085723
 11
472.35143294565671
 21
371.48670095842584
  0
LINE
  8
_0-1_
  6
CONTINUOUS
 62
    7
 10
472.35143294565671
 20
375.75465015085723
 11
470.17544537481524
 21
377.4867009584259
  0
LINE
  8
_0-1_
  6
CONTINUOUS
 62
    7
 10
483.28877417889157
 20
375.75465015085723
 11
482.76216336750281
 21
375.75465015085723
  0
LINE
  8
_0-1_
  6
CONTINUOUS
 62
    7
 10
479.28026112453108
 20
375.75465015085723
 11
472.35143294565671
 21
375.75465015085723
  0
LINE
  8
_0-1_
  6
CONTINUOUS
 62
    7
 10
464.2887741788918
 20
377.4867009584259
 11
464.2887741788918
 21
371.48670095842584
  0
LINE
  8
_0-1_
  6
CONTINUOUS
 62
    7
 10
464.2887741788918
 20
375.75465015085723
 11
459.2887741788918
 21
375.75465015085723
  0
LINE
  8
_0-1_
  6
CONTINUOUS
 62
    7
 10
466.87191825192781
 20
377.4867009584259
 11
466.87191825192781
 21
371.48670095842584
  0
LINE
  8
_0-1_
  6
CONTINUOUS
 62
    7
 10
466.21697740916727
 20
383.4867009584259
 11
466.21697740916727
 21
377.4867009584259
  0
LINE
  8
_0-1_
  6
CONTINUOUS
 62
    7
 10
462.75287579402971
 20
383.4867009584259
 11
462.75287579402971
 21
377.4867009584259
  0
LINE
  8
_0-1_
  6
CONTINUOUS
 62
    7
 10
466.21697740916727
 20
383.4867009584259
 11
459.2887741788918
 21
383.4867009584259
  0
LINE
  8
_0-1_
  6
CONTINUOUS
 62
    7
 10
464.2887741788918
 20
383.4867009584259
 11
464.2887741788918
 21
391.60175386025639
  0
ENDSEC
  0
EOF
