  0
SECTION
  2
HEADER
  9
$ACADVER
  1
AC1009
  9
$INSBASE
 10
0
 20
0
 30
0
  9
$EXTMIN
 10
0
 20
0
  9
$EXTMAX
 10
1189
 20
841
  9
$LIMMIN
 10
0
 20
0
  9
$LIMMAX
 10
1189
 20
841
  9
$LTSCALE
 40
1
  0
ENDSEC
  0
SECTION
  2
TABLES
  0
TABLE
  2
LTYPE
 70
     9
  0
LTYPE
  2
CONTINUOUS
 70
    64
  3
実線
 72
    65
 73
     0
 40
0.0
  0
LTYPE
  2
DASHED1
 70
    64
  3
--  --  --  --  --  --  --  --  
 72
    65
 73
     2
 40
2.5
 49
1.25
 49
-1.25
  0
LTYPE
  2
DASHED2
 70
    64
  3
----    ----    ----    ----    
 72
    65
 73
     2
 40
5.0
 49
2.5
 49
-2.5
  0
LTYPE
  2
DASHED3
 70
    64
  3
------  ------  ------  ------  
 72
    65
 73
     2
 40
5.0
 49
3.75
 49
-1.25
  0
LTYPE
  2
CENTER1
 70
    64
  3
----- - ----- - ----- - ----- - 
 72
    65
 73
     4
 40
10.0
 49
6.25
 49
-1.25
 49
1.25
 49
-1.25
  0
LTYPE
  2
CENTER2
 70
    64
  3
----------  --  ----------  --  
 72
    65
 73
     4
 40
20.0
 49
12.5
 49
-2.5
 49
2.5
 49
-2.5
  0
LTYPE
  2
PHANTOM1
 70
    64
  3
--- - - --- - - --- - - --- - - 
 72
    65
 73
     6
 40
10.0
 49
3.25
 49
-1.25
 49
1.25
 49
-1.25
 49
1.25
 49
-1.25
  0
LTYPE
  2
PHANTOM2
 70
    64
  3
--------  -  -  --------  -  -  
 72
    65
 73
     6
 40
20.0
 49
10.0
 49
-2.5
 49
1.25
 49
-2.5
 49
1.25
 49
-2.5
  0
LTYPE
  2
DOT
 70
    64
  3
-   -   -   -   -   -   -   -   
 72
    65
 73
     2
 40
2.5
 49
0.625
 49
-1.875
  0
LTYPE
  2
DUMMY
 70
    64
  3
ダミー
 72
    65
 73
     0
 40
0.0
  0
LTYPE
  2
RAND1
 70
    64
  3
ランダム線1
 72
    65
 73
     4
 40
10.0
 49
1.0
 49
-2.0
 49
3.0
 49
-4.0
  0
LTYPE
  2
RAND2
 70
    64
  3
ランダム線2
 72
    65
 73
     4
 40
14.0
 49
2.0
 49
-3.0
 49
4.0
 49
-5.0
  0
LTYPE
  2
RAND3
 70
    64
  3
ランダム線3
 72
    65
 73
     4
 40
18.0
 49
3.0
 49
-4.0
 49
5.0
 49
-6.0
  0
LTYPE
  2
RAND4
 70
    64
  3
ランダム線4
 72
    65
 73
     4
 40
22.0
 49
4.0
 49
-5.0
 49
6.0
 49
-7.0
  0
LTYPE
  2
RAND5
 70
    64
  3
ランダム線5
 72
    65
 73
     4
 40
26.0
 49
5.0
 49
-6.0
 49
7.0
 49
-8.0
  0
LTYPE
  2
LONG1
 70
    64
  3
----------  --  ----------  --  
 72
    65
 73
     4
 40
40.0
 49
32.5
 49
-2.5
 49
2.5
 49
-2.5
  0
LTYPE
  2
LONG2
 70
    64
  3
--------  -  -  --------  -  -  
 72
    65
 73
     6
 40
40.0
 49
30.0
 49
-2.5
 49
1.25
 49
-2.5
 49
1.25
 49
-2.5
  0
LTYPE
  2
LONG3
 70
    64
  3
+++++++++++++++..+++++++++++++++
 72
    65
 73
     2
 40
40.0
 49
37.5
 49
-2.5
  0
LTYPE
  2
LONG4
 70
    64
  3
+++++++++++++++..+++++++++++++++
 72
    65
 73
     2
 40
80.0
 49
75.0
 49
-5.0
  0
LTYPE
  2
LONG5
 70
    64
  3
----------  --  ----------  --  
 72
    65
 73
     4
 40
60.0
 49
37.5
 49
-7.5
 49
7.5
 49
-7.5
  0
LTYPE
  2
dashed
 70
   64
  3
-------   -------------   ------
 72
   65
 73
    2
 40
7.5
 49
6
 49
-1.5
  0
LTYPE
  2
dashed_spaced
 70
   64
  3
----        --------        ----
 72
   65
 73
    2
 40
12
 49
6
 49
-6
  0
LTYPE
  2
long_dashed_dotted
 70
   64
  3
------------- --- --------------
 72
   65
 73
    4
 40
15.25
 49
12
 49
-1.5
 49
0.25
 49
-1.5
  0
LTYPE
  2
long_dashed_double-dotted
 70
   64
  3
----------- --- --- ------------
 72
   65
 73
    6
 40
17
 49
12
 49
-1.5
 49
0.25
 49
-1.5
 49
0.25
 49
-1.5
  0
LTYPE
  2
long_dashed_triplicate-dotted
 70
   64
  3
--------- --- --- --- ----------
 72
   65
 73
    8
 40
18.75
 49
12
 49
-1.5
 49
0.25
 49
-1.5
 49
0.25
 49
-1.5
 49
0.25
 49
-1.5
  0
LTYPE
  2
dotted
 70
   64
  3
   -       -       -       -    
 72
   65
 73
    2
 40
1.75
 49
0.25
 49
-1.5
  0
LTYPE
  2
chain
 70
   64
  3
-------------- -- --------------
 72
   65
 73
    4
 40
18.5
 49
12
 49
-1.5
 49
3.5
 49
-1.5
  0
LTYPE
  2
chain_double_dash
 70
   64
  3
------------ -- -- -------------
 72
   65
 73
    6
 40
23.5
 49
12
 49
-1.5
 49
3.5
 49
-1.5
 49
3.5
 49
-1.5
  0
LTYPE
  2
dashed_dotted
 70
   64
  3
-----------     -     ----------
 72
   65
 73
    4
 40
9.25
 49
6
 49
-1.5
 49
0.25
 49
-1.5
  0
LTYPE
  2
double-dashed_dotted
 70
   64
  3
------   -----------   -   -----
 72
   65
 73
    6
 40
16.75
 49
6
 49
-1.5
 49
6
 49
-1.5
 49
0.25
 49
-1.5
  0
LTYPE
  2
dashed_double-dotted
 70
   64
  3
---------    -    -    ---------
 72
   65
 73
    6
 40
11
 49
6
 49
-1.5
 49
0.25
 49
-1.5
 49
0.25
 49
-1.5
  0
LTYPE
  2
double-dashed_double-dotted
 70
   64
  3
-----   ---------   -   -   ----
 72
   65
 73
    8
 40
18.5
 49
6
 49
-1.5
 49
6
 49
-1.5
 49
0.25
 49
-1.5
 49
0.25
 49
-1.5
  0
LTYPE
  2
dashed_triplicate-dotted
 70
   64
  3
-------    -    -    -    ------
 72
   65
 73
    8
 40
12.75
 49
6
 49
-1.5
 49
0.25
 49
-1.5
 49
0.25
 49
-1.5
 49
0.25
 49
-1.5
  0
LTYPE
  2
double-dashed_triplicate-dotted
 70
   64
  3
-----  ---------  -  -  -  -----
 72
   65
 73
   10
 40
20.25
 49
6
 49
-1.5
 49
6
 49
-1.5
 49
0.25
 49
-1.5
 49
0.25
 49
-1.5
 49
0.25
 49
-1.5
  0
LTYPE
  2
undefined
 70
   64
  3
--------------------------------
 72
   65
 73
    0
 40
0
  0
ENDTAB
  0
TABLE
  2
STYLE
  5
3
100
AcDbSymbolTable
 70
     1
  0
STYLE
  5
10
100
AcDbSymbolTableRecord
100
AcDbTextStyleTableRecord
  2
STANDARD
 70
     0
 40
0.0
 41
1.0
 50
0.0
 71
     0
 42
0.2
  3
txt
  4
bigfont.shx
  0
STYLE
  5
26
100
AcDbSymbolTableRecord
100
AcDbTextStyleTableRecord
  2
TATEGAKI
 70
    68
 40
0.0
 41
1.0
 50
0.0
 71
     0
 42
1.0
  3
txt
  4
bigfont.shx
  0
ENDTAB
  0
TABLE
  2
LAYER
 70
    3
  0
LAYER
  2
_0-1_
 70
   64
 62
    7
  6
CONTINUOUS
  0
LAYER
  2
_0-f_
 70
   64
 62
    7
  6
CONTINUOUS
  0
LAYER
  2
ADD_LINE
 70
   64
 62
    7
  6
CONTINUOUS
  0
ENDTAB
  0
ENDSEC
  0
SECTION
  2
BLOCKS
  0
ENDSEC
  0
SECTION
  2
ENTITIES
  0
LINE
  8
_0-1_
  6
CONTINUOUS
 62
    7
 10
353.75803862315411
 20
268.88109839673723
 11
218.14812206878105
 21
268.88109839673723
  0
LINE
  8
_0-1_
  6
CONTINUOUS
 62
    7
 10
294.14812206878128
 20
200.88109839673726
 11
294.68145540211412
 21
208.88109839673731
  0
LINE
  8
_0-1_
  6
CONTINUOUS
 62
    7
 10
294.14812206878128
 20
200.88109839673726
 11
243.89941076281661
 21
200.88109839673726
  0
LINE
  8
_0-1_
  6
CONTINUOUS
 62
    7
 10
243.89941076281661
 20
200.88109839673726
 11
243.89941076281661
 21
208.88109839673731
  0
LINE
  8
_0-1_
  6
CONTINUOUS
 62
    7
 10
361.14812206878116
 20
265.08109839673727
 11
357.68402045364343
 21
263.08109839673722
  0
LINE
  8
_0-1_
  6
CONTINUOUS
 62
    7
 10
354.62406402693819
 20
268.38109839673723
 11
357.68402045364343
 21
263.08109839673722
  0
ARC
  8
_0-1_
  6
CONTINUOUS
 62
    7
 10
353.75803862315411
 20
267.88109839673712
 40
1
 50
30.000000000000068
 51
90.000000000000057
  0
LINE
  8
_0-1_
  6
CONTINUOUS
 62
    7
 10
358.08816564207621
 20
270.38109839673712
 11
361.14812206878116
 21
265.08109839673727
  0
ARC
  8
_0-1_
  6
CONTINUOUS
 62
    7
 10
353.75803862315411
 20
267.88109839673712
 40
5
 50
30.00000000000027
 51
90
  0
LINE
  8
_0-1_
  6
CONTINUOUS
 62
    7
 10
353.75803862315411
 20
272.88109839673712
 11
218.14812206878105
 21
272.88109839673712
  0
LINE
  8
_0-1_
  6
CONTINUOUS
 62
    7
 10
218.14812206878105
 20
268.88109839673723
 11
218.14812206878105
 21
272.88109839673712
  0
LINE
  8
_0-1_
  6
PHANTOM1
 62
  152
 10
294.14812206878128
 20
183.8810983967372
 11
296.14812206878116
 21
213.8810983967372
  0
LINE
  8
_0-1_
  6
PHANTOM1
 62
  152
 10
294.14812206878128
 20
183.8810983967372
 11
243.89941076281661
 21
183.8810983967372
  0
LINE
  8
_0-1_
  6
CONTINUOUS
 62
    7
 10
265.71195629281692
 20
200.88109839673726
 11
265.71195629281692
 21
208.88109839673731
  0
LINE
  8
_0-1_
  6
CONTINUOUS
 62
    7
 10
266.64812206881652
 20
200.88109839673726
 11
266.64812206881652
 21
208.88109839673731
  0
LINE
  8
_0-1_
  6
CONTINUOUS
 62
    7
 10
270.58428784474518
 20
200.88109839673726
 11
270.58428784474518
 21
208.88109839673731
  0
LINE
  8
_0-1_
  6
CONTINUOUS
 62
    7
 10
269.64812206874558
 20
200.88109839673726
 11
269.64812206874558
 21
208.88109839673731
  0
LINE
  8
_0-1_
  6
CONTINUOUS
 62
    7
 10
297.14812206878082
 20
268.88109839673723
 11
294.14812206878128
 21
265.88109839673723
  0
LINE
  8
_0-1_
  6
CONTINUOUS
 62
    7
 10
294.14812206878128
 20
265.88109839673723
 11
268.14812206878105
 21
265.88109839673723
  0
LINE
  8
_0-1_
  6
CONTINUOUS
 62
    7
 10
239.14812206878128
 20
268.88109839673723
 11
242.14812206878082
 21
265.88109839673723
  0
LINE
  8
_0-1_
  6
CONTINUOUS
 62
    7
 10
242.14812206878082
 20
265.88109839673723
 11
268.14812206878105
 21
265.88109839673723
  0
LINE
  8
_0-1_
  6
CONTINUOUS
 62
    7
 10
239.59149774175489
 20
264.88109839673723
 11
268.14812206878105
 21
264.88109839673723
  0
LINE
  8
_0-1_
  6
CONTINUOUS
 62
    7
 10
238.14812206878105
 20
262.38109839673723
 11
239.59149774175489
 21
264.88109839673723
  0
LINE
  8
_0-1_
  6
CONTINUOUS
 62
    7
 10
298.14812206878105
 20
264.88109839673723
 11
268.14812206878105
 21
264.88109839673723
  0
LINE
  8
_0-1_
  6
CONTINUOUS
 62
    7
 10
298.14812206878105
 20
253.88109839673723
 11
298.14812206878105
 21
264.88109839673723
  0
ARC
  8
_0-1_
  6
CONTINUOUS
 62
    7
 10
295.14812206878094
 20
253.88109839673723
 40
3.0000000000000009
 50
270
 51
0
  0
ARC
  8
_0-1_
  6
CONTINUOUS
 62
    7
 10
300.64812206878105
 20
211.88109839673731
 40
3.0000000000000009
 50
270
 51
0
  0
LINE
  8
_0-1_
  6
CONTINUOUS
 62
    7
 10
303.64812206878116
 20
228.31344813285574
 11
303.64812206878116
 21
211.88109839673731
  0
ARC
  8
_0-1_
  6
CONTINUOUS
 62
    7
 10
300.64812206878105
 20
228.31344813285574
 40
3.0000000000000009
 50
0
 51
81.119340849479769
  0
LINE
  8
_0-1_
  6
CONTINUOUS
 62
    7
 10
275.64812206878105
 20
250.88109839673723
 11
295.14812206878094
 21
250.88109839673723
  0
ARC
  8
_0-1_
  6
CONTINUOUS
 62
    7
 10
275.64812206878105
 20
246.8810983967372
 40
4
 50
90
 51
180
  0
LINE
  8
_0-1_
  6
CONTINUOUS
 62
    7
 10
271.64812206878128
 20
239.30463208191262
 11
271.64812206878128
 21
246.8810983967372
  0
LINE
  8
_0-1_
  6
CONTINUOUS
 62
    7
 10
275.03061454768658
 20
235.35258394690814
 11
301.1112527096019
 21
231.27748423410893
  0
ARC
  8
_0-1_
  6
CONTINUOUS
 62
    7
 10
275.64812206878105
 20
239.30463208191262
 40
4
 50
180
 51
261.11934084947967
  0
LINE
  8
_0-1_
  6
CONTINUOUS
 62
    7
 10
244.3238902648493
 20
208.88109839673731
 11
300.64812206878105
 21
208.88109839673731
  0
ARC
  8
_0-1_
  6
CONTINUOUS
 62
    7
 10
244.3238902648493
 20
212.88109839673726
 40
4
 50
180
 51
270
  0
LINE
  8
_0-1_
  6
CONTINUOUS
 62
    7
 10
291.71739092661642
 20
242.60423850559201
 11
288.55374053196317
 21
239.44058811093842
  0
LINE
  8
_0-1_
  6
CONTINUOUS
 62
    7
 10
291.71739092661642
 20
245.51479686870826
 11
291.71739092661642
 21
242.60423850559201
  0
LINE
  8
_0-1_
  6
CONTINUOUS
 62
    7
 10
271.64812206878128
 20
245.51479686870826
 11
291.71739092661642
 21
245.51479686870826
  0
LINE
  8
_0-1_
  6
CONTINUOUS
 62
    7
 10
288.55374053196317
 20
239.44058811093842
 11
271.64812206878128
 21
239.44058811093842
  0
LINE
  8
_0-1_
  6
CONTINUOUS
 62
    7
 10
287.14812206878082
 20
248.17226320024932
 11
287.14812206878082
 21
250.88109839673723
  0
LINE
  8
_0-1_
  6
CONTINUOUS
 62
    7
 10
287.14812206878082
 20
248.17226320024932
 11
271.86224126635625
 21
248.17226320024932
  0
LINE
  8
_0-1_
  6
CONTINUOUS
 62
    7
 10
276.14812206878116
 20
245.51479686870826
 11
276.14812206878116
 21
248.17226320024932
  0
LINE
  8
_0-1_
  6
CONTINUOUS
 62
    7
 10
274.35949576107464
 20
239.44058811093842
 11
274.35949576107464
 21
235.51788648191692
  0
LINE
  8
_0-1_
  6
CONTINUOUS
 62
    7
 10
238.14812206878105
 20
262.38109839673723
 11
298.14812206878105
 21
262.38109839673723
  0
LINE
  8
_0-1_
  6
PHANTOM1
 62
  152
 10
321.9934232610284
 20
190.88109839673731
 11
200.94006668243355
 21
190.88109839673731
  0
CIRCLE
  8
_0-1_
  6
CONTINUOUS
 62
    7
 10
232.64812206878094
 20
82.506695620674407
 40
3.125
  0
LINE
  8
_0-1_
  6
CENTER1
 62
  152
 10
238.16668917921663
 20
82.506695620674407
 11
227.83212407712756
 21
82.506695620674407
  0
LINE
  8
_0-1_
  6
CENTER1
 62
  152
 10
232.64812206878094
 20
87.504001772013737
 11
232.64812206878094
 21
77.894669308667915
  0
LINE
  8
_0-1_
  6
CONTINUOUS
 62
    7
 10
361.14812206878116
 20
125.74933630779407
 11
361.14812206878116
 21
152.50669562067469
  0
LINE
  8
_0-1_
  6
CONTINUOUS
 62
    7
 10
251.3907627559006
 20
152.50669562067469
 11
361.14812206878116
 21
152.50669562067469
  0
ARC
  8
_0-1_
  6
CONTINUOUS
 62
    7
 10
251.3907627559006
 20
149.50669562067452
 40
3.0000000000000009
 50
90
 51
134.99999999999994
  0
LINE
  8
_0-1_
  6
CONTINUOUS
 62
    7
 10
244.9054813816615
 20
9.506695620674634
 11
218.14812206878105
 21
9.506695620674634
  0
ARC
  8
_0-1_
  6
CONTINUOUS
 62
    7
 10
244.9054813816615
 20
12.506695620674634
 40
3.0000000000000009
 50
270
 51
315
  0
LINE
  8
_0-1_
  6
CONTINUOUS
 62
    7
 10
360.26944241234094
 20
123.62801596423441
 11
247.02680172522139
 21
10.385375277114974
  0
ARC
  8
_0-1_
  6
CONTINUOUS
 62
    7
 10
358.14812206878105
 20
125.74933630779407
 40
3.0000000000000009
 50
315.00000000000006
 51
0.0000000000000508
  0
LINE
  8
_0-1_
  6
CONTINUOUS
 62
    7
 10
244.49126781928885
 20
13.506695620674748
 11
218.14812206878105
 21
13.506695620674748
  0
LINE
  8
_0-1_
  6
CONTINUOUS
 62
    7
 10
357.14812206878116
 20
126.16354987016695
 11
357.14812206878116
 21
152.50669562067469
  0
LINE
  8
_0-1_
  6
CONTINUOUS
 62
    7
 10
357.14812206878116
 20
126.16354987016695
 11
244.49126781928885
 21
13.506695620674748
  0
ARC
  8
_0-1_
  6
CONTINUOUS
 62
    7
 10
242.54812206878103
 20
62.50669562067452
 40
4.1499999999999782
 50
270
 51
90
  0
LINE
  8
_0-1_
  6
CONTINUOUS
 62
    7
 10
237.74812206878141
 20
58.356695620674543
 11
242.54812206878103
 21
58.356695620674543
  0
ARC
  8
_0-1_
  6
CONTINUOUS
 62
    7
 10
237.74812206878141
 20
62.50669562067452
 40
4.1499999999999782
 50
90
 51
270
  0
LINE
  8
_0-1_
  6
CONTINUOUS
 62
    7
 10
237.74812206878141
 20
66.656695620674498
 11
242.54812206878103
 21
66.656695620674498
  0
LINE
  8
_0-1_
  6
CENTER1
 62
  152
 10
237.74812206878141
 20
67.634250060187753
 11
237.74812206878141
 21
57.65630628599996
  0
LINE
  8
_0-1_
  6
CENTER1
 62
  152
 10
242.54812206878103
 20
67.634250060187753
 11
242.54812206878103
 21
57.65630628599996
  0
LINE
  8
_0-1_
  6
CENTER1
 62
  152
 10
240.14812206878094
 20
67.634250060187753
 11
240.14812206878094
 21
57.65630628599996
  0
LINE
  8
_0-1_
  6
CENTER1
 62
  152
 10
232.46359733366194
 20
62.50669562067452
 11
247.58889305485172
 21
62.50669562067452
  0
ARC
  8
_0-1_
  6
CONTINUOUS
 62
    7
 10
242.54812206878103
 20
32.50669562067452
 40
4.1499999999999782
 50
270
 51
90
  0
LINE
  8
_0-1_
  6
CONTINUOUS
 62
    7
 10
237.74812206878141
 20
28.356695620674543
 11
242.54812206878103
 21
28.356695620674543
  0
ARC
  8
_0-1_
  6
CONTINUOUS
 62
    7
 10
237.74812206878141
 20
32.50669562067452
 40
4.1499999999999782
 50
90
 51
270
  0
LINE
  8
_0-1_
  6
CONTINUOUS
 62
    7
 10
237.74812206878141
 20
36.656695620674498
 11
242.54812206878103
 21
36.656695620674498
  0
LINE
  8
_0-1_
  6
CENTER1
 62
  152
 10
237.74812206878141
 20
37.634250060187753
 11
237.74812206878141
 21
27.65630628599996
  0
LINE
  8
_0-1_
  6
CENTER1
 62
  152
 10
242.54812206878103
 20
37.634250060187753
 11
242.54812206878103
 21
27.65630628599996
  0
LINE
  8
_0-1_
  6
CENTER1
 62
  152
 10
240.14812206878094
 20
37.634250060187753
 11
240.14812206878094
 21
27.65630628599996
  0
LINE
  8
_0-1_
  6
CENTER1
 62
  152
 10
232.46359733366194
 20
32.50669562067452
 11
247.58889305485172
 21
32.50669562067452
  0
CIRCLE
  8
_0-1_
  6
CONTINUOUS
 62
    7
 10
232.64812206878094
 20
47.50669562067452
 40
3.125
  0
LINE
  8
_0-1_
  6
CENTER1
 62
  152
 10
238.16668917921663
 20
47.50669562067452
 11
227.83212407712756
 21
47.50669562067452
  0
LINE
  8
_0-1_
  6
CENTER1
 62
  152
 10
232.64812206878094
 20
52.504001772013737
 11
232.64812206878094
 21
42.894669308667687
  0
CIRCLE
  8
_0-1_
  6
CONTINUOUS
 62
    7
 10
288.14812206878105
 20
138.00669562067475
 40
3.1249999999999996
  0
LINE
  8
_0-1_
  6
CENTER1
 62
  152
 10
288.14812206878105
 20
132.48812851023905
 11
288.14812206878105
 21
142.82269361232824
  0
LINE
  8
_0-1_
  6
CENTER1
 62
  152
 10
283.15081591744206
 20
138.00669562067475
 11
292.76014838078811
 21
138.00669562067475
  0
ARC
  8
_0-1_
  6
CONTINUOUS
 62
    7
 10
308.14812206878105
 20
128.10669562067477
 40
4.1499999999999755
 50
180.00000000000006
 51
0
  0
LINE
  8
_0-1_
  6
CONTINUOUS
 62
    7
 10
312.29812206878069
 20
132.90669562067484
 11
312.29812206878125
 21
128.10669562067477
  0
ARC
  8
_0-1_
  6
CONTINUOUS
 62
    7
 10
308.14812206878105
 20
132.90669562067484
 40
4.1499999999999755
 50
0.0000000000000381
 51
180
  0
LINE
  8
_0-1_
  6
CONTINUOUS
 62
    7
 10
303.99812206878084
 20
132.90669562067484
 11
303.99812206878141
 21
128.10669562067477
  0
LINE
  8
_0-1_
  6
CENTER1
 62
  152
 10
303.0205676292677
 20
132.90669562067484
 11
312.99851140345584
 21
132.90669562067484
  0
LINE
  8
_0-1_
  6
CENTER1
 62
  152
 10
303.02056762926827
 20
128.10669562067477
 11
312.99851140345584
 21
128.10669562067477
  0
LINE
  8
_0-1_
  6
CENTER1
 62
  152
 10
303.0205676292677
 20
130.50669562067475
 11
312.99851140345584
 21
130.50669562067475
  0
LINE
  8
_0-1_
  6
CENTER1
 62
  152
 10
308.14812206878105
 20
138.19122035579375
 11
308.14812206878105
 21
123.06592463460419
  0
ARC
  8
_0-1_
  6
CONTINUOUS
 62
    7
 10
338.14812206878105
 20
128.10669562067477
 40
4.1499999999999755
 50
180.00000000000006
 51
0
  0
LINE
  8
_0-1_
  6
CONTINUOUS
 62
    7
 10
342.29812206878103
 20
132.90669562067484
 11
342.29812206878125
 21
128.10669562067477
  0
ARC
  8
_0-1_
  6
CONTINUOUS
 62
    7
 10
338.14812206878105
 20
132.90669562067484
 40
4.1499999999999755
 50
0.0000000000000381
 51
180
  0
LINE
  8
_0-1_
  6
CONTINUOUS
 62
    7
 10
333.99812206878084
 20
132.90669562067484
 11
333.99812206878084
 21
128.10669562067477
  0
LINE
  8
_0-1_
  6
CENTER1
 62
  152
 10
333.0205676292677
 20
132.90669562067484
 11
342.99851140345584
 21
132.90669562067484
  0
LINE
  8
_0-1_
  6
CENTER1
 62
  152
 10
333.0205676292677
 20
128.10669562067477
 11
342.99851140345584
 21
128.10669562067477
  0
LINE
  8
_0-1_
  6
CENTER1
 62
  152
 10
333.0205676292677
 20
130.50669562067475
 11
342.99851140345584
 21
130.50669562067475
  0
LINE
  8
_0-1_
  6
CENTER1
 62
  152
 10
338.14812206878105
 20
138.19122035579375
 11
338.14812206878105
 21
123.06592463460419
  0
CIRCLE
  8
_0-1_
  6
CONTINUOUS
 62
    7
 10
323.14812206878105
 20
138.00669562067475
 40
3.1249999999999996
  0
LINE
  8
_0-1_
  6
CENTER1
 62
  152
 10
323.14812206878105
 20
132.48812851023905
 11
323.14812206878105
 21
142.82269361232824
  0
LINE
  8
_0-1_
  6
CENTER1
 62
  152
 10
318.15081591744206
 20
138.00669562067475
 11
327.76014838078811
 21
138.00669562067475
  0
LINE
  8
_0-1_
  6
CENTER1
 62
  152
 10
268.14812206878105
 20
141.28109438448138
 11
268.14812206878105
 21
62.972053513846902
  0
LINE
  8
_0-1_
  6
CENTER1
 62
  152
 10
197.00630724938026
 20
102.50669562067463
 11
308.41406558990275
 21
102.50669562067463
  0
ARC
  8
_0-1_
  6
CONTINUOUS
 62
    7
 10
216.64812206878128
 20
80.50669562067452
 40
1
 50
180
 51
270
  0
LINE
  8
_0-1_
  6
CONTINUOUS
 62
    7
 10
215.64812206878105
 20
87.506695620674634
 11
215.64812206878105
 21
80.50669562067452
  0
ARC
  8
_0-1_
  6
CONTINUOUS
 62
    7
 10
216.64812206878128
 20
87.506695620674634
 40
1
 50
90
 51
180
  0
LINE
  8
_0-1_
  6
CONTINUOUS
 62
    7
 10
216.64812206878128
 20
88.506695620674748
 11
242.75127187038083
 21
88.506695620674748
  0
LINE
  8
_0-1_
  6
CONTINUOUS
 62
    7
 10
242.75127187038083
 20
88.506695620674748
 11
242.75127187038083
 21
79.506695620674634
  0
LINE
  8
_0-1_
  6
CONTINUOUS
 62
    7
 10
216.64812206878128
 20
79.506695620674634
 11
242.75127187038083
 21
79.506695620674634
  0
ARC
  8
_0-1_
  6
CONTINUOUS
 62
    7
 10
216.64812206878128
 20
124.50669562067475
 40
1
 50
90
 51
180
  0
LINE
  8
_0-1_
  6
CONTINUOUS
 62
    7
 10
215.64812206878105
 20
117.50669562067463
 11
215.64812206878105
 21
124.50669562067475
  0
ARC
  8
_0-1_
  6
CONTINUOUS
 62
    7
 10
216.64812206878128
 20
117.50669562067463
 40
1
 50
180
 51
270
  0
LINE
  8
_0-1_
  6
CONTINUOUS
 62
    7
 10
216.64812206878128
 20
116.50669562067452
 11
242.75127187038083
 21
116.50669562067452
  0
LINE
  8
_0-1_
  6
CONTINUOUS
 62
    7
 10
242.75127187038083
 20
116.50669562067452
 11
242.75127187038083
 21
125.50669562067475
  0
LINE
  8
_0-1_
  6
CONTINUOUS
 62
    7
 10
216.64812206878128
 20
125.50669562067475
 11
242.75127187038083
 21
125.50669562067475
  0
ARC
  8
_0-1_
  6
CONTINUOUS
 62
    7
 10
268.14812206878105
 20
102.50669562067463
 40
35.5
 50
220.38250389234636
 51
139.61749610765364
  0
ARC
  8
_0-1_
  6
CONTINUOUS
 62
    7
 10
268.14812206878105
 20
102.50669562067463
 40
29.000000000000004
 50
208.86572741500729
 51
151.13427258499271
  0
ARC
  8
_0-1_
  6
CONTINUOUS
 62
    7
 10
256.14812206878116
 20
91.506695620674748
 40
3.0000000000000009
 50
270
 51
0
  0
LINE
  8
_0-1_
  6
CONTINUOUS
 62
    7
 10
259.14812206878128
 20
113.50669562067475
 11
259.14812206878128
 21
91.506695620674748
  0
ARC
  8
_0-1_
  6
CONTINUOUS
 62
    7
 10
256.14812206878116
 20
113.50669562067475
 40
3.0000000000000009
 50
0
 51
90.000000000000014
  0
LINE
  8
_0-1_
  6
CONTINUOUS
 62
    7
 10
256.14812206878116
 20
116.50669562067452
 11
243.89941076281661
 21
116.50669562067452
  0
LINE
  8
_0-1_
  6
CONTINUOUS
 62
    7
 10
256.14812206878116
 20
88.506695620674748
 11
243.89941076281661
 21
88.506695620674748
  0
ARC
  8
_0-1_
  6
CONTINUOUS
 62
    7
 10
268.14812206878105
 20
102.50669562067463
 40
28.000000000000007
 50
144.69001008646714
 51
150.00000000000003
  0
LINE
  8
_0-1_
  6
CONTINUOUS
 62
    7
 10
266.64812206878128
 20
126.90669562067461
 11
265.71195629143506
 21
130.40051386603676
  0
LINE
  8
_0-1_
  6
CONTINUOUS
 62
    7
 10
269.64812206878082
 20
126.90669562067461
 11
270.58428784612704
 21
130.40051386603676
  0
LINE
  8
_0-1_
  6
CONTINUOUS
 62
    7
 10
269.64812206878082
 20
126.90669562067461
 11
266.64812206878128
 21
126.90669562067461
  0
ARC
  8
_0-1_
  6
CONTINUOUS
 62
    7
 10
268.14812206878105
 20
102.50669562067463
 40
26.000000000000004
 50
94.212603764153329
 51
147.42102960719581
  0
ARC
  8
_0-1_
  6
CONTINUOUS
 62
    7
 10
268.14812206878105
 20
102.50669562067463
 40
28.000000000000007
 50
94.991383090879268
 51
144.69001008646711
  0
LINE
  8
_0-1_
  6
CONTINUOUS
 62
    7
 10
269.39812206878105
 20
128.3066956206747
 11
266.89812206878105
 21
128.3066956206747
  0
LINE
  8
_0-1_
  6
CONTINUOUS
 62
    7
 10
266.89812206878105
 20
131.47974344101971
 11
266.89812206878105
 21
128.3066956206747
  0
LINE
  8
_0-1_
  6
CONTINUOUS
 62
    7
 10
269.39812206878105
 20
131.47974344101971
 11
269.39812206878105
 21
128.3066956206747
  0
LINE
  8
_0-1_
  6
CONTINUOUS
 62
    7
 10
266.64812206878128
 20
78.106695620674657
 11
265.71195629143506
 21
74.612877375312848
  0
LINE
  8
_0-1_
  6
CONTINUOUS
 62
    7
 10
269.64812206878082
 20
78.106695620674657
 11
270.58428784612704
 21
74.612877375312848
  0
LINE
  8
_0-1_
  6
CONTINUOUS
 62
    7
 10
269.64812206878082
 20
78.106695620674657
 11
266.64812206878128
 21
78.106695620674657
  0
LINE
  8
_0-1_
  6
CONTINUOUS
 62
    7
 10
269.39812206878105
 20
76.706695620674566
 11
266.89812206878105
 21
76.706695620674566
  0
LINE
  8
_0-1_
  6
CONTINUOUS
 62
    7
 10
266.89812206878105
 20
73.533647800329561
 11
266.89812206878105
 21
76.706695620674566
  0
LINE
  8
_0-1_
  6
CONTINUOUS
 62
    7
 10
269.39812206878105
 20
73.533647800329561
 11
269.39812206878105
 21
76.706695620674566
  0
ARC
  8
_0-1_
  6
CONTINUOUS
 62
    7
 10
268.14812206878105
 20
102.50669562067463
 40
28.000000000000007
 50
209.99999999999997
 51
265.00861690912075
  0
ARC
  8
_0-1_
  6
CONTINUOUS
 62
    7
 10
268.14812206878105
 20
102.50669562067463
 40
28.000000000000007
 50
274.99138309087925
 51
85.008616909120775
  0
ARC
  8
_0-1_
  6
CONTINUOUS
 62
    7
 10
268.14812206878105
 20
102.50669562067463
 40
26.000000000000004
 50
212.57897039280419
 51
265.7873962358467
  0
ARC
  8
_0-1_
  6
CONTINUOUS
 62
    7
 10
268.14812206878105
 20
102.50669562067463
 40
26.000000000000004
 50
274.2126037641533
 51
85.787396235846643
  0
ARC
  8
_0-1_
  6
CONTINUOUS
 62
   56
 10
230.64812206878105
 20
115.75669562020488
 40
14.000000000000004
 50
74.637512207031264
 51
105.3624725341797
  0
ARC
  8
_0-1_
  6
CONTINUOUS
 62
   56
 10
227.44253182067314
 20
127.42435180344779
 40
1.8999999761581421
 50
105.36247253417969
 51
167.12857806732151
  0
LINE
  8
_0-1_
  6
CONTINUOUS
 62
   56
 10
225.39812206878128
 20
127.00669562067452
 11
225.59027423464318
 21
127.8476031996592
  0
ARC
  8
_0-1_
  6
CONTINUOUS
 62
   56
 10
233.85371231688896
 20
127.42435180344779
 40
1.8999999761581421
 50
12.871421932678484
 51
74.637527465820312
  0
LINE
  8
_0-1_
  6
CONTINUOUS
 62
   56
 10
235.89812206878082
 20
127.00669562067452
 11
235.70596990291892
 21
127.8476031996592
  0
LINE
  8
_0-1_
  6
CONTINUOUS
 62
   56
 10
236.99812206878096
 20
127.00669562067452
 11
224.29812206878114
 21
127.00669562067452
  0
LINE
  8
_0-1_
  6
CONTINUOUS
 62
   56
 10
224.29812206878114
 20
127.00669562067452
 11
224.29812206878114
 21
125.50669562067475
  0
LINE
  8
_0-1_
  6
CONTINUOUS
 62
   56
 10
236.99812206878096
 20
125.50669562067475
 11
236.99812206878096
 21
127.00669562067452
  0
ARC
  8
_0-1_
  6
CONTINUOUS
 62
   56
 10
230.64812206878105
 20
89.256695621144388
 40
14.000000000000004
 50
254.63752746582031
 51
285.36248779296875
  0
ARC
  8
_0-1_
  6
CONTINUOUS
 62
   56
 10
227.44253182067314
 20
77.589039437901704
 40
1.8999999761581421
 50
192.87142193267849
 51
254.63752746582031
  0
LINE
  8
_0-1_
  6
CONTINUOUS
 62
   56
 10
225.39812206878128
 20
78.006695620674748
 11
225.59027423464318
 21
77.165788041690064
  0
ARC
  8
_0-1_
  6
CONTINUOUS
 62
   56
 10
233.85371231688896
 20
77.589039437901704
 40
1.8999999761581421
 50
285.36247253417969
 51
347.12857806732154
  0
LINE
  8
_0-1_
  6
CONTINUOUS
 62
   56
 10
235.89812206878082
 20
78.006695620674748
 11
235.70596990291892
 21
77.165788041690064
  0
LINE
  8
_0-1_
  6
CONTINUOUS
 62
   56
 10
236.99812206878096
 20
78.006695620674748
 11
224.29812206878114
 21
78.006695620674748
  0
LINE
  8
_0-1_
  6
CONTINUOUS
 62
   56
 10
224.29812206878114
 20
78.006695620674748
 11
224.29812206878114
 21
79.506695620674634
  0
LINE
  8
_0-1_
  6
CONTINUOUS
 62
   56
 10
236.99812206878096
 20
79.506695620674634
 11
236.99812206878096
 21
78.006695620674748
  0
LINE
  8
_0-1_
  6
CENTER1
 62
  152
 10
230.64812206878105
 20
133.00669562067452
 11
230.64812206878105
 21
131.82163341964991
  0
LINE
  8
_0-1_
  6
CENTER1
 62
  152
 10
230.64812206878105
 20
131.82163341964991
 11
230.64812206878105
 21
72.946099574436801
  0
LINE
  8
_0-1_
  6
CONTINUOUS
 62
    7
 10
226.88206999952388
 20
129.24064355141701
 11
249.26944241234071
 21
151.62801596423424
  0
LINE
  8
_0-1_
  6
CONTINUOUS
 62
    7
 10
218.14812206878105
 20
79.506695620674634
 11
218.14812206878105
 21
9.506695620674634
  0
ARC
  8
_0-1_
  6
CONTINUOUS
 62
    7
 10
90.781370690781841
 20
255.638457709618
 40
3.0000000000000009
 50
135.00000000000031
 51
180
  0
LINE
  8
_0-1_
  6
CONTINUOUS
 62
    7
 10
88.660050347222523
 20
257.75977805317757
 11
93.281370690781728
 21
262.38109839673723
  0
LINE
  8
_0-1_
  6
CONTINUOUS
 62
    7
 10
152.28137069078161
 20
268.88109839673723
 11
149.28137069078207
 21
265.88109839673723
  0
LINE
  8
_0-1_
  6
CONTINUOUS
 62
    7
 10
149.28137069078207
 20
265.88109839673723
 11
123.28137069078173
 21
265.88109839673723
  0
LINE
  8
_0-1_
  6
CONTINUOUS
 62
    7
 10
94.281370690782069
 20
268.88109839673723
 11
97.2813706907815
 21
265.88109839673723
  0
LINE
  8
_0-1_
  6
CONTINUOUS
 62
    7
 10
97.2813706907815
 20
265.88109839673723
 11
123.28137069078173
 21
265.88109839673723
  0
LINE
  8
_0-1_
  6
CONTINUOUS
 62
    7
 10
94.724746363755571
 20
264.88109839673723
 11
123.28137069078173
 21
264.88109839673723
  0
LINE
  8
_0-1_
  6
CONTINUOUS
 62
    7
 10
93.281370690781728
 20
262.38109839673723
 11
94.724746363755571
 21
264.88109839673723
  0
LINE
  8
_0-1_
  6
CONTINUOUS
 62
    7
 10
87.781370690781614
 20
211.88109839673731
 11
87.781370690781614
 21
255.638457709618
  0
ARC
  8
_0-1_
  6
CONTINUOUS
 62
    7
 10
90.781370690781841
 20
211.88109839673731
 40
3.0000000000000009
 50
180
 51
270
  0
ARC
  8
_0-1_
  6
CONTINUOUS
 62
    7
 10
155.78137069078184
 20
255.638457709618
 40
3.0000000000000009
 50
0
 51
44.999999999999694
  0
LINE
  8
_0-1_
  6
CONTINUOUS
 62
    7
 10
157.90269103434173
 20
257.75977805317757
 11
153.28137069078184
 21
262.38109839673723
  0
LINE
  8
_0-1_
  6
CONTINUOUS
 62
    7
 10
158.78137069078196
 20
211.88109839673731
 11
158.78137069078196
 21
255.638457709618
  0
ARC
  8
_0-1_
  6
CONTINUOUS
 62
    7
 10
155.78137069078184
 20
211.88109839673731
 40
3.0000000000000009
 50
270
 51
0
  0
LINE
  8
_0-1_
  6
CONTINUOUS
 62
    7
 10
151.837995017808
 20
264.88109839673723
 11
123.28137069078173
 21
264.88109839673723
  0
LINE
  8
_0-1_
  6
CONTINUOUS
 62
    7
 10
153.28137069078184
 20
262.38109839673723
 11
151.837995017808
 21
264.88109839673723
  0
ARC
  8
_0-1_
  6
CONTINUOUS
 62
    7
 10
103.28137069078184
 20
204.38109839673714
 40
3.0000000000000009
 50
180
 51
270
  0
ARC
  8
_0-1_
  6
CONTINUOUS
 62
    7
 10
143.28137069078184
 20
204.38109839673714
 40
3.0000000000000009
 50
270
 51
0
  0
LINE
  8
_0-1_
  6
CONTINUOUS
 62
    7
 10
149.28137069078207
 20
200.88109839673726
 11
149.81470402411492
 21
208.88109839673731
  0
LINE
  8
_0-1_
  6
CONTINUOUS
 62
    7
 10
97.2813706907815
 20
200.88109839673726
 11
96.748037357448766
 21
208.88109839673731
  0
LINE
  8
_0-1_
  6
CONTINUOUS
 62
    7
 10
97.2813706907815
 20
200.88109839673726
 11
110.73137069078189
 21
200.88109839673726
  0
LINE
  8
_0-1_
  6
CONTINUOUS
 62
    7
 10
135.8313706907818
 20
200.88109839673726
 11
149.28137069078207
 21
200.88109839673726
  0
LINE
  8
_0-1_
  6
CONTINUOUS
 62
    7
 10
155.78137069078184
 20
208.88109839673731
 11
146.28137069078196
 21
208.88109839673731
  0
LINE
  8
_0-1_
  6
CONTINUOUS
 62
    7
 10
100.28137069078173
 20
208.88109839673731
 11
90.781370690781841
 21
208.88109839673731
  0
ARC
  8
_0-1_
  6
CONTINUOUS
 62
    7
 10
123.28137069078173
 20
301.19538612369684
 40
46.360499061197721
 50
246.67331538339872
 51
293.14275851696539
  0
LINE
  8
_0-1_
  6
CONTINUOUS
 62
    7
 10
93.281370690781728
 20
262.38109839673723
 11
153.28137069078184
 21
262.38109839673723
  0
LINE
  8
_0-1_
  6
CONTINUOUS
 62
    7
 10
102.28137069078161
 20
220.9477354235861
 11
102.28137069078161
 21
259.96730734862126
  0
LINE
  8
_0-1_
  6
CONTINUOUS
 62
    7
 10
144.28137069078207
 20
220.9477354235861
 11
144.28137069078207
 21
259.96730734862126
  0
LINE
  8
_0-1_
  6
CONTINUOUS
 62
    7
 10
100.28137069078173
 20
228.38109839673723
 11
100.28137069078173
 21
204.38109839673714
  0
LINE
  8
_0-1_
  6
CONTINUOUS
 62
    7
 10
146.28137069078196
 20
228.38109839673723
 11
146.28137069078196
 21
204.38109839673714
  0
ARC
  8
_0-1_
  6
CONTINUOUS
 62
    7
 10
103.28137069078184
 20
228.38109839673723
 40
3.0000000000000009
 50
109.47122063449055
 51
180
  0
ARC
  8
_0-1_
  6
CONTINUOUS
 62
    7
 10
143.28137069078184
 20
228.38109839673723
 40
3.0000000000000009
 50
0
 51
70.52877936550945
  0
LINE
  8
_0-1_
  6
CENTER1
 62
  152
 10
123.28137069078173
 20
180.17340107959009
 11
123.28137069078173
 21
276.61614473795726
  0
ARC
  8
_0-1_
  6
PHANTOM1
 62
  152
 10
262.64812206878094
 20
118.59240356282015
 40
0.5
 50
288.87650363055582
 51
0
  0
ARC
  8
_0-1_
  6
PHANTOM1
 62
  152
 10
268.14812206878105
 20
102.50669562067463
 40
16.500000000000004
 50
108.87650363055933
 51
116.12349636944074
  0
ARC
  8
_0-1_
  6
PHANTOM1
 62
  152
 10
260.66289619922986
 20
117.77009608327791
 40
0.5
 50
225.00000000000347
 51
296.12349636944333
  0
LINE
  8
_0-1_
  6
PHANTOM1
 62
  152
 10
263.14812206878105
 20
118.59240356282015
 11
263.14812206878105
 21
125.57182081001628
  0
ARC
  8
_0-1_
  6
PHANTOM1
 62
  152
 10
263.64812206878116
 20
125.57182081001628
 40
0.5
 50
101.03971441403868
 51
180
  0
LINE
  8
_0-1_
  6
PHANTOM1
 62
  152
 10
273.14812206878105
 20
118.59240356282015
 11
273.14812206878105
 21
125.57182081001628
  0
ARC
  8
_0-1_
  6
PHANTOM1
 62
  152
 10
268.14812206878105
 20
102.50669562067463
 40
24.000000000000007
 50
78.960285585967029
 51
101.0397144140331
  0
ARC
  8
_0-1_
  6
PHANTOM1
 62
  152
 10
272.64812206878094
 20
125.57182081001628
 40
0.5
 50
0
 51
78.960285585961316
  0
ARC
  8
_0-1_
  6
PHANTOM1
 62
  152
 10
252.88472160617789
 20
109.99192149022593
 40
0.5
 50
333.87650363055582
 51
45
  0
ARC
  8
_0-1_
  6
PHANTOM1
 62
  152
 10
268.14812206878105
 20
102.50669562067463
 40
16.500000000000004
 50
153.87650363055931
 51
161.12349636944074
  0
ARC
  8
_0-1_
  6
PHANTOM1
 62
  152
 10
252.06241412663576
 20
108.00669562067475
 40
0.5
 50
270.00000000000347
 51
341.12349636944333
  0
LINE
  8
_0-1_
  6
PHANTOM1
 62
  152
 10
253.23827499677111
 20
110.34547488081927
 11
248.30308173254809
 21
115.28066814504206
  0
ARC
  8
_0-1_
  6
PHANTOM1
 62
  152
 10
248.65663512314131
 20
115.63422153563528
 40
0.5
 50
146.03971441403866
 51
225
  0
LINE
  8
_0-1_
  6
PHANTOM1
 62
  152
 10
260.30934280863664
 20
117.41654269268457
 11
255.37414954441363
 21
122.35173595690736
  0
ARC
  8
_0-1_
  6
PHANTOM1
 62
  152
 10
268.14812206878105
 20
102.50669562067463
 40
24.000000000000007
 50
123.96028558596703
 51
146.03971441403309
  0
ARC
  8
_0-1_
  6
PHANTOM1
 62
  152
 10
255.02059615382041
 20
121.99818256631426
 40
0.5
 50
45
 51
123.96028558596133
  0
ARC
  8
_0-1_
  6
PHANTOM1
 62
  152
 10
252.06241412663576
 20
97.00669562067452
 40
0.5
 50
18.876503630555842
 51
90
  0
ARC
  8
_0-1_
  6
PHANTOM1
 62
  152
 10
268.14812206878105
 20
102.50669562067463
 40
16.500000000000004
 50
198.87650363055931
 51
206.12349636944074
  0
ARC
  8
_0-1_
  6
PHANTOM1
 62
  152
 10
252.88472160617789
 20
95.021469751123334
 40
0.5
 50
315.00000000000347
 51
26.123496369443345
  0
LINE
  8
_0-1_
  6
PHANTOM1
 62
  152
 10
252.06241412663576
 20
107.50669562067486
 11
245.08299687943963
 21
107.50669562067486
  0
ARC
  8
_0-1_
  6
PHANTOM1
 62
  152
 10
268.14812206878105
 20
102.50669562067463
 40
24.000000000000007
 50
168.96028558596703
 51
191.03971441403309
  0
ARC
  8
_0-1_
  6
PHANTOM1
 62
  152
 10
245.08299687943963
 20
107.00669562067463
 40
0.5
 50
90
 51
168.96028558596134
  0
ARC
  8
_0-1_
  6
PHANTOM1
 62
  152
 10
262.64812206878094
 20
86.420987678529116
 40
0.5
 50
0.0000000000034604
 51
71.123496369443345
  0
LINE
  8
_0-1_
  6
PHANTOM1
 62
  152
 10
253.23827499677111
 20
94.66791636053
 11
248.30308173254809
 21
89.732723096307211
  0
ARC
  8
_0-1_
  6
PHANTOM1
 62
  152
 10
268.14812206878105
 20
102.50669562067463
 40
24.000000000000007
 50
213.96028558596703
 51
236.03971441403306
  0
ARC
  8
_0-1_
  6
PHANTOM1
 62
  152
 10
248.65663512314131
 20
89.379169705714105
 40
0.5
 50
135
 51
213.96028558596134
  0
ARC
  8
_0-1_
  6
PHANTOM1
 62
  152
 10
273.64812206878116
 20
86.420987678529116
 40
0.5
 50
108.87650363055585
 51
180
  0
ARC
  8
_0-1_
  6
PHANTOM1
 62
  152
 10
268.14812206878105
 20
102.50669562067463
 40
16.500000000000004
 50
288.87650363055934
 51
296.12349636944077
  0
ARC
  8
_0-1_
  6
PHANTOM1
 62
  152
 10
275.63334793833224
 20
87.243295158071362
 40
0.5
 50
45.00000000000346
 51
116.12349636944334
  0
LINE
  8
_0-1_
  6
PHANTOM1
 62
  152
 10
273.14812206878105
 20
86.420987678529116
 11
273.14812206878105
 21
79.441570431332991
  0
ARC
  8
_0-1_
  6
PHANTOM1
 62
  152
 10
272.64812206878094
 20
79.441570431332991
 40
0.5
 50
281.03971441403866
 51
0
  0
LINE
  8
_0-1_
  6
PHANTOM1
 62
  152
 10
263.14812206878105
 20
86.420987678529116
 11
263.14812206878105
 21
79.441570431332991
  0
ARC
  8
_0-1_
  6
PHANTOM1
 62
  152
 10
268.14812206878105
 20
102.50669562067463
 40
24.000000000000007
 50
258.96028558596703
 51
281.03971441403309
  0
ARC
  8
_0-1_
  6
PHANTOM1
 62
  152
 10
263.64812206878116
 20
79.441570431332991
 40
0.5
 50
180
 51
258.96028558596134
  0
ARC
  8
_0-1_
  6
PHANTOM1
 62
  152
 10
283.41152253138421
 20
95.021469751123334
 40
0.5
 50
153.87650363055585
 51
225
  0
ARC
  8
_0-1_
  6
PHANTOM1
 62
  152
 10
268.14812206878105
 20
102.50669562067463
 40
16.500000000000004
 50
333.87650363055934
 51
341.12349636944077
  0
ARC
  8
_0-1_
  6
PHANTOM1
 62
  152
 10
284.23383001092634
 20
97.00669562067452
 40
0.5
 50
90.000000000003467
 51
161.12349636944336
  0
LINE
  8
_0-1_
  6
PHANTOM1
 62
  152
 10
283.05796914079099
 20
94.66791636053
 11
287.993162405014
 21
89.732723096307211
  0
ARC
  8
_0-1_
  6
PHANTOM1
 62
  152
 10
287.63960901442078
 20
89.379169705714105
 40
0.5
 50
326.03971441403871
 51
45
  0
LINE
  8
_0-1_
  6
PHANTOM1
 62
  152
 10
275.98690132892602
 20
87.596848548664695
 11
280.92209459314847
 21
82.661655284441792
  0
ARC
  8
_0-1_
  6
PHANTOM1
 62
  152
 10
268.14812206878105
 20
102.50669562067463
 40
24.000000000000007
 50
303.96028558596703
 51
326.03971441403309
  0
ARC
  8
_0-1_
  6
PHANTOM1
 62
  152
 10
281.27564798374169
 20
83.01520867503524
 40
0.5
 50
225
 51
303.96028558596129
  0
ARC
  8
_0-1_
  6
PHANTOM1
 62
  152
 10
284.23383001092634
 20
108.00669562067475
 40
0.5
 50
198.87650363055585
 51
270
  0
ARC
  8
_0-1_
  6
PHANTOM1
 62
  152
 10
268.14812206878105
 20
102.50669562067463
 40
16.500000000000004
 50
18.876503630559334
 51
26.123496369440748
  0
ARC
  8
_0-1_
  6
PHANTOM1
 62
  152
 10
283.41152253138421
 20
109.99192149022593
 40
0.5
 50
135.00000000000347
 51
206.12349636944336
  0
LINE
  8
_0-1_
  6
PHANTOM1
 62
  152
 10
284.23383001092634
 20
107.50669562067486
 11
291.21324725812246
 21
107.50669562067486
  0
ARC
  8
_0-1_
  6
PHANTOM1
 62
  152
 10
291.21324725812246
 20
107.00669562067463
 40
0.5
 50
11.039714414038682
 51
90
  0
LINE
  8
_0-1_
  6
PHANTOM1
 62
  152
 10
284.23383001092634
 20
97.506695620674634
 11
291.21324725812246
 21
97.506695620674634
  0
ARC
  8
_0-1_
  6
PHANTOM1
 62
  152
 10
268.14812206878105
 20
102.50669562067463
 40
24.000000000000007
 50
348.96028558596703
 51
11.039714414033094
  0
ARC
  8
_0-1_
  6
PHANTOM1
 62
  152
 10
291.21324725812246
 20
98.006695620674634
 40
0.5
 50
270
 51
348.96028558596134
  0
ARC
  8
_0-1_
  6
PHANTOM1
 62
  152
 10
275.63334793833224
 20
117.77009608327791
 40
0.5
 50
243.87650363055585
 51
315
  0
ARC
  8
_0-1_
  6
PHANTOM1
 62
  152
 10
268.14812206878105
 20
102.50669562067463
 40
16.500000000000004
 50
63.876503630559327
 51
71.123496369440744
  0
ARC
  8
_0-1_
  6
PHANTOM1
 62
  152
 10
273.64812206878116
 20
118.59240356282015
 40
0.5
 50
180.00000000000347
 51
251.12349636944333
  0
LINE
  8
_0-1_
  6
PHANTOM1
 62
  152
 10
275.98690132892602
 20
117.41654269268457
 11
280.92209459314847
 21
122.35173595690736
  0
ARC
  8
_0-1_
  6
PHANTOM1
 62
  152
 10
281.27564798374169
 20
121.99818256631426
 40
0.5
 50
56.039714414038684
 51
135
  0
LINE
  8
_0-1_
  6
PHANTOM1
 62
  152
 10
283.05796914079099
 20
110.34547488081927
 11
287.993162405014
 21
115.28066814504206
  0
ARC
  8
_0-1_
  6
PHANTOM1
 62
  152
 10
268.14812206878105
 20
102.50669562067463
 40
24.000000000000007
 50
33.960285585967029
 51
56.039714414033099
  0
ARC
  8
_0-1_
  6
PHANTOM1
 62
  152
 10
287.63960901442078
 20
115.63422153563528
 40
0.5
 50
315
 51
33.960285585961316
  0
ARC
  8
_0-1_
  6
PHANTOM1
 62
  152
 10
255.02059615382041
 20
83.01520867503524
 40
0.5
 50
236.03971441403866
 51
315.00000000000227
  0
LINE
  8
_0-1_
  6
PHANTOM1
 62
  152
 10
260.30934280863664
 20
87.596848548664695
 11
255.37414954441363
 21
82.661655284441792
  0
ARC
  8
_0-1_
  6
PHANTOM1
 62
  152
 10
245.08299687943963
 20
98.006695620674634
 40
0.5
 50
191.03971441403866
 51
270
  0
LINE
  8
_0-1_
  6
PHANTOM1
 62
  152
 10
252.06241412663576
 20
97.506695620674634
 11
245.08299687943963
 21
97.506695620674634
  0
ARC
  8
_0-1_
  6
PHANTOM1
 62
  152
 10
260.66289619922986
 20
87.243295158071362
 40
0.5
 50
63.87650363055667
 51
135
  0
ARC
  8
_0-1_
  6
PHANTOM1
 62
  152
 10
268.14812206878105
 20
102.50669562067463
 40
16.500000000000004
 50
243.87650363055934
 51
251.12349636944074
  0
LINE
  8
_0-1_
  6
CONTINUOUS
 62
  152
 10
336.52312206878116
 20
258.65109885450079
 11
336.52312206878116
 21
265.65109837766374
  0
LINE
  8
_0-1_
  6
CONTINUOUS
 62
  152
 10
335.71062206878128
 20
258.65109885450079
 11
335.71062206878128
 21
265.65109837766374
  0
LINE
  8
_0-1_
  6
CONTINUOUS
 62
  152
 10
332.46062206878105
 20
258.65109885450079
 11
332.46062206878105
 21
265.65109837766374
  0
LINE
  8
_0-1_
  6
CONTINUOUS
 62
  152
 10
333.27312206878094
 20
258.65109885450079
 11
333.27312206878094
 21
265.65109837766374
  0
LINE
  8
_0-1_
  6
CONTINUOUS
 62
  152
 10
334.08562206878105
 20
258.65109885450079
 11
334.08562206878105
 21
265.65109837766374
  0
LINE
  8
_0-1_
  6
CONTINUOUS
 62
  152
 10
334.89812206878116
 20
258.65109885450079
 11
334.89812206878116
 21
265.65109837766374
  0
LINE
  8
_0-1_
  6
CONTINUOUS
 62
   56
 10
344.64812206878105
 20
258.65109885450079
 11
343.64812206878116
 21
257.6510988545009
  0
LINE
  8
_0-1_
  6
CONTINUOUS
 62
   56
 10
332.64812206878094
 20
257.6510988545009
 11
343.64812206878116
 21
257.6510988545009
  0
LINE
  8
_0-1_
  6
CONTINUOUS
 62
   56
 10
332.64812206878094
 20
257.6510988545009
 11
331.64812206878128
 21
258.65109885450079
  0
LINE
  8
_0-1_
  6
CONTINUOUS
 62
   56
 10
344.64812206878105
 20
258.65109885450079
 11
331.64812206878128
 21
258.65109885450079
  0
LINE
  8
_0-1_
  6
CONTINUOUS
 62
   56
 10
344.64812206878105
 20
258.65109885450079
 11
344.64812206878105
 21
267.65109837766363
  0
LINE
  8
_0-1_
  6
CONTINUOUS
 62
   56
 10
331.64812206878128
 20
258.65109885450079
 11
331.64812206878128
 21
267.65109837766363
  0
LINE
  8
_0-1_
  6
CONTINUOUS
 62
   56
 10
344.64812206878105
 20
265.65109837766374
 11
331.64812206878128
 21
265.65109837766374
  0
LINE
  8
_0-1_
  6
CONTINUOUS
 62
   56
 10
347.04312252654478
 20
267.65109837766363
 11
347.04312252654478
 21
268.88109839673723
  0
LINE
  8
_0-1_
  6
CONTINUOUS
 62
   56
 10
347.04312252654478
 20
267.65109837766363
 11
329.2531216110176
 21
267.65109837766363
  0
LINE
  8
_0-1_
  6
CONTINUOUS
 62
   56
 10
329.2531216110176
 20
267.65109837766363
 11
329.2531216110176
 21
268.88109839673723
  0
LINE
  8
_0-1_
  6
CONTINUOUS
 62
   56
 10
334.69812202109745
 20
281.65109837766363
 11
341.59812211646499
 21
281.65109837766363
  0
LINE
  8
_0-1_
  6
CONTINUOUS
 62
   56
 10
342.14812206878116
 20
281.1010991406032
 11
341.59812211646499
 21
281.65109837766363
  0
LINE
  8
_0-1_
  6
CONTINUOUS
 62
   56
 10
334.69812202109745
 20
281.65109837766363
 11
334.14812206878128
 21
281.1010991406032
  0
LINE
  8
_0-1_
  6
CONTINUOUS
 62
   56
 10
342.14812206878116
 20
281.1010991406032
 11
334.14812206878128
 21
281.1010991406032
  0
LINE
  8
_0-1_
  6
CONTINUOUS
 62
   56
 10
337.57077180995384
 20
267.65109837766363
 11
338.72547232760826
 21
265.65109837766374
  0
LINE
  8
_0-1_
  6
PHANTOM1
 62
  152
 10
243.89941076281661
 20
184.38109839673709
 11
243.89941076281661
 21
200.29458112681422
  0
LINE
  8
_0-1_
  6
CONTINUOUS
 62
    7
 10
224.41515706453902
 20
246.64997186390133
 11
216.36016118330122
 21
221.44773542358607
  0
ARC
  8
_0-1_
  6
CONTINUOUS
 62
    7
 10
242.13610170959259
 20
240.98610403731158
 40
18.604066164958066
 50
92.878584898103924
 51
162.2753753740451
  0
ARC
  8
_0-1_
  6
CONTINUOUS
 62
    7
 10
230.64812206878105
 20
216.8810983967372
 40
13.000000000000002
 50
41.901860400798917
 51
329.3442036445947
  0
ARC
  8
_0-1_
  6
CONTINUOUS
 62
    7
 10
230.64812206878105
 20
216.8810983967372
 40
15
 50
49.830484642209449
 51
330.23743253030375
  0
LINE
  8
_0-1_
  6
CONTINUOUS
 62
   56
 10
233.74812197341373
 20
216.26109839196872
 11
233.74812197341373
 21
217.50109840150569
  0
LINE
  8
_0-1_
  6
CONTINUOUS
 62
   56
 10
230.0281220640129
 20
219.98109830136977
 11
231.26812207354919
 21
219.98109830136977
  0
LINE
  8
_0-1_
  6
CONTINUOUS
 62
   56
 10
227.54812216414837
 20
216.26109839196872
 11
227.54812216414837
 21
217.50109840150569
  0
LINE
  8
_0-1_
  6
CONTINUOUS
 62
   56
 10
230.0281220640129
 20
213.78109849210463
 11
231.26812207354919
 21
213.78109849210463
  0
LINE
  8
_0-1_
  6
CONTINUOUS
 62
   56
 10
231.26812207354919
 20
218.74109841104232
 11
231.26812207354919
 21
219.98109830136977
  0
LINE
  8
_0-1_
  6
CONTINUOUS
 62
   56
 10
232.50812208308605
 20
217.50109840150569
 11
233.74812197341373
 21
217.50109840150569
  0
LINE
  8
_0-1_
  6
CONTINUOUS
 62
   56
 10
232.50812208308605
 20
216.26109839196872
 11
233.74812197341373
 21
216.26109839196872
  0
LINE
  8
_0-1_
  6
CONTINUOUS
 62
   56
 10
231.26812207354919
 20
215.02109838243209
 11
231.26812207354919
 21
213.78109849210463
  0
LINE
  8
_0-1_
  6
CONTINUOUS
 62
   56
 10
230.0281220640129
 20
215.02109838243209
 11
230.0281220640129
 21
213.78109849210463
  0
LINE
  8
_0-1_
  6
CONTINUOUS
 62
   56
 10
228.78812205447605
 20
216.26109839196872
 11
227.54812216414837
 21
216.26109839196872
  0
LINE
  8
_0-1_
  6
CONTINUOUS
 62
   56
 10
228.78812205447605
 20
217.50109840150569
 11
227.54812216414837
 21
217.50109840150569
  0
LINE
  8
_0-1_
  6
CONTINUOUS
 62
   56
 10
230.0281220640129
 20
218.74109841104232
 11
230.0281220640129
 21
219.98109830136977
  0
CIRCLE
  8
_0-1_
  6
CONTINUOUS
 62
   56
 10
230.64812206878105
 20
216.8810983967372
 40
5.2500000000000009
  0
ARC
  8
_0-1_
  6
CONTINUOUS
 62
   56
 10
232.50812208308605
 20
218.74109841104232
 40
1.2400000095367432
 50
180
 51
270
  0
ARC
  8
_0-1_
  6
CONTINUOUS
 62
   56
 10
232.50812208308605
 20
215.02109838243209
 40
1.2400000095367432
 50
90
 51
180
  0
ARC
  8
_0-1_
  6
CONTINUOUS
 62
   56
 10
228.78812205447605
 20
215.02109838243209
 40
1.2400000095367432
 50
0
 51
90
  0
ARC
  8
_0-1_
  6
CONTINUOUS
 62
   56
 10
228.78812205447605
 20
218.74109841104232
 40
1.2400000095367432
 50
270
 51
0
  0
CIRCLE
  8
_0-1_
  6
CONTINUOUS
 62
    7
 10
230.64812206878105
 20
216.8810983967372
 40
6.3499999999999996
  0
ARC
  8
_0-1_
  6
CONTINUOUS
 62
    7
 10
230.64812206878105
 20
216.8810983967372
 40
18
 50
128.71806561212412
 51
317.40724784703838
  0
LINE
  8
_0-1_
  6
CENTER1
 62
  152
 10
199.82322162334344
 20
216.8810983967372
 11
260.40487342279607
 21
216.8810983967372
  0
LINE
  8
_0-1_
  6
CENTER1
 62
  152
 10
230.64812206878105
 20
186.90261539260959
 11
230.64812206878105
 21
248.84512241382032
  0
ARC
  8
_0-1_
  6
CONTINUOUS
 62
   56
 10
110.03137069125148
 20
216.38109839673714
 40
14.000000000000004
 50
164.63751220703125
 51
195.36247253417969
  0
ARC
  8
_0-1_
  6
CONTINUOUS
 62
   56
 10
98.363714508008684
 20
213.17550814862923
 40
1.8999999761581421
 50
195.36247253417966
 51
257.12857806732154
  0
LINE
  8
_0-1_
  6
CONTINUOUS
 62
   56
 10
98.781370690781841
 20
211.13109839673731
 11
97.940463111797158
 21
211.32325056259933
  0
ARC
  8
_0-1_
  6
CONTINUOUS
 62
   56
 10
98.363714508008684
 20
219.58668864484505
 40
1.8999999761581421
 50
102.87142193267849
 51
164.63752746582034
  0
LINE
  8
_0-1_
  6
CONTINUOUS
 62
   56
 10
98.781370690781841
 20
221.63109839673697
 11
97.940463111797158
 21
221.43894623087496
  0
LINE
  8
_0-1_
  6
CONTINUOUS
 62
   56
 10
98.781370690781841
 20
222.731098396737
 11
98.781370690781841
 21
210.03109839673729
  0
LINE
  8
_0-1_
  6
CONTINUOUS
 62
   56
 10
98.781370690781841
 20
210.03109839673729
 11
100.28137069078173
 21
210.03109839673729
  0
LINE
  8
_0-1_
  6
CONTINUOUS
 62
   56
 10
100.28137069078173
 20
222.731098396737
 11
98.781370690781841
 21
222.731098396737
  0
ARC
  8
_0-1_
  6
CONTINUOUS
 62
   56
 10
136.53137069031197
 20
216.38109839673714
 40
14.000000000000004
 50
344.63752746582031
 51
15.362487792968741
  0
ARC
  8
_0-1_
  6
CONTINUOUS
 62
   56
 10
148.19902687355466
 20
213.17550814862923
 40
1.8999999761581421
 50
282.87142193267846
 51
344.63752746582031
  0
LINE
  8
_0-1_
  6
CONTINUOUS
 62
   56
 10
147.78137069078161
 20
211.13109839673731
 11
148.6222782697663
 21
211.32325056259916
  0
ARC
  8
_0-1_
  6
CONTINUOUS
 62
   56
 10
148.19902687355466
 20
219.58668864484505
 40
1.8999999761581421
 50
15.36247253417967
 51
77.128578067321499
  0
LINE
  8
_0-1_
  6
CONTINUOUS
 62
   56
 10
147.78137069078161
 20
221.6310983967368
 11
148.6222782697663
 21
221.43894623087496
  0
LINE
  8
_0-1_
  6
CONTINUOUS
 62
   56
 10
147.78137069078161
 20
222.731098396737
 11
147.78137069078161
 21
210.03109839673712
  0
LINE
  8
_0-1_
  6
CONTINUOUS
 62
   56
 10
147.78137069078161
 20
210.03109839673712
 11
146.28137069078184
 21
210.03109839673712
  0
LINE
  8
_0-1_
  6
CONTINUOUS
 62
   56
 10
146.28137069078184
 20
222.731098396737
 11
147.78137069078161
 21
222.731098396737
  0
LINE
  8
_0-1_
  6
CENTER1
 62
  152
 10
97.506573889775609
 20
216.8810983967372
 11
149.97173160492349
 21
216.8810983967372
  0
ARC
  8
_0-1_
  6
CONTINUOUS
 62
    7
 10
134.83137069078157
 20
241.02400597032556
 40
1
 50
0
 51
81.512045929208185
  0
ARC
  8
_0-1_
  6
CONTINUOUS
 62
    7
 10
123.28137069078173
 20
163.62984841837215
 40
79.251249978365095
 50
81.512045929208114
 51
98.487954070791886
  0
ARC
  8
_0-1_
  6
CONTINUOUS
 62
    7
 10
111.731370690782
 20
241.02400597032556
 40
1
 50
98.48795407079183
 51
180
  0
LINE
  8
_0-1_
  6
CONTINUOUS
 62
    7
 10
137.28137069078161
 20
243.88109839673729
 11
109.28137069078207
 21
243.88109839673729
  0
ARC
  8
_0-1_
  6
CONTINUOUS
 62
    7
 10
111.731370690782
 20
192.7381908231491
 40
1
 50
180
 51
261.51204592920817
  0
ARC
  8
_0-1_
  6
CONTINUOUS
 62
    7
 10
123.28137069078173
 20
270.13234837510242
 40
79.251249978365095
 50
261.51204592920811
 51
278.48795407079189
  0
ARC
  8
_0-1_
  6
CONTINUOUS
 62
    7
 10
134.83137069078157
 20
192.7381908231491
 40
1
 50
278.48795407079183
 51
0
  0
LINE
  8
_0-1_
  6
CONTINUOUS
 62
    7
 10
110.73137069078189
 20
241.02400597032556
 11
110.73137069078189
 21
192.7381908231491
  0
LINE
  8
_0-1_
  6
CONTINUOUS
 62
    7
 10
135.8313706907818
 20
241.02400597032556
 11
135.8313706907818
 21
192.7381908231491
  0
LINE
  8
_0-1_
  6
CONTINUOUS
 62
    7
 10
137.28137069078161
 20
201.38109839673731
 11
137.28137069078161
 21
243.88109839673729
  0
LINE
  8
_0-1_
  6
CONTINUOUS
 62
    7
 10
143.28137069078184
 20
201.38109839673731
 11
137.28137069078161
 21
201.38109839673731
  0
LINE
  8
_0-1_
  6
CONTINUOUS
 62
    7
 10
109.28137069078207
 20
201.38109839673731
 11
109.28137069078207
 21
243.88109839673729
  0
LINE
  8
_0-1_
  6
CONTINUOUS
 62
    7
 10
103.28137069078184
 20
201.38109839673731
 11
109.28137069078207
 21
201.38109839673731
  0
LINE
  8
_0-1_
  6
CONTINUOUS
 62
    7
 10
240.32389026484952
 20
212.88109839673726
 11
240.32389026484952
 21
257.4303020428876
  0
ARC
  8
_0-1_
  6
CONTINUOUS
 62
    7
 10
243.32389026484907
 20
257.4303020428876
 40
3.0000000000000009
 50
135.00000000000031
 51
180
  0
LINE
  8
_0-1_
  6
CONTINUOUS
 62
    7
 10
232.90608790175719
 20
257.13906422971303
 11
238.14812206878105
 21
262.38109839673723
  0
ARC
  8
_0-1_
  6
CONTINUOUS
 62
    7
 10
230.64812206878105
 20
216.8810983967372
 40
26.000000000000007
 50
108.30725444651557
 51
322.02012755514818
  0
ARC
  8
_0-1_
  6
CONTINUOUS
 62
    7
 10
254.79102964236944
 20
90.956695620674566
 40
1
 50
270
 51
351.51204592920817
  0
ARC
  8
_0-1_
  6
CONTINUOUS
 62
    7
 10
177.39687209041591
 20
102.50669562067463
 40
79.251249978365095
 50
351.51204592920811
 51
8.4879540707919006
  0
ARC
  8
_0-1_
  6
CONTINUOUS
 62
    7
 10
254.79102964236944
 20
114.0566956206747
 40
1
 50
8.4879540707918135
 51
90
  0
ARC
  8
_0-1_
  6
CONTINUOUS
 62
    7
 10
206.5052144951926
 20
114.0566956206747
 40
1
 50
90
 51
171.5120459292082
  0
ARC
  8
_0-1_
  6
CONTINUOUS
 62
    7
 10
283.89937204714613
 20
102.50669562067463
 40
79.251249978365095
 50
171.51204592920809
 51
188.48795407079191
  0
ARC
  8
_0-1_
  6
CONTINUOUS
 62
    7
 10
206.5052144951926
 20
90.956695620674566
 40
1
 50
188.4879540707918
 51
270
  0
LINE
  8
_0-1_
  6
CONTINUOUS
 62
    7
 10
206.5052144951926
 20
89.956695620674452
 11
254.79102964236944
 21
89.956695620674452
  0
LINE
  8
_0-1_
  6
CONTINUOUS
 62
    7
 10
206.5052144951926
 20
115.05669562067482
 11
254.79102964236944
 21
115.05669562067482
  0
LINE
  8
_0-1_
  6
CONTINUOUS
 62
   56
 10
334.14812206878128
 20
273.48110713673213
 11
334.14812206878128
 21
272.88109839673712
  0
LINE
  8
_0-1_
  6
CONTINUOUS
 62
  152
 10
334.69812202109745
 20
272.88109839673712
 11
334.69812202109745
 21
273.48110524748341
  0
LINE
  8
_0-1_
  6
CONTINUOUS
 62
  152
 10
334.69812202109745
 20
280.08112119276279
 11
334.69812202109745
 21
281.65109837766363
  0
LINE
  8
_0-1_
  6
CONTINUOUS
 62
  152
 10
341.59812211646499
 20
272.88109839673712
 11
341.59812211646499
 21
273.48108154599765
  0
LINE
  8
_0-1_
  6
CONTINUOUS
 62
  152
 10
341.59812211646499
 20
280.08109560090418
 11
341.59812211646499
 21
281.65109837766363
  0
LINE
  8
_0-1_
  6
CONTINUOUS
 62
   56
 10
342.14812206878116
 20
273.48107965674893
 11
342.14812206878116
 21
272.88109839673712
  0
LINE
  8
_0-1_
  6
CENTER1
 62
  152
 10
338.14812206878105
 20
282.66944002662206
 11
338.14812206878105
 21
256.33176222041681
  0
LINE
  8
_0-1_
  6
CONTINUOUS
 62
  152
 10
236.12312206878153
 20
258.65109885450079
 11
236.12312206878153
 21
265.65109837766374
  0
LINE
  8
_0-1_
  6
CONTINUOUS
 62
  152
 10
235.3106220687817
 20
258.65109885450079
 11
235.3106220687817
 21
265.65109837766374
  0
LINE
  8
_0-1_
  6
CONTINUOUS
 62
  152
 10
232.06062206878153
 20
258.65109885450079
 11
232.06062206878153
 21
265.65109837766374
  0
LINE
  8
_0-1_
  6
CONTINUOUS
 62
  152
 10
232.87312206878136
 20
258.65109885450079
 11
232.87312206878136
 21
265.65109837766374
  0
LINE
  8
_0-1_
  6
CONTINUOUS
 62
  152
 10
233.68562206878147
 20
258.65109885450079
 11
233.68562206878147
 21
265.65109837766374
  0
LINE
  8
_0-1_
  6
CONTINUOUS
 62
  152
 10
234.49812206878158
 20
258.65109885450079
 11
234.49812206878158
 21
265.65109837766374
  0
LINE
  8
_0-1_
  6
CONTINUOUS
 62
   56
 10
244.24812206878153
 20
258.65109885450079
 11
243.24812206878153
 21
257.6510988545009
  0
LINE
  8
_0-1_
  6
CONTINUOUS
 62
   56
 10
232.2481220687813
 20
257.6510988545009
 11
243.24812206878153
 21
257.6510988545009
  0
LINE
  8
_0-1_
  6
CONTINUOUS
 62
   56
 10
232.2481220687813
 20
257.6510988545009
 11
231.24812206878175
 21
258.65109885450079
  0
LINE
  8
_0-1_
  6
CONTINUOUS
 62
   56
 10
244.24812206878153
 20
258.65109885450079
 11
231.24812206878175
 21
258.65109885450079
  0
LINE
  8
_0-1_
  6
CONTINUOUS
 62
   56
 10
244.24812206878153
 20
258.65109885450079
 11
244.24812206878153
 21
267.65109837766363
  0
LINE
  8
_0-1_
  6
CONTINUOUS
 62
   56
 10
231.24812206878175
 20
258.65109885450079
 11
231.24812206878175
 21
267.65109837766363
  0
LINE
  8
_0-1_
  6
CONTINUOUS
 62
   56
 10
244.24812206878153
 20
265.65109837766374
 11
231.24812206878175
 21
265.65109837766374
  0
LINE
  8
_0-1_
  6
CONTINUOUS
 62
   56
 10
246.6431225265452
 20
267.65109837766363
 11
246.6431225265452
 21
268.88109839673723
  0
LINE
  8
_0-1_
  6
CONTINUOUS
 62
   56
 10
246.6431225265452
 20
267.65109837766363
 11
228.85312161101803
 21
267.65109837766363
  0
LINE
  8
_0-1_
  6
CONTINUOUS
 62
   56
 10
228.85312161101803
 20
267.65109837766363
 11
228.85312161101803
 21
268.88109839673723
  0
LINE
  8
_0-1_
  6
CONTINUOUS
 62
   56
 10
234.29812202109781
 20
281.65109837766363
 11
241.19812211646536
 21
281.65109837766363
  0
LINE
  8
_0-1_
  6
CONTINUOUS
 62
   56
 10
241.74812206878153
 20
281.1010991406032
 11
241.19812211646536
 21
281.65109837766363
  0
LINE
  8
_0-1_
  6
CONTINUOUS
 62
   56
 10
234.29812202109781
 20
281.65109837766363
 11
233.74812206878164
 21
281.1010991406032
  0
LINE
  8
_0-1_
  6
CONTINUOUS
 62
   56
 10
241.74812206878153
 20
281.1010991406032
 11
233.74812206878164
 21
281.1010991406032
  0
LINE
  8
_0-1_
  6
CONTINUOUS
 62
   56
 10
237.17077180995426
 20
267.65109837766363
 11
238.32547232760874
 21
265.65109837766374
  0
LINE
  8
_0-1_
  6
CONTINUOUS
 62
    7
 10
241.248086367741
 20
280.08109541558855
 11
234.24825157200127
 21
280.0811213777306
  0
LINE
  8
_0-1_
  6
CONTINUOUS
 62
    7
 10
232.66071352917004
 20
276.48109839673725
 11
232.92314421825574
 21
273.4811099705293
  0
LINE
  8
_0-1_
  6
CONTINUOUS
 62
    7
 10
234.24825157200127
 20
280.0811213777306
 11
231.06940659048121
 21
278.24585641256124
  0
LINE
  8
_0-1_
  6
CONTINUOUS
 62
    7
 10
230.74816809685615
 20
276.48109839673725
 11
232.66071352917004
 21
276.48109839673725
  0
LINE
  8
_0-1_
  6
CONTINUOUS
 62
    7
 10
231.06940659048121
 20
278.24585641256124
 11
230.74816809685615
 21
276.48109839673725
  0
LINE
  8
_0-1_
  6
CONTINUOUS
 62
    7
 10
242.83560387661498
 20
276.48109839673725
 11
242.57309991926911
 21
273.48107682295176
  0
LINE
  8
_0-1_
  6
CONTINUOUS
 62
    7
 10
232.92314421825574
 20
273.4811099705293
 11
242.57309991926911
 21
273.48107682295176
  0
LINE
  8
_0-1_
  6
CONTINUOUS
 62
    7
 10
241.24800442171068
 20
280.0811213777306
 11
244.4268494032309
 21
278.24585641256124
  0
LINE
  8
_0-1_
  6
CONTINUOUS
 62
    7
 10
244.74808789685596
 20
276.48109839673725
 11
242.83554246454167
 21
276.48109839673725
  0
LINE
  8
_0-1_
  6
CONTINUOUS
 62
    7
 10
244.4268494032309
 20
278.24585641256124
 11
244.74808789685596
 21
276.48109839673725
  0
LINE
  8
_0-1_
  6
CONTINUOUS
 62
   56
 10
233.74812206878164
 20
281.1010991406032
 11
233.74812206878164
 21
279.79237808869243
  0
LINE
  8
_0-1_
  6
CONTINUOUS
 62
   56
 10
233.74812206878164
 20
273.48110713673213
 11
233.74812206878164
 21
272.88109839673712
  0
LINE
  8
_0-1_
  6
CONTINUOUS
 62
  152
 10
234.29812202109781
 20
272.88109839673712
 11
234.29812202109781
 21
273.48110524748341
  0
LINE
  8
_0-1_
  6
CONTINUOUS
 62
  152
 10
234.29812202109781
 20
280.08112119276279
 11
234.29812202109781
 21
281.65109837766363
  0
LINE
  8
_0-1_
  6
CONTINUOUS
 62
  152
 10
241.19812211646536
 20
272.88109839673712
 11
241.19812211646536
 21
273.48108154599765
  0
LINE
  8
_0-1_
  6
CONTINUOUS
 62
  152
 10
241.19812211646536
 20
280.08109560090418
 11
241.19812211646536
 21
281.65109837766363
  0
LINE
  8
_0-1_
  6
CONTINUOUS
 62
   56
 10
241.74812206878153
 20
281.1010991406032
 11
241.74812206878153
 21
279.79238493368632
  0
LINE
  8
_0-1_
  6
CONTINUOUS
 62
   56
 10
241.74812206878153
 20
273.48107965674893
 11
241.74812206878153
 21
272.88109839673712
  0
LINE
  8
_0-1_
  6
CENTER1
 62
  152
 10
237.74812206878141
 20
282.66944002662206
 11
237.74812206878141
 21
256.33176222041681
  0
LINE
  8
_0-1_
  6
CONTINUOUS
 62
    7
 10
330.64812206878105
 20
273.48111915922476
 11
345.64812206878105
 21
273.48106763425631
  0
LINE
  8
_0-1_
  6
CONTINUOUS
 62
    7
 10
345.64812206878105
 20
280.08108057959623
 11
345.64812206878105
 21
273.48106763425631
  0
LINE
  8
_0-1_
  6
CONTINUOUS
 62
    7
 10
345.64812206878105
 20
280.08108057959623
 11
330.64812206878105
 21
280.0811362140708
  0
LINE
  8
_0-1_
  6
CONTINUOUS
 62
    7
 10
330.64812206878105
 20
280.0811362140708
 11
330.64812206878105
 21
273.48111915922476
  0
LINE
  8
_0-1_
  6
CONTINUOUS
 62
    7
 10
345.64810871640009
 20
276.48105171062093
 11
330.64810871640009
 21
276.48110734509555
  0
LINE
  8
_0-1_
  6
CONTINUOUS
 62
    7
 10
345.64811526180381
 20
278.24580382460886
 11
330.64811526180381
 21
278.24585945908348
  0
LINE
  8
_0-1_
  6
CONTINUOUS
 62
   56
 10
334.14812206878128
 20
281.1010991406032
 11
334.14812206878128
 21
280.08112323269341
  0
LINE
  8
_0-1_
  6
CONTINUOUS
 62
   56
 10
342.14812206878116
 20
281.1010991406032
 11
342.14812206878116
 21
280.08109356097361
  0
LINE
  8
_0-1_
  6
CONTINUOUS
 62
  152
 10
306.52312206878116
 20
258.65109885450079
 11
306.52312206878116
 21
265.65109837766374
  0
LINE
  8
_0-1_
  6
CONTINUOUS
 62
  152
 10
305.71062206878128
 20
258.65109885450079
 11
305.71062206878128
 21
265.65109837766374
  0
LINE
  8
_0-1_
  6
CONTINUOUS
 62
  152
 10
302.46062206878105
 20
258.65109885450079
 11
302.46062206878105
 21
265.65109837766374
  0
LINE
  8
_0-1_
  6
CONTINUOUS
 62
  152
 10
303.27312206878094
 20
258.65109885450079
 11
303.27312206878094
 21
265.65109837766374
  0
LINE
  8
_0-1_
  6
CONTINUOUS
 62
  152
 10
304.08562206878105
 20
258.65109885450079
 11
304.08562206878105
 21
265.65109837766374
  0
LINE
  8
_0-1_
  6
CONTINUOUS
 62
  152
 10
304.89812206878116
 20
258.65109885450079
 11
304.89812206878116
 21
265.65109837766374
  0
LINE
  8
_0-1_
  6
CONTINUOUS
 62
   56
 10
314.64812206878105
 20
258.65109885450079
 11
313.64812206878116
 21
257.6510988545009
  0
LINE
  8
_0-1_
  6
CONTINUOUS
 62
   56
 10
302.64812206878094
 20
257.6510988545009
 11
313.64812206878116
 21
257.6510988545009
  0
LINE
  8
_0-1_
  6
CONTINUOUS
 62
   56
 10
302.64812206878094
 20
257.6510988545009
 11
301.64812206878128
 21
258.65109885450079
  0
LINE
  8
_0-1_
  6
CONTINUOUS
 62
   56
 10
314.64812206878105
 20
258.65109885450079
 11
301.64812206878128
 21
258.65109885450079
  0
LINE
  8
_0-1_
  6
CONTINUOUS
 62
   56
 10
314.64812206878105
 20
258.65109885450079
 11
314.64812206878105
 21
267.65109837766363
  0
LINE
  8
_0-1_
  6
CONTINUOUS
 62
   56
 10
301.64812206878128
 20
258.65109885450079
 11
301.64812206878128
 21
267.65109837766363
  0
LINE
  8
_0-1_
  6
CONTINUOUS
 62
   56
 10
314.64812206878105
 20
265.65109837766374
 11
301.64812206878128
 21
265.65109837766374
  0
LINE
  8
_0-1_
  6
CONTINUOUS
 62
   56
 10
317.04312252654478
 20
267.65109837766363
 11
317.04312252654478
 21
268.88109839673723
  0
LINE
  8
_0-1_
  6
CONTINUOUS
 62
   56
 10
317.04312252654478
 20
267.65109837766363
 11
299.2531216110176
 21
267.65109837766363
  0
LINE
  8
_0-1_
  6
CONTINUOUS
 62
   56
 10
299.2531216110176
 20
267.65109837766363
 11
299.2531216110176
 21
268.88109839673723
  0
LINE
  8
_0-1_
  6
CONTINUOUS
 62
   56
 10
304.69812202109745
 20
281.65109837766363
 11
311.59812211646499
 21
281.65109837766363
  0
LINE
  8
_0-1_
  6
CONTINUOUS
 62
   56
 10
312.14812206878116
 20
281.1010991406032
 11
311.59812211646499
 21
281.65109837766363
  0
LINE
  8
_0-1_
  6
CONTINUOUS
 62
   56
 10
304.69812202109745
 20
281.65109837766363
 11
304.14812206878128
 21
281.1010991406032
  0
LINE
  8
_0-1_
  6
CONTINUOUS
 62
   56
 10
312.14812206878116
 20
281.1010991406032
 11
304.14812206878128
 21
281.1010991406032
  0
LINE
  8
_0-1_
  6
CONTINUOUS
 62
   56
 10
307.57077180995384
 20
267.65109837766363
 11
308.72547232760826
 21
265.65109837766374
  0
LINE
  8
_0-1_
  6
CONTINUOUS
 62
   56
 10
304.14812206878128
 20
273.48110713673213
 11
304.14812206878128
 21
272.88109839673712
  0
LINE
  8
_0-1_
  6
CONTINUOUS
 62
  152
 10
304.69812202109745
 20
272.88109839673712
 11
304.69812202109745
 21
273.48110524748341
  0
LINE
  8
_0-1_
  6
CONTINUOUS
 62
  152
 10
304.69812202109745
 20
280.08112119276279
 11
304.69812202109745
 21
281.65109837766363
  0
LINE
  8
_0-1_
  6
CONTINUOUS
 62
  152
 10
311.59812211646499
 20
272.88109839673712
 11
311.59812211646499
 21
273.48108154599765
  0
LINE
  8
_0-1_
  6
CONTINUOUS
 62
  152
 10
311.59812211646499
 20
280.08109560090418
 11
311.59812211646499
 21
281.65109837766363
  0
LINE
  8
_0-1_
  6
CONTINUOUS
 62
   56
 10
312.14812206878116
 20
273.48107965674893
 11
312.14812206878116
 21
272.88109839673712
  0
LINE
  8
_0-1_
  6
CENTER1
 62
  152
 10
308.14812206878105
 20
282.66944002662206
 11
308.14812206878105
 21
256.33176222041681
  0
LINE
  8
_0-1_
  6
CONTINUOUS
 62
    7
 10
300.64812206878105
 20
273.48111915922476
 11
315.64812206878105
 21
273.48106763425631
  0
LINE
  8
_0-1_
  6
CONTINUOUS
 62
    7
 10
315.64812206878105
 20
280.08108057959623
 11
315.64812206878105
 21
273.48106763425631
  0
LINE
  8
_0-1_
  6
CONTINUOUS
 62
    7
 10
315.64812206878105
 20
280.08108057959623
 11
300.64812206878105
 21
280.0811362140708
  0
LINE
  8
_0-1_
  6
CONTINUOUS
 62
    7
 10
300.64812206878105
 20
280.0811362140708
 11
300.64812206878105
 21
273.48111915922476
  0
LINE
  8
_0-1_
  6
CONTINUOUS
 62
    7
 10
315.64810871640009
 20
276.48105171062093
 11
300.64810871640009
 21
276.48110734509555
  0
LINE
  8
_0-1_
  6
CONTINUOUS
 62
    7
 10
315.64811526180381
 20
278.24580382460886
 11
300.64811526180381
 21
278.24585945908348
  0
LINE
  8
_0-1_
  6
CONTINUOUS
 62
   56
 10
304.14812206878128
 20
281.1010991406032
 11
304.14812206878128
 21
280.08112323269341
  0
LINE
  8
_0-1_
  6
CONTINUOUS
 62
   56
 10
312.14812206878116
 20
281.1010991406032
 11
312.14812206878116
 21
280.08109356097361
  0
CIRCLE
  8
_0-1_
  6
CONTINUOUS
 62
    7
 10
232.64812206878094
 20
447.20209376221601
 40
3.125
  0
LINE
  8
_0-1_
  6
CENTER1
 62
  152
 10
238.16668917921663
 20
447.20209376221601
 11
227.83212407712756
 21
447.20209376221601
  0
LINE
  8
_0-1_
  6
CENTER1
 62
  152
 10
232.64812206878094
 20
442.20478761087685
 11
232.64812206878094
 21
451.81412007422296
  0
LINE
  8
_0-1_
  6
CONTINUOUS
 62
    7
 10
361.14812206878116
 20
403.95945307509658
 11
361.14812206878116
 21
377.20209376221607
  0
LINE
  8
_0-1_
  6
CONTINUOUS
 62
    7
 10
251.3907627559006
 20
377.20209376221607
 11
361.14812206878116
 21
377.20209376221607
  0
ARC
  8
_0-1_
  6
CONTINUOUS
 62
    7
 10
251.3907627559006
 20
380.20209376221601
 40
3.0000000000000009
 50
225.00000000000006
 51
270
  0
LINE
  8
_0-1_
  6
CONTINUOUS
 62
    7
 10
219.02680172522128
 20
408.32341410577578
 11
249.26944241234071
 21
378.08077341865641
  0
LINE
  8
_0-1_
  6
CONTINUOUS
 62
    7
 10
218.14812206878105
 20
410.44473444933544
 11
218.14812206878105
 21
520.20209376221601
  0
ARC
  8
_0-1_
  6
CONTINUOUS
 62
    7
 10
221.14812206878116
 20
410.44473444933544
 40
3.0000000000000009
 50
180
 51
225.00000000000006
  0
LINE
  8
_0-1_
  6
CONTINUOUS
 62
    7
 10
244.9054813816615
 20
520.20209376221601
 11
218.14812206878105
 21
520.20209376221601
  0
ARC
  8
_0-1_
  6
CONTINUOUS
 62
    7
 10
244.9054813816615
 20
517.20209376221601
 40
3.0000000000000009
 50
45
 51
90
  0
LINE
  8
_0-1_
  6
CONTINUOUS
 62
    7
 10
360.26944241234094
 20
406.08077341865618
 11
247.02680172522139
 21
519.32341410577578
  0
ARC
  8
_0-1_
  6
CONTINUOUS
 62
    7
 10
358.14812206878105
 20
403.95945307509658
 40
3.0000000000000009
 50
359.99999999999994
 51
44.99999999999995
  0
ARC
  8
_0-1_
  6
CONTINUOUS
 62
    7
 10
242.54812206878103
 20
467.20209376221607
 40
4.1499999999999782
 50
270
 51
90
  0
LINE
  8
_0-1_
  6
CONTINUOUS
 62
    7
 10
237.74812206878141
 20
471.35209376221576
 11
242.54812206878103
 21
471.35209376221576
  0
ARC
  8
_0-1_
  6
CONTINUOUS
 62
    7
 10
237.74812206878141
 20
467.20209376221607
 40
4.1499999999999782
 50
90
 51
270
  0
LINE
  8
_0-1_
  6
CONTINUOUS
 62
    7
 10
237.74812206878141
 20
463.05209376221603
 11
242.54812206878103
 21
463.05209376221603
  0
LINE
  8
_0-1_
  6
CENTER1
 62
  152
 10
237.74812206878141
 20
462.07453932270283
 11
237.74812206878141
 21
472.05248309689068
  0
LINE
  8
_0-1_
  6
CENTER1
 62
  152
 10
242.54812206878103
 20
462.07453932270283
 11
242.54812206878103
 21
472.05248309689068
  0
LINE
  8
_0-1_
  6
CENTER1
 62
  152
 10
240.14812206878094
 20
462.07453932270283
 11
240.14812206878094
 21
472.05248309689068
  0
LINE
  8
_0-1_
  6
CENTER1
 62
  152
 10
232.46359733366194
 20
467.20209376221607
 11
247.58889305485172
 21
467.20209376221607
  0
ARC
  8
_0-1_
  6
CONTINUOUS
 62
    7
 10
242.54812206878103
 20
497.20209376221607
 40
4.1499999999999782
 50
270
 51
90
  0
LINE
  8
_0-1_
  6
CONTINUOUS
 62
    7
 10
237.74812206878141
 20
501.35209376221576
 11
242.54812206878103
 21
501.35209376221576
  0
ARC
  8
_0-1_
  6
CONTINUOUS
 62
    7
 10
237.74812206878141
 20
497.20209376221607
 40
4.1499999999999782
 50
90
 51
270
  0
LINE
  8
_0-1_
  6
CONTINUOUS
 62
    7
 10
237.74812206878141
 20
493.05209376221603
 11
242.54812206878103
 21
493.05209376221603
  0
LINE
  8
_0-1_
  6
CENTER1
 62
  152
 10
237.74812206878141
 20
492.07453932270283
 11
237.74812206878141
 21
502.05248309689068
  0
LINE
  8
_0-1_
  6
CENTER1
 62
  152
 10
242.54812206878103
 20
492.07453932270283
 11
242.54812206878103
 21
502.05248309689068
  0
LINE
  8
_0-1_
  6
CENTER1
 62
  152
 10
240.14812206878094
 20
492.07453932270283
 11
240.14812206878094
 21
502.05248309689068
  0
LINE
  8
_0-1_
  6
CENTER1
 62
  152
 10
232.46359733366194
 20
497.20209376221607
 11
247.58889305485172
 21
497.20209376221607
  0
CIRCLE
  8
_0-1_
  6
CONTINUOUS
 62
    7
 10
232.64812206878094
 20
482.20209376221607
 40
3.125
  0
LINE
  8
_0-1_
  6
CENTER1
 62
  152
 10
238.16668917921663
 20
482.20209376221607
 11
227.83212407712756
 21
482.20209376221607
  0
LINE
  8
_0-1_
  6
CENTER1
 62
  152
 10
232.64812206878094
 20
477.20478761087691
 11
232.64812206878094
 21
486.81412007422296
  0
CIRCLE
  8
_0-1_
  6
CONTINUOUS
 62
    7
 10
288.14812206878105
 20
391.7020937622159
 40
3.125
  0
LINE
  8
_0-1_
  6
CENTER1
 62
  152
 10
288.14812206878105
 20
397.22066087265159
 11
288.14812206878105
 21
386.88609577056252
  0
LINE
  8
_0-1_
  6
CENTER1
 62
  152
 10
283.15081591744206
 20
391.7020937622159
 11
292.76014838078811
 21
391.7020937622159
  0
ARC
  8
_0-1_
  6
CONTINUOUS
 62
    7
 10
308.14812206878105
 20
401.60209376221604
 40
4.1499999999999755
 50
0
 51
179.99999999999994
  0
LINE
  8
_0-1_
  6
CONTINUOUS
 62
    7
 10
312.29812206878069
 20
396.80209376221597
 11
312.29812206878125
 21
401.60209376221604
  0
ARC
  8
_0-1_
  6
CONTINUOUS
 62
    7
 10
308.14812206878105
 20
396.80209376221597
 40
4.1499999999999764
 50
179.99999999999997
 51
359.99999999999994
  0
LINE
  8
_0-1_
  6
CONTINUOUS
 62
    7
 10
303.99812206878084
 20
396.80209376221597
 11
303.99812206878141
 21
401.60209376221604
  0
LINE
  8
_0-1_
  6
CENTER1
 62
  152
 10
303.0205676292677
 20
396.80209376221597
 11
312.99851140345584
 21
396.80209376221597
  0
LINE
  8
_0-1_
  6
CENTER1
 62
  152
 10
303.02056762926827
 20
401.60209376221604
 11
312.99851140345584
 21
401.60209376221604
  0
LINE
  8
_0-1_
  6
CENTER1
 62
  152
 10
303.0205676292677
 20
399.2020937622159
 11
312.99851140345584
 21
399.2020937622159
  0
LINE
  8
_0-1_
  6
CENTER1
 62
  152
 10
308.14812206878105
 20
391.51756902709707
 11
308.14812206878105
 21
406.64286474828657
  0
ARC
  8
_0-1_
  6
CONTINUOUS
 62
    7
 10
338.14812206878105
 20
401.60209376221604
 40
4.1499999999999755
 50
0
 51
179.99999999999994
  0
LINE
  8
_0-1_
  6
CONTINUOUS
 62
    7
 10
342.29812206878103
 20
396.80209376221597
 11
342.29812206878125
 21
401.60209376221604
  0
ARC
  8
_0-1_
  6
CONTINUOUS
 62
    7
 10
338.14812206878105
 20
396.80209376221597
 40
4.1499999999999764
 50
179.99999999999997
 51
359.99999999999994
  0
LINE
  8
_0-1_
  6
CONTINUOUS
 62
    7
 10
333.99812206878084
 20
396.80209376221597
 11
333.99812206878084
 21
401.60209376221604
  0
LINE
  8
_0-1_
  6
CENTER1
 62
  152
 10
333.0205676292677
 20
396.80209376221597
 11
342.99851140345584
 21
396.80209376221597
  0
LINE
  8
_0-1_
  6
CENTER1
 62
  152
 10
333.0205676292677
 20
401.60209376221604
 11
342.99851140345584
 21
401.60209376221604
  0
LINE
  8
_0-1_
  6
CENTER1
 62
  152
 10
333.0205676292677
 20
399.2020937622159
 11
342.99851140345584
 21
399.2020937622159
  0
LINE
  8
_0-1_
  6
CENTER1
 62
  152
 10
338.14812206878105
 20
391.51756902709707
 11
338.14812206878105
 21
406.64286474828657
  0
CIRCLE
  8
_0-1_
  6
CONTINUOUS
 62
    7
 10
323.14812206878105
 20
391.7020937622159
 40
3.125
  0
LINE
  8
_0-1_
  6
CENTER1
 62
  152
 10
323.14812206878105
 20
397.22066087265159
 11
323.14812206878105
 21
386.88609577056252
  0
LINE
  8
_0-1_
  6
CENTER1
 62
  152
 10
318.15081591744206
 20
391.7020937622159
 11
327.76014838078811
 21
391.7020937622159
  0
LINE
  8
_0-1_
  6
CENTER1
 62
  152
 10
268.14812206878105
 20
388.42769499840938
 11
268.14812206878105
 21
466.73673586904363
  0
LINE
  8
_0-1_
  6
CENTER1
 62
  152
 10
197.00630724938026
 20
427.20209376221601
 11
308.41406558990275
 21
427.20209376221601
  0
ARC
  8
_0-1_
  6
CONTINUOUS
 62
    7
 10
216.64812206878128
 20
449.20209376221607
 40
1
 50
90
 51
180
  0
LINE
  8
_0-1_
  6
CONTINUOUS
 62
    7
 10
215.64812206878105
 20
442.20209376221601
 11
215.64812206878105
 21
449.20209376221607
  0
ARC
  8
_0-1_
  6
CONTINUOUS
 62
    7
 10
216.64812206878128
 20
442.20209376221601
 40
1
 50
180
 51
270
  0
ARC
  8
_0-1_
  6
CONTINUOUS
 62
    7
 10
216.64812206878128
 20
405.20209376221601
 40
1
 50
180
 51
270
  0
LINE
  8
_0-1_
  6
CONTINUOUS
 62
    7
 10
215.64812206878105
 20
412.20209376221601
 11
215.64812206878105
 21
405.20209376221601
  0
ARC
  8
_0-1_
  6
CONTINUOUS
 62
    7
 10
216.64812206878128
 20
412.20209376221601
 40
1
 50
90
 51
180
  0
LINE
  8
_0-1_
  6
CONTINUOUS
 62
    7
 10
216.64812206878128
 20
450.20209376221601
 11
218.14812206878105
 21
450.20209376221601
  0
LINE
  8
_0-1_
  6
CONTINUOUS
 62
    7
 10
216.64812206878128
 20
441.2020937622159
 11
218.14812206878105
 21
441.2020937622159
  0
LINE
  8
_0-1_
  6
CONTINUOUS
 62
    7
 10
216.64812206878128
 20
413.20209376221607
 11
218.14812206878105
 21
413.20209376221607
  0
LINE
  8
_0-1_
  6
CONTINUOUS
 62
    7
 10
216.64812206878128
 20
404.20209376221607
 11
223.14812206878105
 21
404.20209376221607
  0
CIRCLE
  8
_0-1_
  6
CONTINUOUS
 62
    7
 10
268.14812206878105
 20
427.20209376221601
 40
25
  0
CIRCLE
  8
_0-1_
  6
CONTINUOUS
 62
    7
 10
268.14812206878105
 20
427.20209376221601
 40
23.000000000000004
  0
CIRCLE
  8
_0-1_
  6
CONTINUOUS
 62
    7
 10
268.14812206878105
 20
427.20209376221601
 40
13.500000000000004
  0
LINE
  8
_0-1_
  6
CONTINUOUS
 62
    7
 10
271.584994712092
 20
440.02867708619584
 11
258.75841138811256
 21
436.59180444288495
  0
LINE
  8
_0-1_
  6
CONTINUOUS
 62
    7
 10
280.97470539276105
 20
430.63896640552701
 11
271.584994712092
 21
440.02867708619584
  0
LINE
  8
_0-1_
  6
CONTINUOUS
 62
    7
 10
277.53783274944954
 20
417.81238308154713
 11
280.97470539276105
 21
430.63896640552701
  0
LINE
  8
_0-1_
  6
CONTINUOUS
 62
    7
 10
264.7112494254701
 20
414.3755104382364
 11
277.53783274944954
 21
417.81238308154713
  0
LINE
  8
_0-1_
  6
CONTINUOUS
 62
    7
 10
255.32153874480161
 20
423.76522111890506
 11
264.7112494254701
 21
414.3755104382364
  0
LINE
  8
_0-1_
  6
CONTINUOUS
 62
    7
 10
258.75841138811256
 20
436.59180444288495
 11
255.32153874480161
 21
423.76522111890506
  0
LINE
  8
_0-1_
  6
CONTINUOUS
 62
    7
 10
268.75195476722229
 20
434.10393308751861
 11
262.47287022945147
 21
431.1759478813533
  0
LINE
  8
_0-1_
  6
CONTINUOUS
 62
    7
 10
274.42720660655186
 20
430.13007896838144
 11
268.75195476722229
 21
434.10393308751861
  0
LINE
  8
_0-1_
  6
CONTINUOUS
 62
    7
 10
273.82337390811063
 20
423.22823964307872
 11
274.42720660655186
 21
430.13007896838144
  0
LINE
  8
_0-1_
  6
CONTINUOUS
 62
    7
 10
267.54428937033981
 20
420.30025443691346
 11
273.82337390811063
 21
423.22823964307872
  0
LINE
  8
_0-1_
  6
CONTINUOUS
 62
    7
 10
267.54428937033981
 20
420.30025443691346
 11
261.86903753101024
 21
424.27410855605063
  0
LINE
  8
_0-1_
  6
CONTINUOUS
 62
    7
 10
262.47287022945147
 20
431.1759478813533
 11
261.86903753101024
 21
424.27410855605063
  0
CIRCLE
  8
_0-1_
  6
CONTINUOUS
 62
    7
 10
268.14812206878105
 20
427.20209376221601
 40
9
  0
LINE
  8
_0-1_
  6
PHANTOM1
 62
   56
 10
378.13687936519352
 20
377.20209376221607
 11
218.14812206878105
 21
377.20209376221607
  0
LINE
  8
_0-1_
  6
PHANTOM1
 62
   56
 10
258.14812206878105
 20
392.10209376221599
 11
378.13687936519352
 21
392.10209376221599
  0
LINE
  8
_0-1_
  6
PHANTOM1
 62
   56
 10
258.14812206878105
 20
402.30209376221609
 11
378.13687936519352
 21
402.30209376221609
  0
LINE
  8
_0-1_
  6
PHANTOM1
 62
   56
 10
218.14812206878105
 20
417.20209376221601
 11
378.13687936519352
 21
417.20209376221601
  0
LINE
  8
_0-1_
  6
PHANTOM1
 62
   56
 10
258.14812206878105
 20
532.27781291778172
 11
258.14812206878105
 21
377.20209376221607
  0
LINE
  8
_0-1_
  6
PHANTOM1
 62
   56
 10
218.14812206878105
 20
532.27781291778172
 11
218.14812206878105
 21
377.20209376221607
  0
LINE
  8
_0-1_
  6
PHANTOM1
 62
   56
 10
243.24812206878096
 20
532.27781291778172
 11
243.24812206878096
 21
417.20209376221601
  0
LINE
  8
_0-1_
  6
PHANTOM1
 62
   56
 10
233.04812206878114
 20
417.20209376221601
 11
233.04812206878114
 21
532.27781291778172
  0
CIRCLE
  8
_0-1_
  6
CONTINUOUS
 62
    7
 10
232.64812206878094
 20
626.41057202939908
 40
3.125
  0
LINE
  8
_0-1_
  6
CENTER1
 62
  152
 10
238.16668917921663
 20
626.41057202939908
 11
227.83212407712756
 21
626.41057202939908
  0
LINE
  8
_0-1_
  6
CENTER1
 62
  152
 10
232.64812206878094
 20
621.41326587805997
 11
232.64812206878094
 21
631.02259834140591
  0
LINE
  8
_0-1_
  6
CONTINUOUS
 62
    7
 10
361.14812206878116
 20
583.16793134227976
 11
361.14812206878116
 21
556.41057202939908
  0
LINE
  8
_0-1_
  6
CONTINUOUS
 62
    7
 10
251.3907627559006
 20
556.41057202939908
 11
361.14812206878116
 21
556.41057202939908
  0
ARC
  8
_0-1_
  6
CONTINUOUS
 62
    7
 10
251.3907627559006
 20
559.41057202939908
 40
3.0000000000000009
 50
225.00000000000006
 51
270
  0
LINE
  8
_0-1_
  6
CONTINUOUS
 62
    7
 10
219.02680172522128
 20
587.53189237295885
 11
249.26944241234071
 21
557.28925168583964
  0
LINE
  8
_0-1_
  6
CONTINUOUS
 62
    7
 10
218.14812206878105
 20
589.65321271651851
 11
218.14812206878105
 21
699.41057202939919
  0
ARC
  8
_0-1_
  6
CONTINUOUS
 62
    7
 10
221.14812206878116
 20
589.65321271651851
 40
3.0000000000000009
 50
180
 51
225.00000000000006
  0
LINE
  8
_0-1_
  6
CONTINUOUS
 62
    7
 10
244.9054813816615
 20
699.41057202939919
 11
218.14812206878105
 21
699.41057202939919
  0
ARC
  8
_0-1_
  6
CONTINUOUS
 62
    7
 10
244.9054813816615
 20
696.41057202939919
 40
3.0000000000000009
 50
45
 51
90
  0
LINE
  8
_0-1_
  6
CONTINUOUS
 62
    7
 10
360.26944241234094
 20
585.28925168583942
 11
247.02680172522139
 21
698.53189237295874
  0
ARC
  8
_0-1_
  6
CONTINUOUS
 62
    7
 10
358.14812206878105
 20
583.16793134227976
 40
3.0000000000000009
 50
359.99999999999994
 51
44.99999999999995
  0
ARC
  8
_0-1_
  6
CONTINUOUS
 62
    7
 10
242.54812206878103
 20
646.41057202939908
 40
4.1499999999999782
 50
270
 51
90
  0
LINE
  8
_0-1_
  6
CONTINUOUS
 62
    7
 10
237.74812206878141
 20
650.56057202939894
 11
242.54812206878103
 21
650.56057202939894
  0
ARC
  8
_0-1_
  6
CONTINUOUS
 62
    7
 10
237.74812206878141
 20
646.41057202939908
 40
4.1499999999999782
 50
90
 51
270
  0
LINE
  8
_0-1_
  6
CONTINUOUS
 62
    7
 10
237.74812206878141
 20
642.26057202939899
 11
242.54812206878103
 21
642.26057202939899
  0
LINE
  8
_0-1_
  6
CENTER1
 62
  152
 10
237.74812206878141
 20
641.28301758988584
 11
237.74812206878141
 21
651.26096136407364
  0
LINE
  8
_0-1_
  6
CENTER1
 62
  152
 10
242.54812206878103
 20
641.28301758988584
 11
242.54812206878103
 21
651.26096136407364
  0
LINE
  8
_0-1_
  6
CENTER1
 62
  152
 10
240.14812206878094
 20
641.28301758988584
 11
240.14812206878094
 21
651.26096136407364
  0
LINE
  8
_0-1_
  6
CENTER1
 62
  152
 10
232.46359733366194
 20
646.41057202939908
 11
247.58889305485172
 21
646.41057202939908
  0
ARC
  8
_0-1_
  6
CONTINUOUS
 62
    7
 10
242.54812206878103
 20
676.41057202939908
 40
4.1499999999999782
 50
270
 51
90
  0
LINE
  8
_0-1_
  6
CONTINUOUS
 62
    7
 10
237.74812206878141
 20
680.56057202939905
 11
242.54812206878103
 21
680.56057202939905
  0
ARC
  8
_0-1_
  6
CONTINUOUS
 62
    7
 10
237.74812206878141
 20
676.41057202939908
 40
4.1499999999999782
 50
90
 51
270
  0
LINE
  8
_0-1_
  6
CONTINUOUS
 62
    7
 10
237.74812206878141
 20
672.26057202939899
 11
242.54812206878103
 21
672.26057202939899
  0
LINE
  8
_0-1_
  6
CENTER1
 62
  152
 10
237.74812206878141
 20
671.28301758988584
 11
237.74812206878141
 21
681.26096136407364
  0
LINE
  8
_0-1_
  6
CENTER1
 62
  152
 10
242.54812206878103
 20
671.28301758988584
 11
242.54812206878103
 21
681.26096136407364
  0
LINE
  8
_0-1_
  6
CENTER1
 62
  152
 10
240.14812206878094
 20
671.28301758988584
 11
240.14812206878094
 21
681.26096136407364
  0
LINE
  8
_0-1_
  6
CENTER1
 62
  152
 10
232.46359733366194
 20
676.41057202939908
 11
247.58889305485172
 21
676.41057202939908
  0
CIRCLE
  8
_0-1_
  6
CONTINUOUS
 62
    7
 10
232.64812206878094
 20
661.41057202939908
 40
3.125
  0
LINE
  8
_0-1_
  6
CENTER1
 62
  152
 10
238.16668917921663
 20
661.41057202939908
 11
227.83212407712756
 21
661.41057202939908
  0
LINE
  8
_0-1_
  6
CENTER1
 62
  152
 10
232.64812206878094
 20
656.41326587806009
 11
232.64812206878094
 21
666.02259834140591
  0
CIRCLE
  8
_0-1_
  6
CONTINUOUS
 62
    7
 10
288.14812206878105
 20
570.91057202939896
 40
3.125
  0
LINE
  8
_0-1_
  6
CENTER1
 62
  152
 10
288.14812206878105
 20
576.42913913983466
 11
288.14812206878105
 21
566.09457403774559
  0
LINE
  8
_0-1_
  6
CENTER1
 62
  152
 10
283.15081591744206
 20
570.91057202939896
 11
292.76014838078811
 21
570.91057202939896
  0
ARC
  8
_0-1_
  6
CONTINUOUS
 62
    7
 10
308.14812206878105
 20
580.81057202939905
 40
4.1499999999999755
 50
0
 51
179.99999999999994
  0
LINE
  8
_0-1_
  6
CONTINUOUS
 62
    7
 10
312.29812206878069
 20
576.01057202939899
 11
312.29812206878125
 21
580.81057202939905
  0
ARC
  8
_0-1_
  6
CONTINUOUS
 62
    7
 10
308.14812206878105
 20
576.01057202939899
 40
4.1499999999999764
 50
179.99999999999997
 51
359.99999999999994
  0
LINE
  8
_0-1_
  6
CONTINUOUS
 62
    7
 10
303.99812206878084
 20
576.01057202939899
 11
303.99812206878141
 21
580.81057202939905
  0
LINE
  8
_0-1_
  6
CENTER1
 62
  152
 10
303.0205676292677
 20
576.01057202939899
 11
312.99851140345584
 21
576.01057202939899
  0
LINE
  8
_0-1_
  6
CENTER1
 62
  152
 10
303.02056762926827
 20
580.81057202939905
 11
312.99851140345584
 21
580.81057202939905
  0
LINE
  8
_0-1_
  6
CENTER1
 62
  152
 10
303.0205676292677
 20
578.41057202939896
 11
312.99851140345584
 21
578.41057202939896
  0
LINE
  8
_0-1_
  6
CENTER1
 62
  152
 10
308.14812206878105
 20
570.72604729428008
 11
308.14812206878105
 21
585.85134301546964
  0
ARC
  8
_0-1_
  6
CONTINUOUS
 62
    7
 10
338.14812206878105
 20
580.81057202939905
 40
4.1499999999999755
 50
0
 51
179.99999999999994
  0
LINE
  8
_0-1_
  6
CONTINUOUS
 62
    7
 10
342.29812206878103
 20
576.01057202939899
 11
342.29812206878125
 21
580.81057202939905
  0
ARC
  8
_0-1_
  6
CONTINUOUS
 62
    7
 10
338.14812206878105
 20
576.01057202939899
 40
4.1499999999999764
 50
179.99999999999997
 51
359.99999999999994
  0
LINE
  8
_0-1_
  6
CONTINUOUS
 62
    7
 10
333.99812206878084
 20
576.01057202939899
 11
333.99812206878084
 21
580.81057202939905
  0
LINE
  8
_0-1_
  6
CENTER1
 62
  152
 10
333.0205676292677
 20
576.01057202939899
 11
342.99851140345584
 21
576.01057202939899
  0
LINE
  8
_0-1_
  6
CENTER1
 62
  152
 10
333.0205676292677
 20
580.81057202939905
 11
342.99851140345584
 21
580.81057202939905
  0
LINE
  8
_0-1_
  6
CENTER1
 62
  152
 10
333.0205676292677
 20
578.41057202939896
 11
342.99851140345584
 21
578.41057202939896
  0
LINE
  8
_0-1_
  6
CENTER1
 62
  152
 10
338.14812206878105
 20
570.72604729428008
 11
338.14812206878105
 21
585.85134301546964
  0
CIRCLE
  8
_0-1_
  6
CONTINUOUS
 62
    7
 10
323.14812206878105
 20
570.91057202939896
 40
3.125
  0
LINE
  8
_0-1_
  6
CENTER1
 62
  152
 10
323.14812206878105
 20
576.42913913983466
 11
323.14812206878105
 21
566.09457403774559
  0
LINE
  8
_0-1_
  6
CENTER1
 62
  152
 10
318.15081591744206
 20
570.91057202939896
 11
327.76014838078811
 21
570.91057202939896
  0
LINE
  8
_0-1_
  6
CENTER1
 62
  152
 10
268.14812206878105
 20
567.63617326559245
 11
268.14812206878105
 21
645.9452141362267
  0
LINE
  8
_0-1_
  6
CENTER1
 62
  152
 10
197.00630724938026
 20
606.41057202939919
 11
308.41406558990275
 21
606.41057202939919
  0
ARC
  8
_0-1_
  6
CONTINUOUS
 62
    7
 10
216.64812206878128
 20
628.41057202939908
 40
1
 50
90
 51
180
  0
LINE
  8
_0-1_
  6
CONTINUOUS
 62
    7
 10
215.64812206878105
 20
621.41057202939919
 11
215.64812206878105
 21
628.41057202939908
  0
ARC
  8
_0-1_
  6
CONTINUOUS
 62
    7
 10
216.64812206878128
 20
621.41057202939919
 40
1
 50
180
 51
270
  0
ARC
  8
_0-1_
  6
CONTINUOUS
 62
    7
 10
216.64812206878128
 20
584.41057202939919
 40
1
 50
180
 51
270
  0
LINE
  8
_0-1_
  6
CONTINUOUS
 62
    7
 10
215.64812206878105
 20
591.41057202939919
 11
215.64812206878105
 21
584.41057202939919
  0
ARC
  8
_0-1_
  6
CONTINUOUS
 62
    7
 10
216.64812206878128
 20
591.41057202939919
 40
1
 50
90
 51
180
  0
LINE
  8
_0-1_
  6
CONTINUOUS
 62
    7
 10
216.64812206878128
 20
629.41057202939919
 11
218.14812206878105
 21
629.41057202939919
  0
LINE
  8
_0-1_
  6
CONTINUOUS
 62
    7
 10
216.64812206878128
 20
620.41057202939908
 11
218.14812206878105
 21
620.41057202939908
  0
LINE
  8
_0-1_
  6
CONTINUOUS
 62
    7
 10
216.64812206878128
 20
592.41057202939908
 11
218.14812206878105
 21
592.41057202939908
  0
LINE
  8
_0-1_
  6
CONTINUOUS
 62
    7
 10
216.64812206878128
 20
583.41057202939908
 11
223.14812206878105
 21
583.41057202939908
  0
CIRCLE
  8
_0-1_
  6
CONTINUOUS
 62
    7
 10
268.14812206878105
 20
606.41057202939919
 40
25
  0
CIRCLE
  8
_0-1_
  6
CONTINUOUS
 62
    7
 10
268.14812206878105
 20
606.41057202939919
 40
23.000000000000004
  0
CIRCLE
  8
_0-1_
  6
CONTINUOUS
 62
    7
 10
268.14812206878105
 20
606.41057202939919
 40
13.500000000000004
  0
LINE
  8
_0-1_
  6
CONTINUOUS
 62
    7
 10
271.584994712092
 20
619.23715535337885
 11
258.75841138811256
 21
615.80028271006813
  0
LINE
  8
_0-1_
  6
CONTINUOUS
 62
    7
 10
280.97470539276105
 20
609.84744467271003
 11
271.584994712092
 21
619.23715535337885
  0
LINE
  8
_0-1_
  6
CONTINUOUS
 62
    7
 10
277.53783274944954
 20
597.02086134873014
 11
280.97470539276105
 21
609.84744467271003
  0
LINE
  8
_0-1_
  6
CONTINUOUS
 62
    7
 10
264.7112494254701
 20
593.58398870541942
 11
277.53783274944954
 21
597.02086134873014
  0
LINE
  8
_0-1_
  6
CONTINUOUS
 62
    7
 10
255.32153874480161
 20
602.97369938608813
 11
264.7112494254701
 21
593.58398870541942
  0
LINE
  8
_0-1_
  6
CONTINUOUS
 62
    7
 10
258.75841138811256
 20
615.80028271006813
 11
255.32153874480161
 21
602.97369938608813
  0
LINE
  8
_0-1_
  6
CONTINUOUS
 62
    7
 10
268.75195476722229
 20
613.31241135470168
 11
262.47287022945147
 21
610.38442614853636
  0
LINE
  8
_0-1_
  6
CONTINUOUS
 62
    7
 10
274.42720660655186
 20
609.33855723556451
 11
268.75195476722229
 21
613.31241135470168
  0
LINE
  8
_0-1_
  6
CONTINUOUS
 62
    7
 10
273.82337390811063
 20
602.43671791026179
 11
274.42720660655186
 21
609.33855723556451
  0
LINE
  8
_0-1_
  6
CONTINUOUS
 62
    7
 10
267.54428937033981
 20
599.50873270409647
 11
273.82337390811063
 21
602.43671791026179
  0
LINE
  8
_0-1_
  6
CONTINUOUS
 62
    7
 10
267.54428937033981
 20
599.50873270409647
 11
261.86903753101024
 21
603.48258682323365
  0
LINE
  8
_0-1_
  6
CONTINUOUS
 62
    7
 10
262.47287022945147
 20
610.38442614853636
 11
261.86903753101024
 21
603.48258682323365
  0
CIRCLE
  8
_0-1_
  6
CONTINUOUS
 62
    7
 10
268.14812206878105
 20
606.41057202939919
 40
9
  0
LINE
  8
_0-1_
  6
PHANTOM1
 62
   56
 10
387.106779549046
 20
558.33057202939892
 11
220.06812206878112
 21
558.33057202939892
  0
LINE
  8
_0-1_
  6
PHANTOM1
 62
   56
 10
220.06812206878112
 20
722.26701852281496
 11
220.06812206878112
 21
558.33057202939892
  0
LINE
  8
_0-1_
  6
PHANTOM1
 62
   56
 10
245.06812206878112
 20
722.26701852281496
 11
245.06812206878112
 21
558.33057202939892
  0
LINE
  8
_0-1_
  6
PHANTOM1
 62
   56
 10
387.106779549046
 20
583.33057202939904
 11
220.06812206878112
 21
583.33057202939904
  0
LINE
  8
_0-1_
  6
PHANTOM1
 62
   56
 10
387.106779549046
 20
574.43057202939895
 11
245.06812206878112
 21
574.43057202939895
  0
LINE
  8
_0-1_
  6
PHANTOM1
 62
   56
 10
387.106779549046
 20
567.2305720293989
 11
245.06812206878112
 21
567.2305720293989
  0
LINE
  8
_0-1_
  6
PHANTOM1
 62
   56
 10
228.96812206878099
 20
725.36922950966414
 11
228.96812206878099
 21
583.33057202939904
  0
LINE
  8
_0-1_
  6
PHANTOM1
 62
   56
 10
236.16812206878126
 20
725.36922950966414
 11
236.16812206878126
 21
583.33057202939904
  0
CIRCLE
  8
_0-1_
  6
PHANTOM1
 62
   56
 10
338.14812206878105
 20
397.20209376221601
 40
4
  0
CIRCLE
  8
_0-1_
  6
PHANTOM1
 62
   56
 10
308.14812206878105
 20
397.20209376221601
 40
4
  0
ARC
  8
_0-1_
  6
CONTINUOUS
 62
    7
 10
221.14812206878116
 20
410.44473444933544
 40
3.0000000000000009
 50
179.99999999999989
 51
224.99999999999983
  0
CIRCLE
  8
_0-1_
  6
PHANTOM1
 62
   56
 10
238.14812206878105
 20
467.20209376221607
 40
4
  0
CIRCLE
  8
_0-1_
  6
PHANTOM1
 62
   56
 10
238.14812206878105
 20
497.20209376221607
 40
4
  0
ARC
  8
_0-1_
  6
CONTINUOUS
 62
    7
 10
206.50521449519255
 20
415.65209376221588
 40
1
 50
188.4879540707918
 51
270
  0
ARC
  8
_0-1_
  6
CONTINUOUS
 62
    7
 10
283.89937204714607
 20
427.20209376221601
 40
79.251249978365095
 50
171.51204592920809
 51
188.48795407079191
  0
ARC
  8
_0-1_
  6
CONTINUOUS
 62
    7
 10
206.50521449519255
 20
438.75209376221585
 40
1
 50
90
 51
171.5120459292082
  0
LINE
  8
_0-1_
  6
CONTINUOUS
 62
    7
 10
206.50521449519255
 20
439.75209376221596
 11
218.14812206878105
 21
439.75209376221596
  0
LINE
  8
_0-1_
  6
CONTINUOUS
 62
    7
 10
206.50521449519255
 20
414.65209376221594
 11
218.14812206878105
 21
414.65209376221594
  0
ARC
  8
_0-1_
  6
CONTINUOUS
 62
    7
 10
206.50521449519255
 20
594.86057202939901
 40
1
 50
188.4879540707918
 51
270
  0
ARC
  8
_0-1_
  6
CONTINUOUS
 62
    7
 10
283.89937204714607
 20
606.41057202939919
 40
79.251249978365095
 50
171.51204592920809
 51
188.48795407079191
  0
ARC
  8
_0-1_
  6
CONTINUOUS
 62
    7
 10
206.50521449519255
 20
617.96057202939903
 40
1
 50
90
 51
171.5120459292082
  0
LINE
  8
_0-1_
  6
CONTINUOUS
 62
    7
 10
206.50521449519255
 20
618.96057202939903
 11
218.14812206878105
 21
618.96057202939903
  0
LINE
  8
_0-1_
  6
CONTINUOUS
 62
    7
 10
206.50521449519255
 20
593.86057202939912
 11
218.14812206878105
 21
593.86057202939912
  0
LINE
  8
_0-1_
  6
CONTINUOUS
 62
    7
 10
37.671454136408784
 20
268.88109839673723
 11
173.28137069078184
 21
268.88109839673723
  0
LINE
  8
_0-1_
  6
CONTINUOUS
 62
    7
 10
30.281370690781728
 20
265.08109839673727
 11
33.745472305919293
 21
263.08109839673722
  0
LINE
  8
_0-1_
  6
CONTINUOUS
 62
    7
 10
36.805428732624591
 20
268.38109839673723
 11
33.745472305919293
 21
263.08109839673722
  0
ARC
  8
_0-1_
  6
CONTINUOUS
 62
    7
 10
37.671454136408784
 20
267.88109839673712
 40
1
 50
89.999999999999943
 51
149.99999999999994
  0
LINE
  8
_0-1_
  6
CONTINUOUS
 62
    7
 10
33.341327117486685
 20
270.38109839673712
 11
30.281370690781728
 21
265.08109839673727
  0
ARC
  8
_0-1_
  6
CONTINUOUS
 62
    7
 10
37.671454136408784
 20
267.88109839673712
 40
5
 50
90
 51
149.99999999999972
  0
LINE
  8
_0-1_
  6
CONTINUOUS
 62
    7
 10
37.671454136408784
 20
272.88109839673712
 11
173.28137069078184
 21
272.88109839673712
  0
LINE
  8
_0-1_
  6
CONTINUOUS
 62
    7
 10
173.28137069078184
 20
268.88109839673723
 11
173.28137069078184
 21
272.88109839673712
  0
LINE
  8
_0-1_
  6
CONTINUOUS
 62
  152
 10
54.906370690781728
 20
258.65109885450079
 11
54.906370690781728
 21
265.65109837766374
  0
LINE
  8
_0-1_
  6
CONTINUOUS
 62
  152
 10
55.718870690781614
 20
258.65109885450079
 11
55.718870690781614
 21
265.65109837766374
  0
LINE
  8
_0-1_
  6
CONTINUOUS
 62
  152
 10
58.968870690781728
 20
258.65109885450079
 11
58.968870690781728
 21
265.65109837766374
  0
LINE
  8
_0-1_
  6
CONTINUOUS
 62
  152
 10
58.156370690781955
 20
258.65109885450079
 11
58.156370690781955
 21
265.65109837766374
  0
LINE
  8
_0-1_
  6
CONTINUOUS
 62
  152
 10
57.343870690781841
 20
258.65109885450079
 11
57.343870690781841
 21
265.65109837766374
  0
LINE
  8
_0-1_
  6
CONTINUOUS
 62
  152
 10
56.531370690781728
 20
258.65109885450079
 11
56.531370690781728
 21
265.65109837766374
  0
LINE
  8
_0-1_
  6
CONTINUOUS
 62
   56
 10
46.781370690781728
 20
258.65109885450079
 11
47.781370690781728
 21
257.6510988545009
  0
LINE
  8
_0-1_
  6
CONTINUOUS
 62
   56
 10
58.781370690781955
 20
257.6510988545009
 11
47.781370690781728
 21
257.6510988545009
  0
LINE
  8
_0-1_
  6
CONTINUOUS
 62
   56
 10
58.781370690781955
 20
257.6510988545009
 11
59.7813706907815
 21
258.65109885450079
  0
LINE
  8
_0-1_
  6
CONTINUOUS
 62
   56
 10
46.781370690781728
 20
258.65109885450079
 11
59.7813706907815
 21
258.65109885450079
  0
LINE
  8
_0-1_
  6
CONTINUOUS
 62
   56
 10
46.781370690781728
 20
258.65109885450079
 11
46.781370690781728
 21
267.65109837766363
  0
LINE
  8
_0-1_
  6
CONTINUOUS
 62
   56
 10
59.7813706907815
 20
258.65109885450079
 11
59.7813706907815
 21
267.65109837766363
  0
LINE
  8
_0-1_
  6
CONTINUOUS
 62
   56
 10
46.781370690781728
 20
265.65109837766374
 11
59.7813706907815
 21
265.65109837766374
  0
LINE
  8
_0-1_
  6
CONTINUOUS
 62
   56
 10
44.386370233017942
 20
267.65109837766363
 11
44.386370233017942
 21
268.88109839673723
  0
LINE
  8
_0-1_
  6
CONTINUOUS
 62
   56
 10
44.386370233017942
 20
267.65109837766363
 11
62.176371148545286
 21
267.65109837766363
  0
LINE
  8
_0-1_
  6
CONTINUOUS
 62
   56
 10
62.176371148545286
 20
267.65109837766363
 11
62.176371148545286
 21
268.88109839673723
  0
LINE
  8
_0-1_
  6
CONTINUOUS
 62
   56
 10
56.731370738465444
 20
281.65109837766363
 11
49.831370643097898
 21
281.65109837766363
  0
LINE
  8
_0-1_
  6
CONTINUOUS
 62
   56
 10
49.281370690781728
 20
281.1010991406032
 11
49.831370643097898
 21
281.65109837766363
  0
LINE
  8
_0-1_
  6
CONTINUOUS
 62
   56
 10
56.731370738465444
 20
281.65109837766363
 11
57.281370690781614
 21
281.1010991406032
  0
LINE
  8
_0-1_
  6
CONTINUOUS
 62
   56
 10
49.281370690781728
 20
281.1010991406032
 11
57.281370690781614
 21
281.1010991406032
  0
LINE
  8
_0-1_
  6
CONTINUOUS
 62
   56
 10
53.858720949609051
 20
267.65109837766363
 11
52.704020431954518
 21
265.65109837766374
  0
ARC
  8
_0-1_
  6
CONTINUOUS
 62
    7
 10
148.10560249471371
 20
257.4303020428876
 40
3.0000000000000009
 50
0
 51
44.999999999999702
  0
LINE
  8
_0-1_
  6
CONTINUOUS
 62
   56
 10
57.281370690781614
 20
273.48110713673213
 11
57.281370690781614
 21
272.88109839673712
  0
LINE
  8
_0-1_
  6
CONTINUOUS
 62
  152
 10
56.731370738465444
 20
272.88109839673712
 11
56.731370738465444
 21
273.48110524748341
  0
LINE
  8
_0-1_
  6
CONTINUOUS
 62
  152
 10
56.731370738465444
 20
280.08112119276279
 11
56.731370738465444
 21
281.65109837766363
  0
LINE
  8
_0-1_
  6
CONTINUOUS
 62
  152
 10
49.831370643097898
 20
272.88109839673712
 11
49.831370643097898
 21
273.48108154599765
  0
LINE
  8
_0-1_
  6
CONTINUOUS
 62
  152
 10
49.831370643097898
 20
280.08109560090418
 11
49.831370643097898
 21
281.65109837766363
  0
LINE
  8
_0-1_
  6
CONTINUOUS
 62
   56
 10
49.281370690781728
 20
273.48107965674893
 11
49.281370690781728
 21
272.88109839673712
  0
LINE
  8
_0-1_
  6
CENTER1
 62
  152
 10
53.281370690781841
 20
282.66944002662206
 11
53.281370690781841
 21
256.33176222041681
  0
LINE
  8
_0-1_
  6
CONTINUOUS
 62
  152
 10
155.30637069078125
 20
258.65109885450079
 11
155.30637069078125
 21
265.65109837766374
  0
LINE
  8
_0-1_
  6
CONTINUOUS
 62
  152
 10
156.11887069078114
 20
258.65109885450079
 11
156.11887069078114
 21
265.65109837766374
  0
LINE
  8
_0-1_
  6
CONTINUOUS
 62
  152
 10
159.36887069078136
 20
258.65109885450079
 11
159.36887069078136
 21
265.65109837766374
  0
LINE
  8
_0-1_
  6
CONTINUOUS
 62
  152
 10
158.55637069078148
 20
258.65109885450079
 11
158.55637069078148
 21
265.65109837766374
  0
LINE
  8
_0-1_
  6
CONTINUOUS
 62
  152
 10
157.74387069078136
 20
258.65109885450079
 11
157.74387069078136
 21
265.65109837766374
  0
LINE
  8
_0-1_
  6
CONTINUOUS
 62
  152
 10
156.93137069078125
 20
258.65109885450079
 11
156.93137069078125
 21
265.65109837766374
  0
LINE
  8
_0-1_
  6
CONTINUOUS
 62
   56
 10
147.18137069078136
 20
258.65109885450079
 11
148.18137069078125
 21
257.6510988545009
  0
LINE
  8
_0-1_
  6
CONTINUOUS
 62
   56
 10
159.18137069078148
 20
257.6510988545009
 11
148.18137069078125
 21
257.6510988545009
  0
LINE
  8
_0-1_
  6
CONTINUOUS
 62
   56
 10
159.18137069078148
 20
257.6510988545009
 11
160.18137069078114
 21
258.65109885450079
  0
LINE
  8
_0-1_
  6
CONTINUOUS
 62
   56
 10
147.18137069078136
 20
258.65109885450079
 11
160.18137069078114
 21
258.65109885450079
  0
LINE
  8
_0-1_
  6
CONTINUOUS
 62
   56
 10
147.18137069078136
 20
258.65109885450079
 11
147.18137069078136
 21
267.65109837766363
  0
LINE
  8
_0-1_
  6
CONTINUOUS
 62
   56
 10
160.18137069078114
 20
258.65109885450079
 11
160.18137069078114
 21
267.65109837766363
  0
LINE
  8
_0-1_
  6
CONTINUOUS
 62
   56
 10
147.18137069078136
 20
265.65109837766374
 11
160.18137069078114
 21
265.65109837766374
  0
LINE
  8
_0-1_
  6
CONTINUOUS
 62
   56
 10
144.78637023301764
 20
267.65109837766363
 11
144.78637023301764
 21
268.88109839673723
  0
LINE
  8
_0-1_
  6
CONTINUOUS
 62
   56
 10
144.78637023301764
 20
267.65109837766363
 11
162.57637114854481
 21
267.65109837766363
  0
LINE
  8
_0-1_
  6
CONTINUOUS
 62
   56
 10
162.57637114854481
 20
267.65109837766363
 11
162.57637114854481
 21
268.88109839673723
  0
LINE
  8
_0-1_
  6
CONTINUOUS
 62
   56
 10
157.13137073846497
 20
281.65109837766363
 11
150.23137064309742
 21
281.65109837766363
  0
LINE
  8
_0-1_
  6
CONTINUOUS
 62
   56
 10
149.68137069078125
 20
281.1010991406032
 11
150.23137064309742
 21
281.65109837766363
  0
LINE
  8
_0-1_
  6
CONTINUOUS
 62
   56
 10
157.13137073846497
 20
281.65109837766363
 11
157.68137069078114
 21
281.1010991406032
  0
LINE
  8
_0-1_
  6
CONTINUOUS
 62
   56
 10
149.68137069078125
 20
281.1010991406032
 11
157.68137069078114
 21
281.1010991406032
  0
LINE
  8
_0-1_
  6
CONTINUOUS
 62
   56
 10
154.25872094960857
 20
267.65109837766363
 11
153.10402043195415
 21
265.65109837766374
  0
LINE
  8
_0-1_
  6
CONTINUOUS
 62
    7
 10
150.18140639182184
 20
280.08109541558855
 11
157.18124118756157
 21
280.0811213777306
  0
LINE
  8
_0-1_
  6
CONTINUOUS
 62
    7
 10
158.76877923039279
 20
276.48109839673725
 11
158.50634854130715
 21
273.4811099705293
  0
LINE
  8
_0-1_
  6
CONTINUOUS
 62
    7
 10
157.18124118756157
 20
280.0811213777306
 11
160.36008616908168
 21
278.24585641256124
  0
LINE
  8
_0-1_
  6
CONTINUOUS
 62
    7
 10
160.68132466270674
 20
276.48109839673725
 11
158.76877923039279
 21
276.48109839673725
  0
LINE
  8
_0-1_
  6
CONTINUOUS
 62
    7
 10
160.36008616908168
 20
278.24585641256124
 11
160.68132466270674
 21
276.48109839673725
  0
LINE
  8
_0-1_
  6
CONTINUOUS
 62
    7
 10
148.59388888294779
 20
276.48109839673725
 11
148.85639284029367
 21
273.48107682295176
  0
LINE
  8
_0-1_
  6
CONTINUOUS
 62
    7
 10
158.50634854130715
 20
273.4811099705293
 11
148.85639284029367
 21
273.48107682295176
  0
LINE
  8
_0-1_
  6
CONTINUOUS
 62
    7
 10
150.1814883378521
 20
280.0811213777306
 11
147.00264335633199
 21
278.24585641256124
  0
LINE
  8
_0-1_
  6
CONTINUOUS
 62
    7
 10
146.68140486270693
 20
276.48109839673725
 11
148.59395029502116
 21
276.48109839673725
  0
LINE
  8
_0-1_
  6
CONTINUOUS
 62
    7
 10
147.00264335633199
 20
278.24585641256124
 11
146.68140486270693
 21
276.48109839673725
  0
LINE
  8
_0-1_
  6
CONTINUOUS
 62
   56
 10
157.68137069078114
 20
281.1010991406032
 11
157.68137069078114
 21
279.79237808869243
  0
LINE
  8
_0-1_
  6
CONTINUOUS
 62
   56
 10
157.68137069078114
 20
273.48110713673213
 11
157.68137069078114
 21
272.88109839673712
  0
LINE
  8
_0-1_
  6
CONTINUOUS
 62
  152
 10
157.13137073846497
 20
272.88109839673712
 11
157.13137073846497
 21
273.48110524748341
  0
LINE
  8
_0-1_
  6
CONTINUOUS
 62
  152
 10
157.13137073846497
 20
280.08112119276279
 11
157.13137073846497
 21
281.65109837766363
  0
LINE
  8
_0-1_
  6
CONTINUOUS
 62
  152
 10
150.23137064309742
 20
272.88109839673712
 11
150.23137064309742
 21
273.48108154599765
  0
LINE
  8
_0-1_
  6
CONTINUOUS
 62
  152
 10
150.23137064309742
 20
280.08109560090418
 11
150.23137064309742
 21
281.65109837766363
  0
LINE
  8
_0-1_
  6
CONTINUOUS
 62
   56
 10
149.68137069078125
 20
281.1010991406032
 11
149.68137069078125
 21
279.79238493368632
  0
LINE
  8
_0-1_
  6
CONTINUOUS
 62
   56
 10
149.68137069078125
 20
273.48107965674893
 11
149.68137069078125
 21
272.88109839673712
  0
LINE
  8
_0-1_
  6
CENTER1
 62
  152
 10
153.68137069078136
 20
282.66944002662206
 11
153.68137069078136
 21
256.33176222041681
  0
LINE
  8
_0-1_
  6
CONTINUOUS
 62
    7
 10
60.781370690781841
 20
273.48111915922476
 11
45.781370690781841
 21
273.48106763425631
  0
LINE
  8
_0-1_
  6
CONTINUOUS
 62
    7
 10
45.781370690781841
 20
280.08108057959623
 11
45.781370690781841
 21
273.48106763425631
  0
LINE
  8
_0-1_
  6
CONTINUOUS
 62
    7
 10
45.781370690781841
 20
280.08108057959623
 11
60.781370690781841
 21
280.0811362140708
  0
LINE
  8
_0-1_
  6
CONTINUOUS
 62
    7
 10
60.781370690781841
 20
280.0811362140708
 11
60.781370690781841
 21
273.48111915922476
  0
LINE
  8
_0-1_
  6
CONTINUOUS
 62
    7
 10
45.781384043162802
 20
276.48105171062093
 11
60.781384043162802
 21
276.48110734509555
  0
LINE
  8
_0-1_
  6
CONTINUOUS
 62
    7
 10
45.781377497759081
 20
278.24580382460886
 11
60.781377497759081
 21
278.24585945908348
  0
LINE
  8
_0-1_
  6
CONTINUOUS
 62
   56
 10
57.281370690781614
 20
281.1010991406032
 11
57.281370690781614
 21
280.08112323269341
  0
LINE
  8
_0-1_
  6
CONTINUOUS
 62
   56
 10
49.281370690781728
 20
281.1010991406032
 11
49.281370690781728
 21
280.08109356097361
  0
LINE
  8
_0-1_
  6
CONTINUOUS
 62
  152
 10
84.906370690781728
 20
258.65109885450079
 11
84.906370690781728
 21
265.65109837766374
  0
LINE
  8
_0-1_
  6
CONTINUOUS
 62
  152
 10
85.718870690781614
 20
258.65109885450079
 11
85.718870690781614
 21
265.65109837766374
  0
LINE
  8
_0-1_
  6
CONTINUOUS
 62
  152
 10
88.968870690781728
 20
258.65109885450079
 11
88.968870690781728
 21
265.65109837766374
  0
LINE
  8
_0-1_
  6
CONTINUOUS
 62
  152
 10
88.156370690781955
 20
258.65109885450079
 11
88.156370690781955
 21
265.65109837766374
  0
LINE
  8
_0-1_
  6
CONTINUOUS
 62
  152
 10
87.343870690781841
 20
258.65109885450079
 11
87.343870690781841
 21
265.65109837766374
  0
LINE
  8
_0-1_
  6
CONTINUOUS
 62
  152
 10
86.531370690781728
 20
258.65109885450079
 11
86.531370690781728
 21
265.65109837766374
  0
LINE
  8
_0-1_
  6
CONTINUOUS
 62
   56
 10
76.781370690781728
 20
258.65109885450079
 11
77.781370690781728
 21
257.6510988545009
  0
LINE
  8
_0-1_
  6
CONTINUOUS
 62
   56
 10
88.781370690781955
 20
257.6510988545009
 11
77.781370690781728
 21
257.6510988545009
  0
LINE
  8
_0-1_
  6
CONTINUOUS
 62
   56
 10
88.781370690781955
 20
257.6510988545009
 11
89.7813706907815
 21
258.65109885450079
  0
LINE
  8
_0-1_
  6
CONTINUOUS
 62
   56
 10
76.781370690781728
 20
258.65109885450079
 11
89.7813706907815
 21
258.65109885450079
  0
LINE
  8
_0-1_
  6
CONTINUOUS
 62
   56
 10
76.781370690781728
 20
258.65109885450079
 11
76.781370690781728
 21
267.65109837766363
  0
LINE
  8
_0-1_
  6
CONTINUOUS
 62
   56
 10
89.7813706907815
 20
258.65109885450079
 11
89.7813706907815
 21
267.65109837766363
  0
LINE
  8
_0-1_
  6
CONTINUOUS
 62
   56
 10
76.781370690781728
 20
265.65109837766374
 11
89.7813706907815
 21
265.65109837766374
  0
LINE
  8
_0-1_
  6
CONTINUOUS
 62
   56
 10
74.386370233017942
 20
267.65109837766363
 11
74.386370233017942
 21
268.88109839673723
  0
LINE
  8
_0-1_
  6
CONTINUOUS
 62
   56
 10
74.386370233017942
 20
267.65109837766363
 11
92.176371148545286
 21
267.65109837766363
  0
LINE
  8
_0-1_
  6
CONTINUOUS
 62
   56
 10
92.176371148545286
 20
267.65109837766363
 11
92.176371148545286
 21
268.88109839673723
  0
LINE
  8
_0-1_
  6
CONTINUOUS
 62
   56
 10
86.731370738465444
 20
281.65109837766363
 11
79.831370643097898
 21
281.65109837766363
  0
LINE
  8
_0-1_
  6
CONTINUOUS
 62
   56
 10
79.281370690781728
 20
281.1010991406032
 11
79.831370643097898
 21
281.65109837766363
  0
LINE
  8
_0-1_
  6
CONTINUOUS
 62
   56
 10
86.731370738465444
 20
281.65109837766363
 11
87.281370690781614
 21
281.1010991406032
  0
LINE
  8
_0-1_
  6
CONTINUOUS
 62
   56
 10
79.281370690781728
 20
281.1010991406032
 11
87.281370690781614
 21
281.1010991406032
  0
LINE
  8
_0-1_
  6
CONTINUOUS
 62
   56
 10
83.858720949609051
 20
267.65109837766363
 11
82.704020431954518
 21
265.65109837766374
  0
LINE
  8
_0-1_
  6
CONTINUOUS
 62
   56
 10
87.281370690781614
 20
273.48110713673213
 11
87.281370690781614
 21
272.88109839673712
  0
LINE
  8
_0-1_
  6
CONTINUOUS
 62
  152
 10
86.731370738465444
 20
272.88109839673712
 11
86.731370738465444
 21
273.48110524748341
  0
LINE
  8
_0-1_
  6
CONTINUOUS
 62
  152
 10
86.731370738465444
 20
280.08112119276279
 11
86.731370738465444
 21
281.65109837766363
  0
LINE
  8
_0-1_
  6
CONTINUOUS
 62
  152
 10
79.831370643097898
 20
272.88109839673712
 11
79.831370643097898
 21
273.48108154599765
  0
LINE
  8
_0-1_
  6
CONTINUOUS
 62
  152
 10
79.831370643097898
 20
280.08109560090418
 11
79.831370643097898
 21
281.65109837766363
  0
LINE
  8
_0-1_
  6
CONTINUOUS
 62
   56
 10
79.281370690781728
 20
273.48107965674893
 11
79.281370690781728
 21
272.88109839673712
  0
LINE
  8
_0-1_
  6
CENTER1
 62
  152
 10
83.281370690781841
 20
282.66944002662206
 11
83.281370690781841
 21
256.33176222041681
  0
LINE
  8
_0-1_
  6
CONTINUOUS
 62
    7
 10
90.781370690781841
 20
273.48111915922476
 11
75.781370690781841
 21
273.48106763425631
  0
LINE
  8
_0-1_
  6
CONTINUOUS
 62
    7
 10
75.781370690781841
 20
280.08108057959623
 11
75.781370690781841
 21
273.48106763425631
  0
LINE
  8
_0-1_
  6
CONTINUOUS
 62
    7
 10
75.781370690781841
 20
280.08108057959623
 11
90.781370690781841
 21
280.0811362140708
  0
LINE
  8
_0-1_
  6
CONTINUOUS
 62
    7
 10
90.781370690781841
 20
280.0811362140708
 11
90.781370690781841
 21
273.48111915922476
  0
LINE
  8
_0-1_
  6
CONTINUOUS
 62
    7
 10
75.781384043162802
 20
276.48105171062093
 11
90.781384043162802
 21
276.48110734509555
  0
LINE
  8
_0-1_
  6
CONTINUOUS
 62
    7
 10
75.781377497759081
 20
278.24580382460886
 11
90.781377497759081
 21
278.24585945908348
  0
LINE
  8
_0-1_
  6
CONTINUOUS
 62
   56
 10
87.281370690781614
 20
281.1010991406032
 11
87.281370690781614
 21
280.08112323269341
  0
LINE
  8
_0-1_
  6
CONTINUOUS
 62
   56
 10
79.281370690781728
 20
281.1010991406032
 11
79.281370690781728
 21
280.08109356097361
  0
LINE
  8
_0-1_
  6
CENTER1
 62
  152
 10
268.14812206878105
 20
182.15583344900782
 11
268.14812206878105
 21
285.38504454531267
  0
LINE
  8
_0-1_
  6
CENTER1
 62
  152
 10
268.14812206878105
 20
141.28109438448138
 11
268.14812206878105
 21
142.74805984602068
  0
LINE
  8
_0-1_
  6
PHANTOM1
 62
   56
 10
383.35651403008757
 20
312.88109839673712
 11
258.14812206878105
 21
312.88109839673712
  0
LINE
  8
_0-1_
  6
PHANTOM1
 62
   56
 10
383.35651403008757
 20
272.88109839673712
 11
258.14812206878105
 21
272.88109839673712
  0
LINE
  8
_0-1_
  6
PHANTOM1
 62
   56
 10
8.0729787294751532
 20
312.88109839673712
 11
133.28137069078178
 21
312.88109839673712
  0
LINE
  8
_0-1_
  6
PHANTOM1
 62
   56
 10
8.0729787294751532
 20
272.88109839673712
 11
133.28137069078178
 21
272.88109839673712
  0
LINE
  8
_0-1_
  6
PHANTOM1
 62
   56
 10
258.14812206878105
 20
287.78109839673698
 11
378.13687936519352
 21
287.78109839673698
  0
LINE
  8
_0-1_
  6
PHANTOM1
 62
   56
 10
258.14812206878105
 20
297.98109839673714
 11
378.13687936519352
 21
297.98109839673714
  0
LINE
  8
_0-1_
  6
PHANTOM1
 62
   56
 10
218.14812206878105
 20
330.54063671845222
 11
218.14812206878105
 21
272.88109839673712
  0
LINE
  8
_0-1_
  6
PHANTOM1
 62
   56
 10
258.14812206878105
 20
330.54063671845222
 11
258.14812206878105
 21
272.88109839673712
  0
LINE
  8
_0-1_
  6
PHANTOM1
 62
   56
 10
173.28137069078184
 20
330.54063671845222
 11
173.28137069078184
 21
272.88109839673712
  0
LINE
  8
_0-1_
  6
PHANTOM1
 62
   56
 10
133.28137069078178
 20
330.54063671845222
 11
133.28137069078178
 21
272.88109839673712
  0
LINE
  8
_0-1_
  6
PHANTOM1
 62
   56
 10
243.24812206878113
 20
272.88109839673712
 11
243.24812206878113
 21
330.54063671845222
  0
LINE
  8
_0-1_
  6
PHANTOM1
 62
   56
 10
233.04812206878103
 20
272.88109839673712
 11
233.04812206878103
 21
330.54063671845222
  0
LINE
  8
_0-1_
  6
PHANTOM1
 62
   56
 10
158.38137069078181
 20
272.88109839673712
 11
158.38137069078181
 21
330.54063671845222
  0
LINE
  8
_0-1_
  6
PHANTOM1
 62
   56
 10
148.1813706907817
 20
272.88109839673712
 11
148.1813706907817
 21
330.54063671845222
  0
LINE
  8
_0-1_
  6
PHANTOM1
 62
   56
 10
133.28137069078178
 20
297.98109839673714
 11
13.292613394369369
 21
297.98109839673714
  0
LINE
  8
_0-1_
  6
PHANTOM1
 62
   56
 10
133.28137069078178
 20
287.78109839673698
 11
13.292613394369369
 21
287.78109839673698
  0
LINE
  8
_0-1_
  6
CENTER1
 62
  152
 10
388.14695935949095
 20
427.20209376221601
 11
499.55471770001344
 21
427.20209376221601
  0
ARC
  8
_0-1_
  6
CONTINUOUS
 62
    7
 10
453.78877417889169
 20
443.2878017043613
 40
0.5
 50
288.87650363055582
 51
0
  0
ARC
  8
_0-1_
  6
CONTINUOUS
 62
    7
 10
459.2887741788918
 20
427.20209376221601
 40
16.500000000000004
 50
108.87650363055933
 51
116.12349636944074
  0
ARC
  8
_0-1_
  6
CONTINUOUS
 62
    7
 10
451.80354830934056
 20
442.46549422481928
 40
0.5
 50
225.00000000000347
 51
296.12349636944333
  0
LINE
  8
_0-1_
  6
CONTINUOUS
 62
    7
 10
454.28877417889169
 20
443.2878017043613
 11
454.28877417889169
 21
450.26721895155742
  0
ARC
  8
_0-1_
  6
CONTINUOUS
 62
    7
 10
454.78877417889186
 20
450.26721895155742
 40
0.5
 50
101.03971441403868
 51
180
  0
LINE
  8
_0-1_
  6
CONTINUOUS
 62
    7
 10
464.28877417889174
 20
443.2878017043613
 11
464.28877417889174
 21
450.26721895155742
  0
ARC
  8
_0-1_
  6
CONTINUOUS
 62
    7
 10
459.2887741788918
 20
427.20209376221601
 40
24.000000000000007
 50
78.960285585967029
 51
101.0397144140331
  0
ARC
  8
_0-1_
  6
CONTINUOUS
 62
    7
 10
463.78877417889157
 20
450.26721895155742
 40
0.5
 50
0
 51
78.960285585961316
  0
ARC
  8
_0-1_
  6
CONTINUOUS
 62
    7
 10
459.2887741788918
 20
427.20209376221601
 40
21.000000000000004
 50
76.225853001973277
 51
103.77414699802672
  0
ARC
  8
_0-1_
  6
CONTINUOUS
 62
    7
 10
444.02537371628858
 20
434.68731963176731
 40
0.5
 50
333.87650363055582
 51
45
  0
ARC
  8
_0-1_
  6
CONTINUOUS
 62
    7
 10
459.2887741788918
 20
427.20209376221601
 40
16.500000000000004
 50
153.87650363055931
 51
161.12349636944074
  0
ARC
  8
_0-1_
  6
CONTINUOUS
 62
    7
 10
443.20306623674639
 20
432.70209376221578
 40
0.5
 50
270.00000000000347
 51
341.12349636944333
  0
LINE
  8
_0-1_
  6
CONTINUOUS
 62
    7
 10
444.37892710688186
 20
435.04087302236064
 11
439.44373384265879
 21
439.9760662865832
  0
ARC
  8
_0-1_
  6
CONTINUOUS
 62
    7
 10
439.79728723325206
 20
440.32961967717642
 40
0.5
 50
146.03971441403866
 51
225
  0
LINE
  8
_0-1_
  6
CONTINUOUS
 62
    7
 10
451.44999491874728
 20
442.11194083422595
 11
446.51480165452438
 21
447.04713409844874
  0
ARC
  8
_0-1_
  6
CONTINUOUS
 62
    7
 10
459.2887741788918
 20
427.20209376221601
 40
24.000000000000007
 50
123.96028558596703
 51
146.03971441403309
  0
ARC
  8
_0-1_
  6
CONTINUOUS
 62
    7
 10
446.1612482639311
 20
446.69358070785552
 40
0.5
 50
45
 51
123.96028558596133
  0
ARC
  8
_0-1_
  6
CONTINUOUS
 62
    7
 10
459.2887741788918
 20
427.20209376221601
 40
21.000000000000004
 50
121.22585300197328
 51
148.77414699802674
  0
ARC
  8
_0-1_
  6
CONTINUOUS
 62
    7
 10
443.20306623674639
 20
421.7020937622159
 40
0.5
 50
18.876503630555842
 51
90
  0
ARC
  8
_0-1_
  6
CONTINUOUS
 62
    7
 10
459.2887741788918
 20
427.20209376221601
 40
16.500000000000004
 50
198.87650363055931
 51
206.12349636944074
  0
ARC
  8
_0-1_
  6
CONTINUOUS
 62
    7
 10
444.02537371628858
 20
419.71686789266471
 40
0.5
 50
315.00000000000347
 51
26.123496369443345
  0
LINE
  8
_0-1_
  6
CONTINUOUS
 62
    7
 10
443.20306623674639
 20
432.2020937622159
 11
436.22364898955027
 21
432.2020937622159
  0
ARC
  8
_0-1_
  6
CONTINUOUS
 62
    7
 10
459.2887741788918
 20
427.20209376221601
 40
24.000000000000007
 50
168.96028558596703
 51
191.03971441403309
  0
ARC
  8
_0-1_
  6
CONTINUOUS
 62
    7
 10
436.22364898955027
 20
431.70209376221601
 40
0.5
 50
90
 51
168.96028558596134
  0
ARC
  8
_0-1_
  6
CONTINUOUS
 62
    7
 10
459.2887741788918
 20
427.20209376221601
 40
21.000000000000004
 50
166.22585300197326
 51
193.77414699802674
  0
ARC
  8
_0-1_
  6
CONTINUOUS
 62
    7
 10
453.78877417889169
 20
411.11638582007049
 40
0.5
 50
0.0000000000034604
 51
71.123496369443345
  0
LINE
  8
_0-1_
  6
CONTINUOUS
 62
    7
 10
444.37892710688186
 20
419.36331450207138
 11
439.44373384265879
 21
414.42812123784859
  0
ARC
  8
_0-1_
  6
CONTINUOUS
 62
    7
 10
459.2887741788918
 20
427.20209376221601
 40
24.000000000000007
 50
213.96028558596703
 51
236.03971441403306
  0
ARC
  8
_0-1_
  6
CONTINUOUS
 62
    7
 10
439.79728723325206
 20
414.07456784725525
 40
0.5
 50
135
 51
213.96028558596134
  0
ARC
  8
_0-1_
  6
CONTINUOUS
 62
    7
 10
459.2887741788918
 20
427.20209376221601
 40
21.000000000000004
 50
211.22585300197326
 51
238.77414699802674
  0
ARC
  8
_0-1_
  6
CONTINUOUS
 62
    7
 10
464.78877417889191
 20
411.11638582007049
 40
0.5
 50
108.87650363055585
 51
180
  0
ARC
  8
_0-1_
  6
CONTINUOUS
 62
    7
 10
459.2887741788918
 20
427.20209376221601
 40
16.500000000000004
 50
288.87650363055934
 51
296.12349636944077
  0
ARC
  8
_0-1_
  6
CONTINUOUS
 62
    7
 10
466.77400004844287
 20
411.93869329961274
 40
0.5
 50
45.00000000000346
 51
116.12349636944334
  0
LINE
  8
_0-1_
  6
CONTINUOUS
 62
    7
 10
464.28877417889174
 20
411.11638582007049
 11
464.28877417889174
 21
404.13696857287437
  0
ARC
  8
_0-1_
  6
CONTINUOUS
 62
    7
 10
463.78877417889157
 20
404.13696857287437
 40
0.5
 50
281.03971441403866
 51
0
  0
LINE
  8
_0-1_
  6
CONTINUOUS
 62
    7
 10
454.28877417889169
 20
411.11638582007049
 11
454.28877417889169
 21
404.13696857287437
  0
ARC
  8
_0-1_
  6
CONTINUOUS
 62
    7
 10
459.2887741788918
 20
427.20209376221601
 40
24.000000000000007
 50
258.96028558596703
 51
281.03971441403309
  0
ARC
  8
_0-1_
  6
CONTINUOUS
 62
    7
 10
454.78877417889186
 20
404.13696857287437
 40
0.5
 50
180
 51
258.96028558596134
  0
ARC
  8
_0-1_
  6
CONTINUOUS
 62
    7
 10
459.2887741788918
 20
427.20209376221601
 40
21.000000000000004
 50
256.22585300197329
 51
283.77414699802671
  0
ARC
  8
_0-1_
  6
CONTINUOUS
 62
    7
 10
474.55217464149484
 20
419.71686789266471
 40
0.5
 50
153.87650363055585
 51
225
  0
ARC
  8
_0-1_
  6
CONTINUOUS
 62
    7
 10
459.2887741788918
 20
427.20209376221601
 40
16.500000000000004
 50
333.87650363055934
 51
341.12349636944077
  0
ARC
  8
_0-1_
  6
CONTINUOUS
 62
    7
 10
475.37448212103703
 20
421.7020937622159
 40
0.5
 50
90.000000000003467
 51
161.12349636944336
  0
LINE
  8
_0-1_
  6
CONTINUOUS
 62
    7
 10
474.19862125090174
 20
419.36331450207138
 11
479.13381451512464
 21
414.42812123784859
  0
ARC
  8
_0-1_
  6
CONTINUOUS
 62
    7
 10
478.78026112453153
 20
414.07456784725525
 40
0.5
 50
326.03971441403871
 51
45
  0
LINE
  8
_0-1_
  6
CONTINUOUS
 62
    7
 10
467.12755343903677
 20
412.29224669020573
 11
472.06274670325922
 21
407.35705342598328
  0
ARC
  8
_0-1_
  6
CONTINUOUS
 62
    7
 10
459.2887741788918
 20
427.20209376221601
 40
24.000000000000007
 50
303.96028558596703
 51
326.03971441403309
  0
ARC
  8
_0-1_
  6
CONTINUOUS
 62
    7
 10
472.41630009385233
 20
407.71060681657627
 40
0.5
 50
225
 51
303.96028558596129
  0
ARC
  8
_0-1_
  6
CONTINUOUS
 62
    7
 10
459.2887741788918
 20
427.20209376221601
 40
21.000000000000004
 50
301.22585300197329
 51
328.77414699802671
  0
ARC
  8
_0-1_
  6
CONTINUOUS
 62
    7
 10
475.37448212103703
 20
432.70209376221578
 40
0.5
 50
198.87650363055585
 51
270
  0
ARC
  8
_0-1_
  6
CONTINUOUS
 62
    7
 10
459.2887741788918
 20
427.20209376221601
 40
16.500000000000004
 50
18.876503630559334
 51
26.123496369440748
  0
ARC
  8
_0-1_
  6
CONTINUOUS
 62
    7
 10
474.55217464149484
 20
434.68731963176731
 40
0.5
 50
135.00000000000347
 51
206.12349636944336
  0
LINE
  8
_0-1_
  6
CONTINUOUS
 62
    7
 10
475.37448212103703
 20
432.2020937622159
 11
482.35389936823316
 21
432.2020937622159
  0
ARC
  8
_0-1_
  6
CONTINUOUS
 62
    7
 10
482.35389936823316
 20
431.70209376221601
 40
0.5
 50
11.039714414038682
 51
90
  0
LINE
  8
_0-1_
  6
CONTINUOUS
 62
    7
 10
475.37448212103703
 20
422.20209376221578
 11
482.35389936823316
 21
422.20209376221578
  0
ARC
  8
_0-1_
  6
CONTINUOUS
 62
    7
 10
459.2887741788918
 20
427.20209376221601
 40
24.000000000000007
 50
348.96028558596703
 51
11.039714414033094
  0
ARC
  8
_0-1_
  6
CONTINUOUS
 62
    7
 10
482.35389936823316
 20
422.70209376221601
 40
0.5
 50
270
 51
348.96028558596134
  0
ARC
  8
_0-1_
  6
CONTINUOUS
 62
    7
 10
459.2887741788918
 20
427.20209376221601
 40
21.000000000000004
 50
346.22585300197329
 51
13.774146998026728
  0
ARC
  8
_0-1_
  6
CONTINUOUS
 62
    7
 10
466.77400004844287
 20
442.46549422481928
 40
0.5
 50
243.87650363055585
 51
315
  0
ARC
  8
_0-1_
  6
CONTINUOUS
 62
    7
 10
459.2887741788918
 20
427.20209376221601
 40
16.500000000000004
 50
63.876503630559327
 51
71.123496369440744
  0
ARC
  8
_0-1_
  6
CONTINUOUS
 62
    7
 10
464.78877417889191
 20
443.2878017043613
 40
0.5
 50
180.00000000000347
 51
251.12349636944333
  0
LINE
  8
_0-1_
  6
CONTINUOUS
 62
    7
 10
467.12755343903677
 20
442.11194083422595
 11
472.06274670325922
 21
447.04713409844874
  0
ARC
  8
_0-1_
  6
CONTINUOUS
 62
    7
 10
472.41630009385233
 20
446.69358070785552
 40
0.5
 50
56.039714414038684
 51
135
  0
LINE
  8
_0-1_
  6
CONTINUOUS
 62
    7
 10
474.19862125090174
 20
435.04087302236064
 11
479.13381451512464
 21
439.9760662865832
  0
ARC
  8
_0-1_
  6
CONTINUOUS
 62
    7
 10
459.2887741788918
 20
427.20209376221601
 40
24.000000000000007
 50
33.960285585967029
 51
56.039714414033099
  0
ARC
  8
_0-1_
  6
CONTINUOUS
 62
    7
 10
478.78026112453153
 20
440.32961967717642
 40
0.5
 50
315
 51
33.960285585961316
  0
ARC
  8
_0-1_
  6
CONTINUOUS
 62
    7
 10
459.2887741788918
 20
427.20209376221601
 40
21.000000000000004
 50
31.225853001973274
 51
58.77414699802673
  0
CIRCLE
  8
_0-1_
  6
CONTINUOUS
 62
    7
 10
459.2887741788918
 20
427.20209376221601
 40
10
  0
LINE
  8
_0-1_
  6
CENTER1
 62
  152
 10
459.2887741788918
 20
366.50406997892736
 11
459.2887741788918
 21
466.73673586904368
  0
LINE
  8
_0-1_
  6
CONTINUOUS
 62
    7
 10
462.75287579402976
 20
433.20209376221601
 11
455.82467256375429
 21
433.20209376221601
  0
LINE
  8
_0-1_
  6
CONTINUOUS
 62
    7
 10
466.21697740916727
 20
427.20209376221601
 11
462.75287579402976
 21
433.20209376221601
  0
LINE
  8
_0-1_
  6
CONTINUOUS
 62
    7
 10
466.21697740916727
 20
427.20209376221601
 11
462.75287579402976
 21
421.20209376221601
  0
LINE
  8
_0-1_
  6
CONTINUOUS
 62
    7
 10
462.75287579402976
 20
421.20209376221601
 11
455.82467256375429
 21
421.20209376221601
  0
LINE
  8
_0-1_
  6
CONTINUOUS
 62
    7
 10
455.82467256375429
 20
421.20209376221601
 11
452.36057094861633
 21
427.20209376221601
  0
LINE
  8
_0-1_
  6
CONTINUOUS
 62
    7
 10
455.82467256375429
 20
433.20209376221601
 11
452.36057094861633
 21
427.20209376221601
  0
CIRCLE
  8
_0-1_
  6
CONTINUOUS
 62
    7
 10
459.2887741788918
 20
427.20209376221601
 40
5
  0
LINE
  8
_0-1_
  6
CONTINUOUS
 62
    7
 10
438.28877417889152
 20
377.4867009584259
 11
435.28877417889191
 21
375.75465015085723
  0
LINE
  8
_0-1_
  6
CONTINUOUS
 62
    7
 10
435.28877417889191
 20
375.75465015085723
 11
435.28877417889191
 21
371.48670095842584
  0
LINE
  8
_0-1_
  6
CONTINUOUS
 62
    7
 10
438.28877417889152
 20
377.4867009584259
 11
459.2887741788918
 21
377.4867009584259
  0
LINE
  8
_0-1_
  6
CONTINUOUS
 62
    7
 10
435.28877417889191
 20
371.48670095842584
 11
459.2887741788918
 21
371.48670095842584
  0
LINE
  8
_0-1_
  6
CONTINUOUS
 62
    7
 10
439.29728723325252
 20
375.75465015085723
 11
441.33103517110339
 21
377.4867009584259
  0
LINE
  8
_0-1_
  6
CONTINUOUS
 62
    7
 10
438.81538499028079
 20
377.4867009584259
 11
435.81538499028056
 21
375.75465015085723
  0
LINE
  8
_0-1_
  6
CONTINUOUS
 62
    7
 10
435.81538499028056
 20
375.75465015085723
 11
435.81538499028056
 21
371.48670095842584
  0
LINE
  8
_0-1_
  6
CONTINUOUS
 62
    7
 10
439.29728723325252
 20
375.75465015085723
 11
439.29728723325252
 21
371.48670095842584
  0
LINE
  8
_0-1_
  6
CONTINUOUS
 62
    7
 10
446.22611541212689
 20
375.75465015085723
 11
446.22611541212689
 21
371.48670095842584
  0
LINE
  8
_0-1_
  6
CONTINUOUS
 62
    7
 10
446.22611541212689
 20
375.75465015085723
 11
448.40210298296881
 21
377.4867009584259
  0
LINE
  8
_0-1_
  6
CONTINUOUS
 62
    7
 10
435.28877417889191
 20
375.75465015085723
 11
435.81538499028056
 21
375.75465015085723
  0
LINE
  8
_0-1_
  6
CONTINUOUS
 62
    7
 10
439.29728723325252
 20
375.75465015085723
 11
446.22611541212689
 21
375.75465015085723
  0
LINE
  8
_0-1_
  6
CONTINUOUS
 62
    7
 10
454.28877417889169
 20
377.4867009584259
 11
454.28877417889169
 21
371.48670095842584
  0
LINE
  8
_0-1_
  6
CONTINUOUS
 62
    7
 10
454.28877417889169
 20
375.75465015085723
 11
459.2887741788918
 21
375.75465015085723
  0
LINE
  8
_0-1_
  6
CONTINUOUS
 62
    7
 10
451.70563010585568
 20
377.4867009584259
 11
451.70563010585568
 21
371.48670095842584
  0
ARC
  8
_0-1_
  6
CONTINUOUS
 62
    7
 10
446.1612482639311
 20
407.71060681657627
 40
0.5
 50
236.03971441403866
 51
315.00000000000227
  0
LINE
  8
_0-1_
  6
CONTINUOUS
 62
    7
 10
451.44999491874728
 20
412.29224669020573
 11
446.51480165452438
 21
407.35705342598328
  0
ARC
  8
_0-1_
  6
CONTINUOUS
 62
    7
 10
436.22364898955027
 20
422.70209376221601
 40
0.5
 50
191.03971441403866
 51
270
  0
LINE
  8
_0-1_
  6
CONTINUOUS
 62
    7
 10
443.20306623674639
 20
422.20209376221578
 11
436.22364898955027
 21
422.20209376221578
  0
ARC
  8
_0-1_
  6
CONTINUOUS
 62
    7
 10
451.80354830934056
 20
411.93869329961274
 40
0.5
 50
63.87650363055667
 51
135
  0
ARC
  8
_0-1_
  6
CONTINUOUS
 62
    7
 10
459.2887741788918
 20
427.20209376221601
 40
16.500000000000004
 50
243.87650363055934
 51
251.12349636944074
  0
LINE
  8
_0-1_
  6
CONTINUOUS
 62
    7
 10
452.36057094861633
 20
383.4867009584259
 11
452.36057094861633
 21
377.4867009584259
  0
LINE
  8
_0-1_
  6
CONTINUOUS
 62
    7
 10
455.82467256375429
 20
383.4867009584259
 11
455.82467256375429
 21
377.4867009584259
  0
LINE
  8
_0-1_
  6
CONTINUOUS
 62
    7
 10
452.36057094861633
 20
383.4867009584259
 11
459.2887741788918
 21
383.4867009584259
  0
LINE
  8
_0-1_
  6
CONTINUOUS
 62
    7
 10
454.28877417889169
 20
383.4867009584259
 11
454.28877417889169
 21
391.60175386025639
  0
LINE
  8
_0-1_
  6
CONTINUOUS
 62
    7
 10
480.28877417889191
 20
377.4867009584259
 11
483.28877417889152
 21
375.75465015085723
  0
LINE
  8
_0-1_
  6
CONTINUOUS
 62
    7
 10
483.28877417889152
 20
375.75465015085723
 11
483.28877417889152
 21
371.48670095842584
  0
LINE
  8
_0-1_
  6
CONTINUOUS
 62
    7
 10
480.28877417889191
 20
377.4867009584259
 11
459.2887741788918
 21
377.4867009584259
  0
LINE
  8
_0-1_
  6
CONTINUOUS
 62
    7
 10
483.28877417889152
 20
371.48670095842584
 11
459.2887741788918
 21
371.48670095842584
  0
LINE
  8
_0-1_
  6
CONTINUOUS
 62
    7
 10
479.28026112453108
 20
375.75465015085723
 11
477.24651318668066
 21
377.4867009584259
  0
LINE
  8
_0-1_
  6
CONTINUOUS
 62
    7
 10
479.76216336750281
 20
377.4867009584259
 11
482.76216336750286
 21
375.75465015085723
  0
LINE
  8
_0-1_
  6
CONTINUOUS
 62
    7
 10
482.76216336750286
 20
375.75465015085723
 11
482.76216336750286
 21
371.48670095842584
  0
LINE
  8
_0-1_
  6
CONTINUOUS
 62
    7
 10
479.28026112453108
 20
375.75465015085723
 11
479.28026112453108
 21
371.48670095842584
  0
LINE
  8
_0-1_
  6
CONTINUOUS
 62
    7
 10
472.35143294565671
 20
375.75465015085723
 11
472.35143294565671
 21
371.48670095842584
  0
LINE
  8
_0-1_
  6
CONTINUOUS
 62
    7
 10
472.35143294565671
 20
375.75465015085723
 11
470.17544537481524
 21
377.4867009584259
  0
LINE
  8
_0-1_
  6
CONTINUOUS
 62
    7
 10
483.28877417889152
 20
375.75465015085723
 11
482.76216336750286
 21
375.75465015085723
  0
LINE
  8
_0-1_
  6
CONTINUOUS
 62
    7
 10
479.28026112453108
 20
375.75465015085723
 11
472.35143294565671
 21
375.75465015085723
  0
LINE
  8
_0-1_
  6
CONTINUOUS
 62
    7
 10
464.28877417889174
 20
377.4867009584259
 11
464.28877417889174
 21
371.48670095842584
  0
LINE
  8
_0-1_
  6
CONTINUOUS
 62
    7
 10
464.28877417889174
 20
375.75465015085723
 11
459.2887741788918
 21
375.75465015085723
  0
LINE
  8
_0-1_
  6
CONTINUOUS
 62
    7
 10
466.87191825192775
 20
377.4867009584259
 11
466.87191825192775
 21
371.48670095842584
  0
LINE
  8
_0-1_
  6
CONTINUOUS
 62
    7
 10
466.21697740916727
 20
383.4867009584259
 11
466.21697740916727
 21
377.4867009584259
  0
LINE
  8
_0-1_
  6
CONTINUOUS
 62
    7
 10
462.75287579402976
 20
383.4867009584259
 11
462.75287579402976
 21
377.4867009584259
  0
LINE
  8
_0-1_
  6
CONTINUOUS
 62
    7
 10
466.21697740916727
 20
383.4867009584259
 11
459.2887741788918
 21
383.4867009584259
  0
LINE
  8
_0-1_
  6
CONTINUOUS
 62
    7
 10
464.28877417889174
 20
383.4867009584259
 11
464.28877417889174
 21
391.60175386025639
  0
TEXT
  8
_0-f_
 62
    7
 10
8.3843799893559208
 20
9.7747504911331475
 40
4.2999999999999998
 41
0.744186046511628
 50
0
  1
CAAJ
  0
ENDSEC
  0
EOF
