  0
SECTION
  2
HEADER
  9
$ACADVER
  1
AC1009
  9
$INSBASE
 10
0
 20
0
 30
0
  9
$EXTMIN
 10
0
 20
0
  9
$EXTMAX
 10
1189
 20
841
  9
$LIMMIN
 10
0
 20
0
  9
$LIMMAX
 10
1189
 20
841
  9
$LTSCALE
 40
1
  0
ENDSEC
  0
SECTION
  2
TABLES
  0
TABLE
  2
LTYPE
 70
     9
  0
LTYPE
  2
CONTINUOUS
 70
    64
  3
実線
 72
    65
 73
     0
 40
0.0
  0
LTYPE
  2
DASHED1
 70
    64
  3
--  --  --  --  --  --  --  --  
 72
    65
 73
     2
 40
2.5
 49
1.25
 49
-1.25
  0
LTYPE
  2
DASHED2
 70
    64
  3
----    ----    ----    ----    
 72
    65
 73
     2
 40
5.0
 49
2.5
 49
-2.5
  0
LTYPE
  2
DASHED3
 70
    64
  3
------  ------  ------  ------  
 72
    65
 73
     2
 40
5.0
 49
3.75
 49
-1.25
  0
LTYPE
  2
CENTER1
 70
    64
  3
----- - ----- - ----- - ----- - 
 72
    65
 73
     4
 40
10.0
 49
6.25
 49
-1.25
 49
1.25
 49
-1.25
  0
LTYPE
  2
CENTER2
 70
    64
  3
----------  --  ----------  --  
 72
    65
 73
     4
 40
20.0
 49
12.5
 49
-2.5
 49
2.5
 49
-2.5
  0
LTYPE
  2
PHANTOM1
 70
    64
  3
--- - - --- - - --- - - --- - - 
 72
    65
 73
     6
 40
10.0
 49
3.25
 49
-1.25
 49
1.25
 49
-1.25
 49
1.25
 49
-1.25
  0
LTYPE
  2
PHANTOM2
 70
    64
  3
--------  -  -  --------  -  -  
 72
    65
 73
     6
 40
20.0
 49
10.0
 49
-2.5
 49
1.25
 49
-2.5
 49
1.25
 49
-2.5
  0
LTYPE
  2
DOT
 70
    64
  3
-   -   -   -   -   -   -   -   
 72
    65
 73
     2
 40
2.5
 49
0.625
 49
-1.875
  0
LTYPE
  2
DUMMY
 70
    64
  3
ダミー
 72
    65
 73
     0
 40
0.0
  0
LTYPE
  2
RAND1
 70
    64
  3
ランダム線1
 72
    65
 73
     4
 40
10.0
 49
1.0
 49
-2.0
 49
3.0
 49
-4.0
  0
LTYPE
  2
RAND2
 70
    64
  3
ランダム線2
 72
    65
 73
     4
 40
14.0
 49
2.0
 49
-3.0
 49
4.0
 49
-5.0
  0
LTYPE
  2
RAND3
 70
    64
  3
ランダム線3
 72
    65
 73
     4
 40
18.0
 49
3.0
 49
-4.0
 49
5.0
 49
-6.0
  0
LTYPE
  2
RAND4
 70
    64
  3
ランダム線4
 72
    65
 73
     4
 40
22.0
 49
4.0
 49
-5.0
 49
6.0
 49
-7.0
  0
LTYPE
  2
RAND5
 70
    64
  3
ランダム線5
 72
    65
 73
     4
 40
26.0
 49
5.0
 49
-6.0
 49
7.0
 49
-8.0
  0
LTYPE
  2
LONG1
 70
    64
  3
----------  --  ----------  --  
 72
    65
 73
     4
 40
40.0
 49
32.5
 49
-2.5
 49
2.5
 49
-2.5
  0
LTYPE
  2
LONG2
 70
    64
  3
--------  -  -  --------  -  -  
 72
    65
 73
     6
 40
40.0
 49
30.0
 49
-2.5
 49
1.25
 49
-2.5
 49
1.25
 49
-2.5
  0
LTYPE
  2
LONG3
 70
    64
  3
+++++++++++++++..+++++++++++++++
 72
    65
 73
     2
 40
40.0
 49
37.5
 49
-2.5
  0
LTYPE
  2
LONG4
 70
    64
  3
+++++++++++++++..+++++++++++++++
 72
    65
 73
     2
 40
80.0
 49
75.0
 49
-5.0
  0
LTYPE
  2
LONG5
 70
    64
  3
----------  --  ----------  --  
 72
    65
 73
     4
 40
60.0
 49
37.5
 49
-7.5
 49
7.5
 49
-7.5
  0
LTYPE
  2
dashed
 70
   64
  3
-------   -------------   ------
 72
   65
 73
    2
 40
7.5
 49
6
 49
-1.5
  0
LTYPE
  2
dashed_spaced
 70
   64
  3
----        --------        ----
 72
   65
 73
    2
 40
12
 49
6
 49
-6
  0
LTYPE
  2
long_dashed_dotted
 70
   64
  3
------------- --- --------------
 72
   65
 73
    4
 40
15.25
 49
12
 49
-1.5
 49
0.25
 49
-1.5
  0
LTYPE
  2
long_dashed_double-dotted
 70
   64
  3
----------- --- --- ------------
 72
   65
 73
    6
 40
17
 49
12
 49
-1.5
 49
0.25
 49
-1.5
 49
0.25
 49
-1.5
  0
LTYPE
  2
long_dashed_triplicate-dotted
 70
   64
  3
--------- --- --- --- ----------
 72
   65
 73
    8
 40
18.75
 49
12
 49
-1.5
 49
0.25
 49
-1.5
 49
0.25
 49
-1.5
 49
0.25
 49
-1.5
  0
LTYPE
  2
dotted
 70
   64
  3
   -       -       -       -    
 72
   65
 73
    2
 40
1.75
 49
0.25
 49
-1.5
  0
LTYPE
  2
chain
 70
   64
  3
-------------- -- --------------
 72
   65
 73
    4
 40
18.5
 49
12
 49
-1.5
 49
3.5
 49
-1.5
  0
LTYPE
  2
chain_double_dash
 70
   64
  3
------------ -- -- -------------
 72
   65
 73
    6
 40
23.5
 49
12
 49
-1.5
 49
3.5
 49
-1.5
 49
3.5
 49
-1.5
  0
LTYPE
  2
dashed_dotted
 70
   64
  3
-----------     -     ----------
 72
   65
 73
    4
 40
9.25
 49
6
 49
-1.5
 49
0.25
 49
-1.5
  0
LTYPE
  2
double-dashed_dotted
 70
   64
  3
------   -----------   -   -----
 72
   65
 73
    6
 40
16.75
 49
6
 49
-1.5
 49
6
 49
-1.5
 49
0.25
 49
-1.5
  0
LTYPE
  2
dashed_double-dotted
 70
   64
  3
---------    -    -    ---------
 72
   65
 73
    6
 40
11
 49
6
 49
-1.5
 49
0.25
 49
-1.5
 49
0.25
 49
-1.5
  0
LTYPE
  2
double-dashed_double-dotted
 70
   64
  3
-----   ---------   -   -   ----
 72
   65
 73
    8
 40
18.5
 49
6
 49
-1.5
 49
6
 49
-1.5
 49
0.25
 49
-1.5
 49
0.25
 49
-1.5
  0
LTYPE
  2
dashed_triplicate-dotted
 70
   64
  3
-------    -    -    -    ------
 72
   65
 73
    8
 40
12.75
 49
6
 49
-1.5
 49
0.25
 49
-1.5
 49
0.25
 49
-1.5
 49
0.25
 49
-1.5
  0
LTYPE
  2
double-dashed_triplicate-dotted
 70
   64
  3
-----  ---------  -  -  -  -----
 72
   65
 73
   10
 40
20.25
 49
6
 49
-1.5
 49
6
 49
-1.5
 49
0.25
 49
-1.5
 49
0.25
 49
-1.5
 49
0.25
 49
-1.5
  0
LTYPE
  2
undefined
 70
   64
  3
--------------------------------
 72
   65
 73
    0
 40
0
  0
ENDTAB
  0
TABLE
  2
STYLE
  5
3
100
AcDbSymbolTable
 70
     1
  0
STYLE
  5
10
100
AcDbSymbolTableRecord
100
AcDbTextStyleTableRecord
  2
STANDARD
 70
     0
 40
0.0
 41
1.0
 50
0.0
 71
     0
 42
0.2
  3
txt
  4
bigfont.shx
  0
STYLE
  5
26
100
AcDbSymbolTableRecord
100
AcDbTextStyleTableRecord
  2
TATEGAKI
 70
    68
 40
0.0
 41
1.0
 50
0.0
 71
     0
 42
1.0
  3
txt
  4
bigfont.shx
  0
ENDTAB
  0
TABLE
  2
LAYER
 70
    6
  0
LAYER
  2
_0-0_
 70
   64
 62
    7
  6
CONTINUOUS
  0
LAYER
  2
_0-1_
 70
   64
 62
    7
  6
CONTINUOUS
  0
LAYER
  2
_f-0_
 70
   64
 62
    7
  6
CONTINUOUS
  0
LAYER
  2
_f-1_
 70
   64
 62
    7
  6
CONTINUOUS
  0
LAYER
  2
_f-f_ADD_LINE
 70
   64
 62
    7
  6
CONTINUOUS
  0
LAYER
  2
ADD_LINE
 70
   64
 62
    7
  6
CONTINUOUS
  0
ENDTAB
  0
ENDSEC
  0
SECTION
  2
BLOCKS
  0
ENDSEC
  0
SECTION
  2
ENTITIES
  0
LINE
  8
_f-0_
  6
CONTINUOUS
 62
    7
 10
103.1390130370354
 20
16.892028429553761
 11
103.1390130370354
 21
25.392028429553989
  0
LINE
  8
_f-0_
  6
CONTINUOUS
 62
    7
 10
104.6390130370354
 20
25.392028429553989
 11
106.1390130370354
 21
23.79202842955408
  0
LINE
  8
_f-0_
  6
CONTINUOUS
 62
    7
 10
106.1390130370354
 20
23.79202842955408
 11
145.1390130370354
 21
23.79202842955408
  0
LINE
  8
_f-0_
  6
CONTINUOUS
 62
    7
 10
145.1390130370354
 20
23.79202842955408
 11
146.6390130370354
 21
25.392028429553989
  0
LINE
  8
_f-0_
  6
CONTINUOUS
 62
    7
 10
155.1390130370354
 20
25.392028429553989
 11
96.139013037035397
 21
25.392028429553989
  0
LINE
  8
_f-0_
  6
CONTINUOUS
 62
    7
 10
93.139013037035397
 20
28.392028429553761
 11
93.139013037035397
 21
62.392028429553761
  0
LINE
  8
_f-0_
  6
CONTINUOUS
 62
    7
 10
96.139013037035397
 20
65.392028429553761
 11
155.1390130370354
 21
65.392028429553761
  0
LINE
  8
_f-0_
  6
CONTINUOUS
 62
    7
 10
158.1390130370354
 20
62.392028429553761
 11
158.1390130370354
 21
28.392028429553989
  0
LINE
  8
_f-0_
  6
CONTINUOUS
 62
    7
 10
145.1390130370354
 20
66.99202842955367
 11
106.1390130370354
 21
66.99202842955367
  0
LINE
  8
_f-0_
  6
CONTINUOUS
 62
    7
 10
106.1390130370354
 20
66.99202842955367
 11
104.6390130370354
 21
65.392028429553761
  0
LINE
  8
_f-0_
  6
CONTINUOUS
 62
    7
 10
103.1390130370354
 20
65.392028429553761
 11
103.1390130370354
 21
73.892028429553761
  0
LINE
  8
_f-0_
  6
CONTINUOUS
 62
    7
 10
110.1390130370354
 20
71.892028429553989
 11
110.1390130370354
 21
68.692028429553943
  0
LINE
  8
_f-0_
  6
CONTINUOUS
 62
    7
 10
110.1390130370354
 20
68.692028429553943
 11
131.26893301655025
 21
68.692028429553943
  0
LINE
  8
_f-0_
  6
CONTINUOUS
 62
    7
 10
130.14511150511669
 20
71.892028429553989
 11
110.1390130370354
 21
71.892028429553989
  0
LINE
  8
_f-0_
  6
CONTINUOUS
 62
    7
 10
110.9767353768674
 20
72.392028429553761
 11
117.1390130370354
 21
72.392028429553761
  0
LINE
  8
_f-0_
  6
CONTINUOUS
 62
    7
 10
117.1390130370354
 20
72.892028429553534
 11
117.1390130370354
 21
71.892028429553989
  0
LINE
  8
_f-0_
  6
CONTINUOUS
 62
    7
 10
117.1390130370354
 20
72.892028429553534
 11
131.50788656732573
 21
72.892028429553534
  0
LINE
  8
ADD_LINE
  6
DOT
 62
    9
 10
125.6390130370354
 20
18.892028429553761
 11
124.93190625584873
 21
19.599135210739973
  0
LINE
  8
ADD_LINE
  6
DOT
 62
    9
 10
125.6390130370354
 20
18.892028429553761
 11
126.34611981822206
 21
19.599135210739973
  0
LINE
  8
_f-0_
  6
CONTINUOUS
 62
    7
 10
130.14511150511578
 20
18.892028429553761
 11
110.1390130370354
 21
18.892028429553761
  0
LINE
  8
_f-0_
  6
CONTINUOUS
 62
    7
 10
110.1390130370354
 20
18.892028429553761
 11
110.1390130370354
 21
22.092028429554034
  0
LINE
  8
_f-0_
  6
CONTINUOUS
 62
    7
 10
110.1390130370354
 20
22.092028429554034
 11
131.26893301654934
 21
22.092028429554034
  0
LINE
  8
_f-0_
  6
CONTINUOUS
 62
    7
 10
130.53901303703503
 20
18.141472929553515
 11
130.53901303703503
 21
13.2869214295539
  0
LINE
  8
_f-0_
  6
CONTINUOUS
 62
    7
 10
130.6390130370354
 20
10.892028429553761
 11
130.6390130370354
 21
7.5920291924932144
  0
LINE
  8
_f-0_
  6
CONTINUOUS
 62
    7
 10
130.6390130370354
 20
7.5920291924932144
 11
120.6390130370354
 21
7.5920291924932144
  0
LINE
  8
_f-0_
  6
CONTINUOUS
 62
    7
 10
120.6390130370354
 20
7.5920291924932144
 11
120.6390130370354
 21
10.892028429553761
  0
LINE
  8
_f-1_
  6
CONTINUOUS
 62
    7
 10
121.33901284630053
 20
10.892028429553761
 11
121.33901284630053
 21
6.8920284295537613
  0
LINE
  8
_f-0_
  6
CONTINUOUS
 62
    7
 10
121.33901284630053
 20
6.8920284295537613
 11
129.93901322777026
 21
6.8920284295537613
  0
LINE
  8
_f-0_
  6
CONTINUOUS
 62
    7
 10
129.93901322777026
 20
6.8920284295537613
 11
130.6390130370354
 21
7.5920291924932144
  0
LINE
  8
_f-1_
  6
CONTINUOUS
 62
    7
 10
129.93901322777026
 20
6.8920284295537613
 11
129.93901322777026
 21
10.892028429553761
  0
LINE
  8
_f-0_
  6
CONTINUOUS
 62
    7
 10
133.1390130370354
 20
10.892028429553761
 11
118.1390130370354
 21
10.892028429553761
  0
LINE
  8
_f-0_
  6
CONTINUOUS
 62
    7
 10
117.3890130370354
 20
11.642028429553761
 11
117.3890130370354
 21
12.392028429553761
  0
LINE
  8
_f-0_
  6
CONTINUOUS
 62
    7
 10
117.3890130370354
 20
12.392028429553761
 11
115.83901303703522
 21
13.2869214295539
  0
LINE
  8
_f-0_
  6
CONTINUOUS
 62
    7
 10
115.83901303703522
 20
13.2869214295539
 11
115.83901303703522
 21
18.141472929553515
  0
LINE
  8
_f-0_
  6
CONTINUOUS
 62
    7
 10
115.83901303703522
 20
18.141472929553515
 11
117.1390130370354
 21
18.892028429553761
  0
LINE
  8
_f-0_
  6
CONTINUOUS
 62
    7
 10
116.27298780639001
 20
18.392028429553761
 11
110.9767353768674
 21
18.392028429553761
  0
LINE
  8
_f-0_
  6
CONTINUOUS
 62
    7
 10
190.30129069720431
 20
18.392028429553761
 11
183.9767353768674
 21
18.392028429553761
  0
LINE
  8
_f-0_
  6
CONTINUOUS
 62
    7
 10
183.97673537686649
 20
27.392028429553761
 11
190.30129069720431
 21
27.392028429553761
  0
LINE
  8
_f-0_
  6
CONTINUOUS
 62
    7
 10
193.1390130370354
 20
11.892028429553761
 11
108.1390130370354
 21
11.892028429553761
  0
LINE
  8
_f-0_
  6
CONTINUOUS
 62
    7
 10
120.73901303703485
 20
13.2869214295539
 11
120.73901303703485
 21
18.141472929553515
  0
LINE
  8
_f-0_
  6
CONTINUOUS
 62
    7
 10
120.6390130370354
 20
7.5920291924932144
 11
121.33901284630053
 21
6.8920284295537613
  0
LINE
  8
_f-0_
  6
CONTINUOUS
 62
    7
 10
133.8890130370354
 20
11.642028429553761
 11
133.8890130370354
 21
12.392028429553761
  0
LINE
  8
_f-0_
  6
CONTINUOUS
 62
    7
 10
133.8890130370354
 20
12.392028429553761
 11
135.43901303703558
 21
13.2869214295539
  0
LINE
  8
_f-0_
  6
CONTINUOUS
 62
    7
 10
135.43901303703558
 20
13.2869214295539
 11
135.43901303703558
 21
15.538887891245054
  0
LINE
  8
_f-0_
  6
CONTINUOUS
 62
    7
 10
146.6390130370354
 20
65.392028429553761
 11
145.1390130370354
 21
66.99202842955367
  0
LINE
  8
_f-0_
  6
CONTINUOUS
 62
    7
 10
108.1390130370354
 20
78.892028429553761
 11
193.1390130370354
 21
78.892028429553761
  0
LINE
  8
_f-0_
  6
CONTINUOUS
 62
    7
 10
190.30129069720431
 20
72.392028429553761
 11
183.9767353768674
 21
72.392028429553761
  0
LINE
  8
_f-0_
  6
CONTINUOUS
 62
    7
 10
183.97673537686649
 20
63.392028429553761
 11
190.30129069720431
 21
63.392028429553761
  0
LINE
  8
_f-0_
  6
CONTINUOUS
 62
    7
 10
198.1390130370354
 20
73.892028429553761
 11
198.1390130370354
 21
16.892028429553761
  0
LINE
  8
_f-0_
  6
CONTINUOUS
 62
    7
 10
198.1390130370354
 20
289.8031421564466
 11
198.1390130370354
 21
232.8031421564466
  0
LINE
  8
_f-0_
  6
CONTINUOUS
 62
    7
 10
190.30129069720431
 20
234.3031421564466
 11
183.9767353768674
 21
234.3031421564466
  0
LINE
  8
_f-0_
  6
CONTINUOUS
 62
    7
 10
183.9767353768674
 20
288.3031421564466
 11
190.30129069720431
 21
288.3031421564466
  0
LINE
  8
_f-0_
  6
CONTINUOUS
 62
    7
 10
103.1390130370354
 20
281.3031421564466
 11
96.139013037035397
 21
281.3031421564466
  0
LINE
  8
_f-0_
  6
CONTINUOUS
 62
    7
 10
93.139013037035397
 20
278.3031421564466
 11
93.139013037035397
 21
244.3031421564466
  0
LINE
  8
_f-0_
  6
CONTINUOUS
 62
    7
 10
96.139013037035397
 20
241.3031421564466
 11
103.1390130370354
 21
241.3031421564466
  0
LINE
  8
_f-0_
  6
CONTINUOUS
 62
    7
 10
190.30129069720431
 20
243.3031421564466
 11
183.9767353768674
 21
243.3031421564466
  0
LINE
  8
_f-0_
  6
CONTINUOUS
 62
    7
 10
193.1390130370354
 20
227.8031421564466
 11
108.1390130370354
 21
227.8031421564466
  0
LINE
  8
_f-0_
  6
CONTINUOUS
 62
    7
 10
117.30129069720431
 20
288.3031421564466
 11
110.9767353768674
 21
288.3031421564466
  0
LINE
  8
_f-0_
  6
CONTINUOUS
 62
    7
 10
110.9767353768674
 20
279.3031421564466
 11
117.30129069720431
 21
279.3031421564466
  0
LINE
  8
_f-0_
  6
CONTINUOUS
 62
    7
 10
117.30129069720431
 20
234.3031421564466
 11
110.9767353768674
 21
234.3031421564466
  0
LINE
  8
_f-0_
  6
CONTINUOUS
 62
    7
 10
110.9767353768674
 20
243.3031421564466
 11
117.30129069720431
 21
243.3031421564466
  0
LINE
  8
_f-0_
  6
CONTINUOUS
 62
    7
 10
103.1390130370354
 20
232.8031421564466
 11
103.1390130370354
 21
289.8031421564466
  0
LINE
  8
_f-0_
  6
CONTINUOUS
 62
    7
 10
108.1390130370354
 20
294.8031421564466
 11
193.1390130370354
 21
294.8031421564466
  0
LINE
  8
_f-0_
  6
CONTINUOUS
 62
    7
 10
190.30129069720431
 20
279.3031421564466
 11
183.9767353768674
 21
279.3031421564466
  0
LINE
  8
_f-0_
  6
CONTINUOUS
 62
    7
 10
103.1390130370354
 20
201.3031421564466
 11
103.1390130370354
 21
197.3031421564466
  0
LINE
  8
_f-0_
  6
CONTINUOUS
 62
    7
 10
103.1390130370354
 20
197.3031421564466
 11
198.1390130370354
 21
197.3031421564466
  0
LINE
  8
_f-0_
  6
CONTINUOUS
 62
    7
 10
198.1390130370354
 20
197.3031421564466
 11
198.1390130370354
 21
201.3031421564466
  0
LINE
  8
_f-0_
  6
CONTINUOUS
 62
    7
 10
198.1390130370354
 20
201.3031421564466
 11
103.1390130370354
 21
201.3031421564466
  0
LINE
  8
_f-0_
  6
CONTINUOUS
 62
    7
 10
121.93080910453671
 20
192.85869771194632
 11
179.347216969535
 21
192.85869771194632
  0
LINE
  8
_f-0_
  6
CONTINUOUS
 62
    7
 10
179.6390130370354
 20
191.08091993414666
 11
121.6390130370354
 21
191.08091993414666
  0
LINE
  8
_f-0_
  6
CONTINUOUS
 62
    7
 10
121.6390130370354
 20
191.08091993414666
 11
121.6390130370354
 21
189.30314215634655
  0
LINE
  8
_f-0_
  6
CONTINUOUS
 62
    7
 10
121.6390130370354
 20
189.30314215634655
 11
179.6390130370354
 21
189.30314215634655
  0
LINE
  8
_f-0_
  6
CONTINUOUS
 62
    7
 10
179.6390130370354
 20
189.30314215634655
 11
179.6390130370354
 21
191.08091993414666
  0
LINE
  8
_f-0_
  6
CONTINUOUS
 62
    7
 10
178.1390130370354
 20
187.3031421564466
 11
123.1390130370354
 21
187.3031421564466
  0
LINE
  8
_f-0_
  6
CONTINUOUS
 62
    7
 10
117.1390130370354
 20
181.30314215644657
 11
117.1390130370354
 21
175.30314215644657
  0
LINE
  8
_f-0_
  6
CONTINUOUS
 62
    7
 10
117.1390130370354
 20
175.30314215644657
 11
123.40210042618389
 21
174.25920177502721
  0
LINE
  8
_f-1_
  6
CONTINUOUS
 62
    7
 10
138.64231529987035
 20
132.85286857287667
 11
131.53812575142535
 21
169.9525251036458
  0
LINE
  8
_f-0_
  6
CONTINUOUS
 62
    7
 10
179.59808766973754
 20
177.30314215644657
 11
184.1390130370354
 21
181.30314215644657
  0
LINE
  8
_f-1_
  6
CONTINUOUS
 62
    7
 10
3.2011874051440827
 20
144.10314234718146
 11
7.2011874051440827
 21
144.10314234718146
  0
LINE
  8
_f-0_
  6
CONTINUOUS
 62
    7
 10
7.2011874051440827
 20
144.8031421564466
 11
3.9011881680835359
 21
144.8031421564466
  0
LINE
  8
_f-0_
  6
CONTINUOUS
 62
    7
 10
3.9011881680835359
 20
144.8031421564466
 11
3.9011881680835359
 21
134.8031421564466
  0
LINE
  8
_f-0_
  6
CONTINUOUS
 62
    7
 10
3.9011881680835359
 20
134.8031421564466
 11
7.2011874051440827
 21
134.8031421564466
  0
LINE
  8
_f-1_
  6
CONTINUOUS
 62
    7
 10
7.2011874051440827
 20
135.50314196571173
 11
3.2011874051440827
 21
135.50314196571173
  0
LINE
  8
_f-0_
  6
CONTINUOUS
 62
    7
 10
3.2011874051440827
 20
135.50314196571173
 11
3.9011881680835359
 21
134.8031421564466
  0
LINE
  8
_f-0_
  6
CONTINUOUS
 62
    7
 10
3.2011874051440827
 20
135.50314196571173
 11
3.2011874051440827
 21
144.10314234718146
  0
LINE
  8
_f-0_
  6
CONTINUOUS
 62
    7
 10
3.2011874051440827
 20
144.10314234718146
 11
3.9011881680835359
 21
144.8031421564466
  0
LINE
  8
_f-0_
  6
CONTINUOUS
 62
    7
 10
9.5960804051446758
 20
144.70314215644714
 11
14.450631905144292
 21
144.70314215644714
  0
LINE
  8
_f-0_
  6
CONTINUOUS
 62
    7
 10
15.201187405144083
 20
148.3031421564466
 11
14.450631905144292
 21
149.60314215644678
  0
LINE
  8
_f-0_
  6
CONTINUOUS
 62
    7
 10
14.450631905144292
 20
149.60314215644678
 11
9.5960804051446758
 21
149.60314215644678
  0
LINE
  8
_f-0_
  6
CONTINUOUS
 62
    7
 10
9.5960804051446758
 20
149.60314215644678
 11
8.7011874051440827
 21
148.0531421564466
  0
LINE
  8
_f-0_
  6
CONTINUOUS
 62
    7
 10
8.7011874051440827
 20
148.0531421564466
 11
7.9511874051440827
 21
148.0531421564466
  0
LINE
  8
_f-0_
  6
CONTINUOUS
 62
    7
 10
8.2011874051440827
 20
148.0531421564466
 11
8.2011874051440827
 21
181.30314215644657
  0
LINE
  8
_f-0_
  6
CONTINUOUS
 62
    7
 10
14.201187405144083
 20
187.3031421564466
 11
69.201187405143969
 21
187.3031421564466
  0
LINE
  8
_f-0_
  6
CONTINUOUS
 62
    7
 10
70.701187405143969
 20
189.30314215634655
 11
70.701187405143969
 21
191.08091993414666
  0
LINE
  8
_f-0_
  6
CONTINUOUS
 62
    7
 10
70.701187405143969
 20
191.08091993414666
 11
12.701187405144083
 21
191.08091993414666
  0
LINE
  8
_f-0_
  6
CONTINUOUS
 62
    7
 10
12.701187405144083
 20
191.08091993414666
 11
12.701187405144083
 21
189.30314215634655
  0
LINE
  8
_f-0_
  6
CONTINUOUS
 62
    7
 10
12.701187405144083
 20
189.30314215634655
 11
70.701187405143969
 21
189.30314215634655
  0
LINE
  8
_f-0_
  6
CONTINUOUS
 62
    7
 10
70.409391337643569
 20
192.85869771194632
 11
12.992983472644482
 21
192.85869771194632
  0
LINE
  8
_f-0_
  6
CONTINUOUS
 62
    7
 10
8.2011874051440827
 20
197.3031421564466
 11
8.2011874051440827
 21
201.3031421564466
  0
LINE
  8
_f-0_
  6
CONTINUOUS
 62
    7
 10
8.2011874051440827
 20
201.3031421564466
 11
75.201187405143969
 21
201.3031421564466
  0
LINE
  8
_f-0_
  6
CONTINUOUS
 62
    7
 10
75.201187405143969
 20
201.3031421564466
 11
75.201187405143969
 21
197.3031421564466
  0
LINE
  8
_f-0_
  6
CONTINUOUS
 62
    7
 10
75.201187405143969
 20
197.3031421564466
 11
8.2011874051440827
 21
197.3031421564466
  0
LINE
  8
_f-0_
  6
CONTINUOUS
 62
    7
 10
20.401187405143901
 20
172.80296521130512
 11
20.401187405143901
 21
168.80314215644657
  0
LINE
  8
_f-0_
  6
CONTINUOUS
 62
    7
 10
20.133238212712968
 20
167.80314215644657
 11
18.669136597575744
 21
165.26724377158425
  0
LINE
  8
_f-0_
  6
CONTINUOUS
 62
    7
 10
18.40118740514481
 20
164.26724377158428
 11
18.40118740514481
 21
124.3031421564466
  0
LINE
  8
_f-0_
  6
CONTINUOUS
 62
    7
 10
18.40118740514481
 20
124.3031421564466
 11
15.201187405144083
 21
124.3031421564466
  0
LINE
  8
_f-0_
  6
CONTINUOUS
 62
    7
 10
15.201187405144083
 20
124.3031421564466
 11
15.201187405144083
 21
164.26724377158428
  0
LINE
  8
_f-0_
  6
CONTINUOUS
 62
    7
 10
15.469136597575925
 20
165.26724377158425
 11
18.40118740514481
 21
170.34570474066695
  0
LINE
  8
_f-0_
  6
CONTINUOUS
 62
    7
 10
18.40118740514481
 20
170.34570474066695
 11
18.40118740514481
 21
170.74578753234263
  0
LINE
  8
_f-0_
  6
CONTINUOUS
 62
    7
 10
21.701187405144083
 20
169.30314215644657
 11
21.701187405144083
 21
110.3031421564466
  0
LINE
  8
_f-0_
  6
CONTINUOUS
 62
    7
 10
24.701187405144083
 20
107.3031421564466
 11
58.701187405143969
 21
107.3031421564466
  0
LINE
  8
_f-0_
  6
CONTINUOUS
 62
    7
 10
61.701187405143969
 20
110.3031421564466
 11
61.701187405143969
 21
169.30314215644657
  0
LINE
  8
_f-0_
  6
CONTINUOUS
 62
    7
 10
63.001187405144151
 20
168.80314215644657
 11
63.001187405144151
 21
172.80296521130512
  0
LINE
  8
_f-0_
  6
CONTINUOUS
 62
    7
 10
65.001187405144151
 20
172.30314215644657
 11
65.001187405144151
 21
170.88160312552927
  0
LINE
  8
_f-0_
  6
CONTINUOUS
 62
    7
 10
65.269136597575084
 20
169.88160312552927
 11
67.933238212713036
 21
165.26724377158425
  0
LINE
  8
_f-0_
  6
CONTINUOUS
 62
    7
 10
68.201187405143969
 20
164.26724377158428
 11
68.201187405143969
 21
124.3031421564466
  0
LINE
  8
_f-0_
  6
CONTINUOUS
 62
    7
 10
68.201187405143969
 20
124.3031421564466
 11
73.204705694793006
 21
130.98265936750852
  0
LINE
  8
_f-0_
  6
CONTINUOUS
 62
    7
 10
69.201187405143969
 20
131.30314215731744
 11
69.201187405143969
 21
148.3031421564466
  0
LINE
  8
_f-0_
  6
CONTINUOUS
 62
    7
 10
69.201187405143969
 20
148.3031421564466
 11
68.201187405143969
 21
148.3031421564466
  0
LINE
  8
_f-0_
  6
CONTINUOUS
 62
    7
 10
65.001187405144151
 20
149.8031421564466
 11
63.301187405144333
 21
149.8031421564466
  0
LINE
  8
_f-0_
  6
CONTINUOUS
 62
    7
 10
63.301187405144333
 20
159.3031421564466
 11
61.701187405143969
 21
160.8031421564466
  0
LINE
  8
_f-0_
  6
CONTINUOUS
 62
    7
 10
63.301187405144333
 20
159.3031421564466
 11
63.301187405144333
 21
120.3031421564466
  0
LINE
  8
_f-0_
  6
CONTINUOUS
 62
    7
 10
63.301187405144333
 20
120.3031421564466
 11
61.701187405143969
 21
118.8031421564466
  0
LINE
  8
_f-0_
  6
CONTINUOUS
 62
    7
 10
65.001187405144151
 20
124.3031421564466
 11
65.001187405144151
 21
164.26724377158428
  0
LINE
  8
_f-0_
  6
CONTINUOUS
 62
    7
 10
64.733238212713218
 20
165.26724377158425
 11
63.269136597575084
 21
167.80314215644657
  0
LINE
  8
_f-0_
  6
CONTINUOUS
 62
    7
 10
58.701187405143969
 20
172.30314215644657
 11
24.701187405144083
 21
172.30314215644657
  0
LINE
  8
_f-0_
  6
CONTINUOUS
 62
    7
 10
21.701187405144083
 20
160.8031421564466
 11
20.101187405144628
 21
159.3031421564466
  0
LINE
  8
_f-0_
  6
CONTINUOUS
 62
    7
 10
20.101187405144628
 20
159.3031421564466
 11
20.101187405144628
 21
120.3031421564466
  0
LINE
  8
_f-0_
  6
CONTINUOUS
 62
    7
 10
20.101187405144628
 20
120.3031421564466
 11
21.701187405144083
 21
118.8031421564466
  0
LINE
  8
_f-0_
  6
CONTINUOUS
 62
    7
 10
15.201187405144083
 20
124.3031421564466
 11
10.931409612855532
 21
130.00314215644642
  0
LINE
  8
_f-0_
  6
CONTINUOUS
 62
    7
 10
9.5960804051446758
 20
130.00314215644642
 11
8.7011874051440827
 21
131.5531421564466
  0
LINE
  8
_f-0_
  6
CONTINUOUS
 62
    7
 10
8.7011874051440827
 20
131.5531421564466
 11
7.9511874051440827
 21
131.5531421564466
  0
LINE
  8
_f-0_
  6
CONTINUOUS
 62
    7
 10
7.2011874051440827
 20
132.3031421564466
 11
7.2011874051440827
 21
147.3031421564466
  0
LINE
  8
_f-0_
  6
CONTINUOUS
 62
    7
 10
18.40118740514481
 20
149.8031421564466
 11
20.101187405144628
 21
149.8031421564466
  0
LINE
  8
ADD_LINE
  6
DOT
 62
    9
 10
15.90829418633075
 20
140.51024893763326
 11
15.201187405144083
 21
139.8031421564466
  0
LINE
  8
ADD_LINE
  6
DOT
 62
    9
 10
15.201187405144083
 20
139.8031421564466
 11
15.90829418633075
 21
139.09603537525993
  0
LINE
  8
_f-0_
  6
CONTINUOUS
 62
    7
 10
14.450631905144292
 20
134.90314215644696
 11
9.5960804051446758
 21
134.90314215644696
  0
LINE
  8
_f-0_
  6
CONTINUOUS
 62
    7
 10
9.5960804051446758
 20
130.00314215644642
 11
14.450631905144292
 21
130.00314215644642
  0
LINE
  8
_f-0_
  6
CONTINUOUS
 62
    7
 10
14.450631905144292
 20
130.00314215644642
 11
15.201187405144083
 21
131.3031421564466
  0
LINE
  8
_f-0_
  6
CONTINUOUS
 62
    7
 10
18.40118740514481
 20
129.8031421564466
 11
20.101187405144628
 21
129.8031421564466
  0
LINE
  8
_f-0_
  6
CONTINUOUS
 62
    7
 10
63.301187405144333
 20
129.8031421564466
 11
65.001187405144151
 21
129.8031421564466
  0
LINE
  8
_f-0_
  6
CONTINUOUS
 62
    7
 10
68.201187405143969
 20
131.30314215731744
 11
69.201187405143969
 21
131.30314215731744
  0
LINE
  8
_f-0_
  6
CONTINUOUS
 62
    7
 10
68.201187405143969
 20
124.3031421564466
 11
65.001187405144151
 21
124.3031421564466
  0
LINE
  8
_f-0_
  6
CONTINUOUS
 62
    7
 10
75.201187405143969
 20
136.97796544703817
 11
75.201187405143969
 21
181.30314215644657
  0
ARC
  8
_f-1_
  6
CONTINUOUS
 62
    7
 10
150.6390130370354
 20
45.392028429553761
 40
24
 50
244.15806723683113
 51
115.84193276316761
  0
ARC
  8
_f-0_
  6
CONTINUOUS
 62
    7
 10
66.201187405143969
 20
164.26724377158428
 40
2
 50
0
 51
29.999999999999915
  0
ARC
  8
_f-0_
  6
CONTINUOUS
 62
    7
 10
63.001187405144151
 20
164.26724377158428
 40
2
 50
0
 51
30.000000000001442
  0
ARC
  8
_f-0_
  6
CONTINUOUS
 62
    7
 10
65.001187405144151
 20
168.80314215644657
 40
2
 50
180
 51
210.00000000000082
  0
ARC
  8
_f-0_
  6
CONTINUOUS
 62
    7
 10
67.001187405144151
 20
170.88160312552927
 40
2
 50
180
 51
209.99999999999986
  0
ARC
  8
_f-0_
  6
CONTINUOUS
 62
    7
 10
18.40118740514481
 20
168.80314215644657
 40
2
 50
329.99999999999994
 51
0
  0
ARC
  8
_f-0_
  6
CONTINUOUS
 62
    7
 10
20.401187405143901
 20
164.26724377158428
 40
2
 50
150.00000000000009
 51
180
  0
ARC
  8
_f-0_
  6
CONTINUOUS
 62
    7
 10
17.201187405144083
 20
164.26724377158428
 40
2
 50
149.99999999999977
 51
180
  0
ARC
  8
_f-0_
  6
CONTINUOUS
 62
    7
 10
20.401187405143901
 20
170.74578753234263
 40
2
 50
103.69273104115079
 51
180
  0
ARC
  8
_f-0_
  6
CONTINUOUS
 62
    7
 10
41.701187405143969
 20
83.321475495439813
 40
91.981666661191412
 50
75.326452380014757
 51
103.69273104114845
  0
ARC
  8
_f-0_
  6
CONTINUOUS
 62
    7
 10
65.201187405143969
 20
136.97796544703817
 40
10
 50
323.16371269154922
 51
0.0000000000000318
  0
ARC
  8
_f-0_
  6
CONTINUOUS
 62
    7
 10
69.201187405143969
 20
181.30314215644657
 40
6
 50
0
 51
90
  0
ARC
  8
_f-0_
  6
CONTINUOUS
 62
    7
 10
14.201187405144083
 20
181.30314215644657
 40
6
 50
90
 51
180
  0
ARC
  8
_f-0_
  6
CONTINUOUS
 62
    7
 10
66.701187405143969
 20
189.30314215634655
 40
1.9999999998999982
 50
270
 51
0
  0
ARC
  8
_f-0_
  6
CONTINUOUS
 62
    7
 10
16.701187405144083
 20
189.30314215634655
 40
1.9999999998999982
 50
180
 51
270
  0
LINE
  8
_f-0_
  6
CONTINUOUS
 62
    7
 10
70.409391337643228
 20
192.85869771194666
 11
69.960182291322326
 21
193.86712695135577
  0
LINE
  8
_f-0_
  6
CONTINUOUS
 62
    7
 10
69.960182291322326
 20
193.86712695135577
 11
69.320796852589183
 21
194.79089870043578
  0
LINE
  8
_f-0_
  6
CONTINUOUS
 62
    7
 10
69.320796852589183
 20
194.79089870043578
 11
68.510662424454949
 21
195.60194462204186
  0
LINE
  8
_f-0_
  6
CONTINUOUS
 62
    7
 10
68.510662424454949
 20
195.60194462204186
 11
67.554394531570779
 21
196.27562149625521
  0
LINE
  8
_f-0_
  6
CONTINUOUS
 62
    7
 10
67.554394531570779
 20
196.27562149625521
 11
66.481048889967042
 21
196.79145999214967
  0
LINE
  8
_f-0_
  6
CONTINUOUS
 62
    7
 10
66.481048889967042
 20
196.79145999214967
 11
65.323238563824816
 21
197.13378661805439
  0
LINE
  8
_f-0_
  6
CONTINUOUS
 62
    7
 10
65.323238563824816
 20
197.13378661805439
 11
64.116143034023366
 21
197.29219995266692
  0
LINE
  8
_f-0_
  6
CONTINUOUS
 62
    7
 10
64.116143034023366
 20
197.29219995266692
 11
63.701187405143969
 21
197.3031421564466
  0
LINE
  8
_f-0_
  6
CONTINUOUS
 62
    7
 10
70.409391337626403
 20
192.85869771194638
 11
70.438472705835579
 21
192.06873705585951
  0
LINE
  8
_f-0_
  6
CONTINUOUS
 62
    7
 10
70.438472705835579
 20
192.06873705585951
 11
70.621434394617154
 21
191.29526650080942
  0
LINE
  8
_f-0_
  6
CONTINUOUS
 62
    7
 10
70.621434394617154
 20
191.29526650080942
 11
70.701187405143969
 21
191.08091993414638
  0
LINE
  8
_f-0_
  6
CONTINUOUS
 62
    7
 10
12.701187405144083
 20
191.08091993414638
 11
12.927234223385312
 21
191.84533670411901
  0
LINE
  8
_f-0_
  6
CONTINUOUS
 62
    7
 10
12.927234223385312
 20
191.84533670411901
 11
13.00051485606582
 21
192.63303148176999
  0
LINE
  8
_f-0_
  6
CONTINUOUS
 62
    7
 10
13.00051485606582
 20
192.63303148176999
 11
12.992983472661535
 21
192.85869771194638
  0
LINE
  8
_f-0_
  6
CONTINUOUS
 62
    7
 10
19.701187405144083
 20
197.3031421564466
 11
18.485650161475633
 21
197.2086126196325
  0
LINE
  8
_f-0_
  6
CONTINUOUS
 62
    7
 10
18.485650161475633
 20
197.2086126196325
 11
17.307046401864454
 21
196.92789624133201
  0
LINE
  8
_f-0_
  6
CONTINUOUS
 62
    7
 10
17.307046401864454
 20
196.92789624133201
 11
16.201187405144083
 21
196.4695224466505
  0
LINE
  8
_f-0_
  6
CONTINUOUS
 62
    7
 10
16.201187405144083
 20
196.4695224466505
 11
15.201674137338387
 21
195.84741869139094
  0
LINE
  8
_f-0_
  6
CONTINUOUS
 62
    7
 10
15.201674137338387
 20
195.84741869139094
 11
14.338876303311281
 21
195.08048728335734
  0
LINE
  8
_f-0_
  6
CONTINUOUS
 62
    7
 10
14.338876303311281
 20
195.08048728335734
 11
13.639009578653031
 21
194.19203104529663
  0
LINE
  8
_f-0_
  6
CONTINUOUS
 62
    7
 10
13.639009578653031
 20
194.19203104529663
 11
13.123339059642831
 21
193.20904527042188
  0
LINE
  8
_f-0_
  6
CONTINUOUS
 62
    7
 10
13.123339059642831
 20
193.20904527042188
 11
12.99298347264471
 21
192.85869771194666
  0
ARC
  8
_f-0_
  6
CONTINUOUS
 62
    7
 10
7.9511874051440827
 20
147.3031421564466
 40
0.75
 50
90
 51
180
  0
ARC
  8
_f-0_
  6
CONTINUOUS
 62
    7
 10
13.679550905143515
 20
147.58849615644715
 40
5
 50
174.66785499999978
 51
215.24477999999993
  0
ARC
  8
_f-0_
  6
CONTINUOUS
 62
    7
 10
18.675949405143911
 20
140.51315715644716
 40
10
 50
155.22862399999991
 51
184.07151099999959
  0
ARC
  8
_f-0_
  6
CONTINUOUS
 62
    7
 10
13.679550905143515
 20
132.01778815644695
 40
5
 50
144.75521999999964
 51
185.3321449999998
  0
ARC
  8
_f-0_
  6
CONTINUOUS
 62
    7
 10
7.9511874051440827
 20
132.3031421564466
 40
0.75
 50
180
 51
270
  0
ARC
  8
_f-0_
  6
CONTINUOUS
 62
    7
 10
18.675949405143911
 20
139.09312715644694
 40
10
 50
175.92848900000004
 51
204.77137599999966
  0
ARC
  8
_f-0_
  6
CONTINUOUS
 62
    7
 10
5.2496349051443758
 20
140.78630065644677
 40
10
 50
5.6422043214078608
 51
23.059334000000003
  0
ARC
  8
_f-0_
  6
CONTINUOUS
 62
    7
 10
5.2496349051443758
 20
138.81998365644642
 40
10
 50
336.94066600000002
 51
354.35779567859214
  0
ARC
  8
_f-0_
  6
CONTINUOUS
 62
    7
 10
10.274141905144461
 20
132.15415515644702
 40
5
 50
9.7995955382493722
 51
33.353117000000424
  0
ARC
  8
_f-0_
  6
CONTINUOUS
 62
    7
 10
10.274141905144461
 20
147.45212915644709
 40
5
 50
326.64688299999955
 51
350.20040446175079
  0
ARC
  8
_f-0_
  6
CONTINUOUS
 62
    7
 10
62.169937406994791
 20
139.8031421564466
 40
11.031249998148837
 50
309.59775270452445
 51
50.402247302573535
  0
ARC
  8
_f-0_
  6
CONTINUOUS
 62
    7
 10
24.701187405144083
 20
110.3031421564466
 40
3
 50
180
 51
270
  0
ARC
  8
_f-0_
  6
CONTINUOUS
 62
    7
 10
58.701187405143969
 20
110.3031421564466
 40
3
 50
270
 51
0
  0
ARC
  8
_f-0_
  6
CONTINUOUS
 62
    7
 10
58.701187405143969
 20
169.30314215644657
 40
3
 50
0
 51
90
  0
ARC
  8
_f-0_
  6
CONTINUOUS
 62
    7
 10
24.701187405144083
 20
169.30314215644657
 40
3
 50
90
 51
180
  0
ARC
  8
_f-0_
  6
CONTINUOUS
 62
    7
 10
117.1390130370354
 20
187.3031421564466
 40
63.254533465779254
 50
280.14554443389653
 51
350.90386635813945
  0
ARC
  8
_f-1_
  6
CONTINUOUS
 62
    7
 10
125.6390130370354
 20
139.8031421564466
 40
26.499999999999986
 50
84.846905317308256
 51
347.84722568943033
  0
ARC
  8
_f-1_
  6
CONTINUOUS
 62
    7
 10
125.6390130370354
 20
139.8031421564466
 40
24.999999999999986
 50
85.643716984156185
 51
344.41035184164332
  0
ARC
  8
_f-1_
  6
CONTINUOUS
 62
    7
 10
125.6390130370354
 20
139.8031421564466
 40
20.999999999999986
 50
89.956682792545706
 51
332.72158301459029
  0
CIRCLE
  8
_f-1_
  6
CONTINUOUS
 62
    7
 10
150.6390130370354
 20
261.3031421564466
 40
11
  0
CIRCLE
  8
_f-1_
  6
CONTINUOUS
 62
    7
 10
150.6390130370354
 20
261.3031421564466
 40
22.5
  0
ARC
  8
_f-0_
  6
CONTINUOUS
 62
    7
 10
125.6390130370354
 20
139.8031421564466
 40
32.499999999999986
 50
87.698542921362574
 51
358.81215746833811
  0
ARC
  8
_f-0_
  6
CONTINUOUS
 62
    7
 10
125.6390130370354
 20
139.8031421564466
 40
15
 50
122.51361463000015
 51
280.14554443389676
  0
ARC
  8
_f-0_
  6
CONTINUOUS
 62
    7
 10
122.41562147172851
 20
168.34085240443264
 40
6
 50
344.13883118963372
 51
80.536854608056856
  0
ARC
  8
_f-0_
  6
CONTINUOUS
 62
    7
 10
104.1390130389326
 20
173.53369210870105
 40
24.999999999999943
 50
302.51361463000001
 51
344.13883118963389
  0
ARC
  8
_f-0_
  6
CONTINUOUS
 62
    7
 10
123.1390130370354
 20
181.30314215644657
 40
6
 50
90
 51
180
  0
ARC
  8
_f-0_
  6
CONTINUOUS
 62
    7
 10
175.6390130370354
 20
189.30314215634655
 40
1.9999999998999982
 50
270
 51
0
  0
ARC
  8
_f-0_
  6
CONTINUOUS
 62
    7
 10
125.6390130370354
 20
189.30314215634655
 40
1.9999999998999982
 50
180
 51
270
  0
ARC
  8
_f-0_
  6
CONTINUOUS
 62
    7
 10
178.1390130370354
 20
181.30314215644657
 40
6
 50
0
 51
90
  0
LINE
  8
_f-0_
  6
CONTINUOUS
 62
    7
 10
179.34721696953471
 20
192.85869771194666
 11
178.89800792321381
 21
193.86712695135577
  0
LINE
  8
_f-0_
  6
CONTINUOUS
 62
    7
 10
178.89800792321381
 20
193.86712695135577
 11
178.25862248448067
 21
194.79089870043578
  0
LINE
  8
_f-0_
  6
CONTINUOUS
 62
    7
 10
178.25862248448067
 20
194.79089870043578
 11
177.44848805634643
 21
195.60194462204186
  0
LINE
  8
_f-0_
  6
CONTINUOUS
 62
    7
 10
177.44848805634643
 20
195.60194462204186
 11
176.49222016346226
 21
196.27562149625521
  0
LINE
  8
_f-0_
  6
CONTINUOUS
 62
    7
 10
176.49222016346226
 20
196.27562149625521
 11
175.41887452185853
 21
196.79145999214967
  0
LINE
  8
_f-0_
  6
CONTINUOUS
 62
    7
 10
175.41887452185853
 20
196.79145999214967
 11
174.26106419571619
 21
197.13378661805439
  0
LINE
  8
_f-0_
  6
CONTINUOUS
 62
    7
 10
174.26106419571619
 20
197.13378661805439
 11
173.05396866591479
 21
197.29219995266692
  0
LINE
  8
_f-0_
  6
CONTINUOUS
 62
    7
 10
173.05396866591479
 20
197.29219995266692
 11
172.6390130370354
 21
197.3031421564466
  0
LINE
  8
_f-0_
  6
CONTINUOUS
 62
    7
 10
179.34721696951777
 20
192.85869771194638
 11
179.37629833772701
 21
192.06873705585951
  0
LINE
  8
_f-0_
  6
CONTINUOUS
 62
    7
 10
179.37629833772701
 20
192.06873705585951
 11
179.55926002650853
 21
191.29526650080942
  0
LINE
  8
_f-0_
  6
CONTINUOUS
 62
    7
 10
179.55926002650853
 20
191.29526650080942
 11
179.6390130370354
 21
191.08091993414638
  0
LINE
  8
_f-0_
  6
CONTINUOUS
 62
    7
 10
121.6390130370354
 20
191.08091993414638
 11
121.8650598552768
 21
191.84533670411901
  0
LINE
  8
_f-0_
  6
CONTINUOUS
 62
    7
 10
121.8650598552768
 20
191.84533670411901
 11
121.93834048795725
 21
192.63303148176999
  0
LINE
  8
_f-0_
  6
CONTINUOUS
 62
    7
 10
121.93834048795725
 20
192.63303148176999
 11
121.93080910455302
 21
192.85869771194638
  0
LINE
  8
_f-0_
  6
CONTINUOUS
 62
    7
 10
128.6390130370354
 20
197.3031421564466
 11
127.42347579336689
 21
197.2086126196325
  0
LINE
  8
_f-0_
  6
CONTINUOUS
 62
    7
 10
127.42347579336689
 20
197.2086126196325
 11
126.24487203375571
 21
196.92789624133201
  0
LINE
  8
_f-0_
  6
CONTINUOUS
 62
    7
 10
126.24487203375571
 20
196.92789624133201
 11
125.13901303703545
 21
196.4695224466505
  0
LINE
  8
_f-0_
  6
CONTINUOUS
 62
    7
 10
125.13901303703545
 20
196.4695224466505
 11
124.13949976922964
 21
195.84741869139094
  0
LINE
  8
_f-0_
  6
CONTINUOUS
 62
    7
 10
124.13949976922964
 20
195.84741869139094
 11
123.2767019352026
 21
195.08048728335734
  0
LINE
  8
_f-0_
  6
CONTINUOUS
 62
    7
 10
123.2767019352026
 20
195.08048728335734
 11
122.5768352105444
 21
194.19203104529663
  0
LINE
  8
_f-0_
  6
CONTINUOUS
 62
    7
 10
122.5768352105444
 20
194.19203104529663
 11
122.06116469153409
 21
193.20904527042188
  0
LINE
  8
_f-0_
  6
CONTINUOUS
 62
    7
 10
122.06116469153409
 20
193.20904527042188
 11
121.93080910453608
 21
192.85869771194666
  0
CIRCLE
  8
_f-0_
  6
CONTINUOUS
 62
    7
 10
125.6390130370354
 20
139.8031421564466
 40
8.5
  0
ARC
  8
_f-0_
  6
CONTINUOUS
 62
    7
 10
96.139013037035397
 20
278.3031421564466
 40
3
 50
90
 51
180
  0
ARC
  8
_f-0_
  6
CONTINUOUS
 62
    7
 10
96.139013037035397
 20
244.3031421564466
 40
3
 50
180
 51
270
  0
ARC
  8
_f-0_
  6
CONTINUOUS
 62
    7
 10
114.1390130370354
 20
238.8031421564466
 40
5.5
 50
125.09680122758479
 51
234.90319877241524
  0
ARC
  8
_f-0_
  6
CONTINUOUS
 62
    7
 10
114.1390130370354
 20
238.8031421564466
 40
5.5
 50
305.09680122758471
 51
54.903198772415195
  0
ARC
  8
_f-0_
  6
CONTINUOUS
 62
    7
 10
114.1390130370354
 20
283.8031421564466
 40
5.5
 50
125.09680122758479
 51
234.90319877241524
  0
ARC
  8
_f-0_
  6
CONTINUOUS
 62
    7
 10
114.1390130370354
 20
283.8031421564466
 40
5.5
 50
305.09680122758471
 51
54.903198772415195
  0
ARC
  8
_f-0_
  6
CONTINUOUS
 62
    7
 10
187.1390130370354
 20
238.8031421564466
 40
5.5
 50
125.09680122758479
 51
234.90319877241524
  0
ARC
  8
_f-0_
  6
CONTINUOUS
 62
    7
 10
187.1390130370354
 20
238.8031421564466
 40
5.5
 50
305.09680122758471
 51
54.903198772415195
  0
ARC
  8
_f-0_
  6
CONTINUOUS
 62
    7
 10
187.1390130370354
 20
283.8031421564466
 40
5.5
 50
125.09680122758479
 51
234.90319877241524
  0
ARC
  8
_f-0_
  6
CONTINUOUS
 62
    7
 10
187.1390130370354
 20
283.8031421564466
 40
5.5
 50
305.09680122758471
 51
54.903198772415195
  0
ARC
  8
_f-0_
  6
CONTINUOUS
 62
    7
 10
193.1390130370354
 20
232.8031421564466
 40
5
 50
270
 51
0
  0
ARC
  8
_f-0_
  6
CONTINUOUS
 62
    7
 10
108.1390130370354
 20
232.8031421564466
 40
5
 50
180
 51
270
  0
ARC
  8
_f-0_
  6
CONTINUOUS
 62
    7
 10
193.1390130370354
 20
289.8031421564466
 40
5
 50
0
 51
90
  0
ARC
  8
_f-0_
  6
CONTINUOUS
 62
    7
 10
108.1390130370354
 20
289.8031421564466
 40
5
 50
90
 51
180
  0
ARC
  8
_f-0_
  6
CONTINUOUS
 62
    7
 10
96.139013037035397
 20
62.392028429553761
 40
3
 50
90
 51
180
  0
ARC
  8
_f-0_
  6
CONTINUOUS
 62
    7
 10
96.139013037035397
 20
28.392028429553761
 40
3
 50
180
 51
270
  0
ARC
  8
_f-0_
  6
CONTINUOUS
 62
    7
 10
187.1390130370354
 20
22.892028429553761
 40
5.5
 50
305.09680122758471
 51
54.903198772415195
  0
ARC
  8
_f-0_
  6
CONTINUOUS
 62
    7
 10
187.1390130370354
 20
67.892028429553761
 40
5.5
 50
305.09680122758471
 51
54.903198772415195
  0
ARC
  8
_f-0_
  6
CONTINUOUS
 62
    7
 10
193.1390130370354
 20
16.892028429553761
 40
5
 50
270
 51
0
  0
ARC
  8
_f-0_
  6
CONTINUOUS
 62
    7
 10
108.1390130370354
 20
16.892028429553761
 40
5
 50
180
 51
270
  0
ARC
  8
_f-0_
  6
CONTINUOUS
 62
    7
 10
193.1390130370354
 20
73.892028429553761
 40
5
 50
0
 51
90
  0
ARC
  8
_f-0_
  6
CONTINUOUS
 62
    7
 10
108.1390130370354
 20
73.892028429553761
 40
5
 50
90
 51
180
  0
ARC
  8
_f-0_
  6
CONTINUOUS
 62
    7
 10
118.1390130370354
 20
11.642028429553761
 40
0.75
 50
180
 51
270
  0
ARC
  8
_f-0_
  6
CONTINUOUS
 62
    7
 10
117.85365903703484
 20
17.370391929553421
 40
5
 50
264.66785499999975
 51
305.24477999999999
  0
ARC
  8
_f-0_
  6
CONTINUOUS
 62
    7
 10
124.92899803703483
 20
22.366790429553362
 40
10
 50
245.22862399999991
 51
274.07151099999959
  0
ARC
  8
_f-0_
  6
CONTINUOUS
 62
    7
 10
133.42436703703504
 20
17.370391929553421
 40
5
 50
234.75521999999967
 51
275.33214499999991
  0
ARC
  8
_f-0_
  6
CONTINUOUS
 62
    7
 10
133.1390130370354
 20
11.642028429553761
 40
0.75
 50
270
 51
0
  0
ARC
  8
_f-0_
  6
CONTINUOUS
 62
    7
 10
126.34902803703505
 20
22.366790429553362
 40
10
 50
265.92848900000001
 51
294.77137599999969
  0
ARC
  8
_f-0_
  6
CONTINUOUS
 62
    7
 10
124.65585453703522
 20
8.9404759295535996
 40
10
 50
95.64220432140786
 51
113.05933400000002
  0
ARC
  8
_f-0_
  6
CONTINUOUS
 62
    7
 10
126.62217153703557
 20
8.9404759295535996
 40
10
 50
66.94066600000005
 51
84.357795678592126
  0
ARC
  8
_f-0_
  6
CONTINUOUS
 62
    7
 10
117.99002603703491
 20
13.964982929553685
 40
5
 50
56.646882999999548
 51
80.200404461750779
  0
ARC
  8
_f-0_
  6
CONTINUOUS
 62
    7
 10
155.1390130370354
 20
28.392028429553989
 40
3
 50
270
 51
0
  0
ARC
  8
_f-0_
  6
CONTINUOUS
 62
    7
 10
155.1390130370354
 20
62.392028429553761
 40
3
 50
0
 51
89.999999999999986
  0
ARC
  8
_f-0_
  6
CONTINUOUS
 62
    7
 10
114.1390130370354
 20
67.892028429553761
 40
5.5
 50
125.09680122758479
 51
133.34175822721895
  0
ARC
  8
_f-0_
  6
CONTINUOUS
 62
    7
 10
114.1390130370354
 20
67.892028429553761
 40
5.5
 50
136.65824177278128
 51
189.41802721995529
  0
ARC
  8
_f-0_
  6
CONTINUOUS
 62
    7
 10
114.1390130370354
 20
22.892028429553761
 40
5.5
 50
170.58197278004232
 51
223.34175822721875
  0
ARC
  8
_f-0_
  6
CONTINUOUS
 62
    7
 10
114.1390130370354
 20
22.892028429553761
 40
5.5
 50
226.6582417727777
 51
234.90319877241521
  0
ARC
  8
_f-1_
  6
CONTINUOUS
 62
    7
 10
150.6390130370354
 20
45.392028429553761
 40
12
 50
308.68218745348946
 51
51.317812546510538
  0
ARC
  8
_f-1_
  6
CONTINUOUS
 62
    7
 10
150.6390130370354
 20
45.392028429553761
 40
21
 50
257.67230522904612
 51
102.32769477095341
  0
ARC
  8
_f-0_
  6
CONTINUOUS
 62
    7
 10
150.6390130370354
 20
45.392028429553761
 40
33.5
 50
232.2832549072167
 51
127.71674509278245
  0
ARC
  8
_f-0_
  6
CONTINUOUS
 62
    7
 10
150.6390130370354
 20
45.392028429553761
 40
30.300000000000001
 50
230.26210384845885
 51
129.73789615153993
  0
ARC
  8
_f-0_
  6
CONTINUOUS
 62
    7
 10
125.6390130370354
 20
65.86077843140481
 40
11.031249998148837
 50
47.1999801306903
 51
140.40224730257353
  0
ARC
  8
_f-0_
  6
CONTINUOUS
 62
    7
 10
133.28800003703498
 20
13.964982929553685
 40
5
 50
118.86442265392623
 51
123.35311700000041
  0
ARC
  8
_f-0_
  6
CONTINUOUS
 62
    7
 10
187.1390130370354
 20
67.892028429553761
 40
5.5
 50
125.09680122758479
 51
234.90319877241478
  0
ARC
  8
_f-0_
  6
CONTINUOUS
 62
    7
 10
187.1390130370354
 20
22.892028429553761
 40
5.5
 50
125.09680122758526
 51
234.90319877241518
  0
LINE
  8
_f-0_
  6
CONTINUOUS
 62
    7
 10
418.86949852323994
 20
288.3031421564466
 11
395.86949852323994
 21
288.3031421564466
  0
LINE
  8
_f-0_
  6
CONTINUOUS
 62
    7
 10
374.03177618340885
 20
288.3031421564466
 11
367.70722086307194
 21
288.3031421564466
  0
LINE
  8
_f-0_
  6
CONTINUOUS
 62
    7
 10
371.94111953206391
 20
227.8031421564466
 11
376.40495694808567
 21
226.60706052567969
  0
LINE
  8
_f-0_
  6
CONTINUOUS
 62
    7
 10
371.94111953206391
 20
227.8031421564466
 11
364.86949852323994
 21
227.8031421564466
  0
LINE
  8
_f-0_
  6
CONTINUOUS
 62
    7
 10
367.70722086307194
 20
234.3031421564466
 11
374.03177618340885
 21
234.3031421564466
  0
LINE
  8
_f-0_
  6
CONTINUOUS
 62
    7
 10
374.03177618340885
 20
243.3031421564466
 11
367.70722086307194
 21
243.3031421564466
  0
LINE
  8
_f-0_
  6
CONTINUOUS
 62
    7
 10
447.03177618340885
 20
234.3031421564466
 11
440.70722086307194
 21
234.3031421564466
  0
LINE
  8
_f-0_
  6
CONTINUOUS
 62
    7
 10
440.70722086307194
 20
288.3031421564466
 11
447.03177618340885
 21
288.3031421564466
  0
LINE
  8
_f-0_
  6
CONTINUOUS
 62
    7
 10
367.70722086307194
 20
279.3031421564466
 11
374.03177618340885
 21
279.3031421564466
  0
LINE
  8
_f-0_
  6
CONTINUOUS
 62
    7
 10
371.94111953206391
 20
294.8031421564466
 11
376.40495694808567
 21
295.99922378721351
  0
LINE
  8
_f-0_
  6
CONTINUOUS
 62
    7
 10
371.94111953206391
 20
294.8031421564466
 11
364.86949852323994
 21
294.8031421564466
  0
LINE
  8
_f-0_
  6
CONTINUOUS
 62
    7
 10
359.86949852323994
 20
289.8031421564466
 11
359.86949852323994
 21
232.8031421564466
  0
LINE
  8
_f-0_
  6
CONTINUOUS
 62
    7
 10
418.86949852323994
 20
234.3031421564466
 11
395.86949852323994
 21
234.3031421564466
  0
LINE
  8
_f-0_
  6
CONTINUOUS
 62
    7
 10
438.33404009839467
 20
226.60706052567969
 11
442.79787751441688
 21
227.8031421564466
  0
LINE
  8
_f-0_
  6
CONTINUOUS
 62
    7
 10
442.79787751441688
 20
227.8031421564466
 11
449.86949852323994
 21
227.8031421564466
  0
LINE
  8
_f-0_
  6
CONTINUOUS
 62
    7
 10
454.86949852323994
 20
232.8031421564466
 11
454.86949852323994
 21
289.8031421564466
  0
LINE
  8
_f-0_
  6
CONTINUOUS
 62
    7
 10
449.86949852323994
 20
294.8031421564466
 11
442.79787751441688
 21
294.8031421564466
  0
LINE
  8
_f-0_
  6
CONTINUOUS
 62
    7
 10
442.79787751441688
 20
294.8031421564466
 11
438.33404009839467
 21
295.99922378721351
  0
LINE
  8
_f-0_
  6
CONTINUOUS
 62
    7
 10
440.70722086307194
 20
279.3031421564466
 11
447.03177618340885
 21
279.3031421564466
  0
LINE
  8
_f-0_
  6
CONTINUOUS
 62
    7
 10
440.70722086307194
 20
243.3031421564466
 11
447.03177618340885
 21
243.3031421564466
  0
CIRCLE
  8
_f-1_
  6
CONTINUOUS
 62
    7
 10
407.36949852324085
 20
261.3031421564466
 40
17
  0
CIRCLE
  8
_f-1_
  6
CONTINUOUS
 62
    7
 10
407.36949852324085
 20
261.3031421564466
 40
15
  0
ARC
  8
_f-0_
  6
CONTINUOUS
 62
    7
 10
370.86949852323994
 20
238.8031421564466
 40
5.5
 50
125.09680122758479
 51
234.90319877241524
  0
ARC
  8
_f-0_
  6
CONTINUOUS
 62
    7
 10
370.86949852323994
 20
238.8031421564466
 40
5.5
 50
305.09680122758471
 51
54.903198772415195
  0
ARC
  8
_f-0_
  6
CONTINUOUS
 62
    7
 10
370.86949852323994
 20
283.8031421564466
 40
5.5
 50
125.09680122758479
 51
234.90319877241524
  0
ARC
  8
_f-0_
  6
CONTINUOUS
 62
    7
 10
370.86949852323994
 20
283.8031421564466
 40
5.5
 50
305.09680122758471
 51
54.903198772415195
  0
ARC
  8
_f-0_
  6
CONTINUOUS
 62
    7
 10
443.86949852323994
 20
238.8031421564466
 40
5.5
 50
125.09680122758479
 51
234.90319877241524
  0
ARC
  8
_f-0_
  6
CONTINUOUS
 62
    7
 10
443.86949852323994
 20
238.8031421564466
 40
5.5
 50
305.09680122758471
 51
54.903198772415195
  0
ARC
  8
_f-0_
  6
CONTINUOUS
 62
    7
 10
443.86949852323994
 20
283.8031421564466
 40
5.5
 50
125.09680122758479
 51
234.90319877241524
  0
ARC
  8
_f-0_
  6
CONTINUOUS
 62
    7
 10
443.86949852323994
 20
283.8031421564466
 40
5.5
 50
305.09680122758471
 51
54.903198772415195
  0
ARC
  8
_f-0_
  6
CONTINUOUS
 62
    7
 10
418.86949852323994
 20
209.3031421564466
 40
25.000000000000007
 50
45.433456228523383
 51
90
  0
ARC
  8
_f-0_
  6
CONTINUOUS
 62
    7
 10
437.81640200818981
 20
228.53891217825787
 40
2
 50
225.43345622852218
 51
285.00000000000097
  0
ARC
  8
_f-0_
  6
CONTINUOUS
 62
    7
 10
449.86949852323994
 20
232.8031421564466
 40
5
 50
270
 51
0
  0
ARC
  8
_f-0_
  6
CONTINUOUS
 62
    7
 10
376.92259503829098
 20
228.53891217825787
 40
2
 50
254.99999999999901
 51
314.56654377147777
  0
ARC
  8
_f-0_
  6
CONTINUOUS
 62
    7
 10
395.86949852323994
 20
209.3031421564466
 40
25.000000000000007
 50
90
 51
134.56654377147663
  0
ARC
  8
_f-0_
  6
CONTINUOUS
 62
    7
 10
364.86949852323994
 20
232.8031421564466
 40
5
 50
180
 51
270
  0
ARC
  8
_f-0_
  6
CONTINUOUS
 62
    7
 10
418.86949852323994
 20
313.3031421564466
 40
25.000000000000007
 50
270
 51
314.56654377147663
  0
ARC
  8
_f-0_
  6
CONTINUOUS
 62
    7
 10
437.81640200818981
 20
294.06737213463532
 40
2
 50
74.999999999999019
 51
134.5665437714778
  0
ARC
  8
_f-0_
  6
CONTINUOUS
 62
    7
 10
449.86949852323994
 20
289.8031421564466
 40
5
 50
0
 51
90
  0
ARC
  8
_f-0_
  6
CONTINUOUS
 62
    7
 10
376.92259503829098
 20
294.06737213463532
 40
2
 50
45.433456228522182
 51
105.00000000000097
  0
ARC
  8
_f-0_
  6
CONTINUOUS
 62
    7
 10
395.86949852323994
 20
313.3031421564466
 40
25.000000000000007
 50
225.43345622852337
 51
270
  0
ARC
  8
_f-0_
  6
CONTINUOUS
 62
    7
 10
364.86949852323994
 20
289.8031421564466
 40
5
 50
90
 51
180
  0
LINE
  8
_f-0_
  6
CONTINUOUS
 62
    7
 10
359.86949852323994
 20
201.3031421564466
 11
454.86949852323994
 21
201.3031421564466
  0
LINE
  8
_f-0_
  6
CONTINUOUS
 62
    7
 10
454.86949852323994
 20
201.3031421564466
 11
454.86949852323994
 21
198.10314215644632
  0
LINE
  8
_f-0_
  6
CONTINUOUS
 62
    7
 10
454.86949852323994
 20
198.10314215644632
 11
448.26949852324049
 21
198.10314215644632
  0
LINE
  8
_f-0_
  6
CONTINUOUS
 62
    7
 10
438.63982662449268
 20
193.99932818906166
 11
422.29548996629944
 21
135.62405380589337
  0
LINE
  8
_f-0_
  6
CONTINUOUS
 62
    7
 10
392.44350708018135
 20
135.62405380589337
 11
376.09917042198811
 21
193.99932818906166
  0
LINE
  8
_f-0_
  6
CONTINUOUS
 62
    7
 10
376.03592797413728
 20
191.01577456734378
 11
387.21359918346423
 21
154.3031421564466
  0
LINE
  8
_f-1_
  6
CONTINUOUS
 62
    7
 10
391.36949852323994
 20
162.98152730617778
 11
391.36949852323994
 21
191.52370554910578
  0
LINE
  8
_f-0_
  6
CONTINUOUS
 62
    7
 10
366.4694985232403
 20
198.10314215644632
 11
359.86949852323994
 21
198.10314215644632
  0
LINE
  8
_f-0_
  6
CONTINUOUS
 62
    7
 10
359.86949852323994
 20
198.10314215644632
 11
359.86949852323994
 21
201.3031421564466
  0
LINE
  8
_f-0_
  6
CONTINUOUS
 62
    7
 10
343.26328670257533
 20
201.3031421564466
 11
274.73482674619748
 21
201.3031421564466
  0
LINE
  8
_f-0_
  6
CONTINUOUS
 62
    7
 10
274.23482674619748
 20
200.8031421564466
 11
274.23482674619748
 21
196.49670706263726
  0
LINE
  8
_f-0_
  6
CONTINUOUS
 62
    7
 10
275.49905672438621
 20
196.49829319088542
 11
275.49905672438621
 21
198.10314215644632
  0
LINE
  8
_f-0_
  6
CONTINUOUS
 62
    7
 10
275.49905672438621
 20
198.10314215644632
 11
342.49905672438661
 21
198.10314215644632
  0
LINE
  8
_f-0_
  6
CONTINUOUS
 62
    7
 10
342.49905672438661
 20
198.10314215644632
 11
342.49905672438661
 21
196.49829319088542
  0
LINE
  8
_f-0_
  6
CONTINUOUS
 62
    7
 10
343.76328670257487
 20
196.49670706263726
 11
343.76328670257487
 21
200.8031421564466
  0
LINE
  8
_f-0_
  6
CONTINUOUS
 62
    7
 10
332.29905672438639
 20
193.10314215644632
 11
332.29905672438639
 21
124.3031421564466
  0
LINE
  8
_f-0_
  6
CONTINUOUS
 62
    7
 10
332.29905672438639
 20
124.3031421564466
 11
335.49905672438621
 21
124.3031421564466
  0
LINE
  8
_f-0_
  6
CONTINUOUS
 62
    7
 10
335.49905672438621
 20
124.3031421564466
 11
335.49905672438621
 21
154.30314215644614
  0
LINE
  8
_f-0_
  6
CONTINUOUS
 62
    7
 10
335.49905672438621
 20
148.3031421564466
 11
336.49905672438615
 21
148.3031421564466
  0
LINE
  8
_f-0_
  6
CONTINUOUS
 62
    7
 10
336.49905672438615
 20
148.3031421564466
 11
336.49905672438615
 21
131.30314215731744
  0
LINE
  8
_f-0_
  6
CONTINUOUS
 62
    7
 10
336.49905672438615
 20
131.30314215731744
 11
335.49905672438621
 21
131.30314215731744
  0
LINE
  8
_f-0_
  6
CONTINUOUS
 62
    7
 10
332.29905672438639
 20
129.8031421564466
 11
330.59905672438657
 21
129.8031421564466
  0
LINE
  8
_f-0_
  6
CONTINUOUS
 62
    7
 10
330.59905672438657
 20
120.3031421564466
 11
328.99905672438666
 21
118.8031421564466
  0
LINE
  8
_f-0_
  6
CONTINUOUS
 62
    7
 10
330.59905672438657
 20
120.3031421564466
 11
330.59905672438657
 21
159.3031421564466
  0
LINE
  8
_f-0_
  6
CONTINUOUS
 62
    7
 10
330.59905672438657
 20
159.3031421564466
 11
328.99905672438666
 21
160.8031421564466
  0
LINE
  8
_f-0_
  6
CONTINUOUS
 62
    7
 10
328.99905672438666
 20
169.30314215644657
 11
328.99905672438666
 21
110.3031421564466
  0
LINE
  8
_f-0_
  6
CONTINUOUS
 62
    7
 10
325.99905672438666
 20
107.3031421564466
 11
291.99905672438621
 21
107.3031421564466
  0
LINE
  8
_f-0_
  6
CONTINUOUS
 62
    7
 10
288.99905672438621
 20
110.3031421564466
 11
288.99905672438621
 21
169.30314215644657
  0
LINE
  8
_f-0_
  6
CONTINUOUS
 62
    7
 10
291.99905672438621
 20
172.30314215644657
 11
325.99905672438666
 21
172.30314215644657
  0
LINE
  8
_f-0_
  6
CONTINUOUS
 62
    7
 10
288.99905672438621
 20
118.8031421564466
 11
287.3990567243863
 21
120.3031421564466
  0
LINE
  8
_f-0_
  6
CONTINUOUS
 62
    7
 10
287.3990567243863
 20
120.3031421564466
 11
287.3990567243863
 21
159.3031421564466
  0
LINE
  8
_f-0_
  6
CONTINUOUS
 62
    7
 10
287.3990567243863
 20
159.3031421564466
 11
288.99905672438621
 21
160.8031421564466
  0
LINE
  8
_f-0_
  6
CONTINUOUS
 62
    7
 10
287.3990567243863
 20
149.8031421564466
 11
285.69905672438648
 21
149.8031421564466
  0
LINE
  8
_f-0_
  6
CONTINUOUS
 62
    7
 10
281.74850122438551
 20
149.60314215644678
 11
276.89394972438589
 21
149.60314215644678
  0
LINE
  8
_f-0_
  6
CONTINUOUS
 62
    7
 10
276.89394972438589
 20
149.60314215644678
 11
275.99905672438621
 21
148.0531421564466
  0
LINE
  8
_f-0_
  6
CONTINUOUS
 62
    7
 10
275.99905672438621
 20
148.0531421564466
 11
275.24905672438621
 21
148.0531421564466
  0
LINE
  8
_f-0_
  6
CONTINUOUS
 62
    7
 10
274.49905672438621
 20
147.3031421564466
 11
274.49905672438621
 21
132.3031421564466
  0
LINE
  8
_f-0_
  6
CONTINUOUS
 62
    7
 10
275.24905672438621
 20
131.5531421564466
 11
275.99905672438621
 21
131.5531421564466
  0
LINE
  8
_f-0_
  6
CONTINUOUS
 62
    7
 10
275.99905672438621
 20
131.5531421564466
 11
276.89394972438589
 21
130.00314215644642
  0
LINE
  8
_f-0_
  6
CONTINUOUS
 62
    7
 10
276.89394972438589
 20
130.00314215644642
 11
281.74850122438551
 21
130.00314215644642
  0
LINE
  8
_f-0_
  6
CONTINUOUS
 62
    7
 10
281.74850122438551
 20
130.00314215644642
 11
282.49905672438666
 21
131.3031421564466
  0
LINE
  8
_f-0_
  6
CONTINUOUS
 62
    7
 10
281.74850122438551
 20
134.90314215644696
 11
276.89394972438589
 21
134.90314215644696
  0
LINE
  8
_f-0_
  6
CONTINUOUS
 62
    7
 10
274.49905672438621
 20
134.8031421564466
 11
271.19905748732612
 21
134.8031421564466
  0
LINE
  8
_f-0_
  6
CONTINUOUS
 62
    7
 10
271.19905748732612
 20
134.8031421564466
 11
271.19905748732612
 21
144.8031421564466
  0
LINE
  8
_f-0_
  6
CONTINUOUS
 62
    7
 10
271.19905748732612
 20
144.8031421564466
 11
274.49905672438621
 21
144.8031421564466
  0
LINE
  8
_f-1_
  6
CONTINUOUS
 62
    7
 10
274.49905672438621
 20
144.10314234718146
 11
270.49905672438666
 21
144.10314234718146
  0
LINE
  8
_f-0_
  6
CONTINUOUS
 62
    7
 10
270.49905672438666
 20
144.10314234718146
 11
271.19905748732612
 21
144.8031421564466
  0
LINE
  8
_f-0_
  6
CONTINUOUS
 62
    7
 10
270.49905672438666
 20
144.10314234718146
 11
270.49905672438666
 21
135.50314196571173
  0
LINE
  8
_f-0_
  6
CONTINUOUS
 62
    7
 10
270.49905672438666
 20
135.50314196571173
 11
271.19905748732612
 21
134.8031421564466
  0
LINE
  8
_f-1_
  6
CONTINUOUS
 62
    7
 10
270.49905672438666
 20
135.50314196571173
 11
274.49905672438621
 21
135.50314196571173
  0
LINE
  8
_f-0_
  6
CONTINUOUS
 62
    7
 10
332.29905672438639
 20
149.8031421564466
 11
330.59905672438657
 21
149.8031421564466
  0
LINE
  8
_f-0_
  6
CONTINUOUS
 62
    7
 10
281.74850122438551
 20
149.60314215644678
 11
282.49905672438666
 21
148.3031421564466
  0
LINE
  8
_f-0_
  6
CONTINUOUS
 62
    7
 10
281.74850122438551
 20
144.70314215644714
 11
276.89394972438589
 21
144.70314215644714
  0
LINE
  8
ADD_LINE
  6
DOT
 62
    9
 10
283.20616350557196
 20
140.51024893763326
 11
282.49905672438666
 21
139.8031421564466
  0
LINE
  8
ADD_LINE
  6
DOT
 62
    9
 10
282.49905672438666
 20
139.8031421564466
 11
283.20616350557196
 21
139.09603537525993
  0
LINE
  8
_f-0_
  6
CONTINUOUS
 62
    7
 10
285.69905672438648
 20
129.8031421564466
 11
287.3990567243863
 21
129.8031421564466
  0
LINE
  8
_f-0_
  6
CONTINUOUS
 62
    7
 10
285.69905672438648
 20
124.3031421564466
 11
285.69905672438648
 21
193.10314215644632
  0
LINE
  8
_f-0_
  6
CONTINUOUS
 62
    7
 10
295.99905672438621
 20
197.10314215644632
 11
294.99905672438621
 21
198.10314215644632
  0
LINE
  8
_f-0_
  6
CONTINUOUS
 62
    7
 10
295.99905672438621
 20
197.10314215644632
 11
321.99905672438621
 21
197.10314215644632
  0
LINE
  8
_f-0_
  6
CONTINUOUS
 62
    7
 10
321.99905672438621
 20
197.10314215644632
 11
322.99905672438666
 21
198.10314215644632
  0
LINE
  8
_f-0_
  6
CONTINUOUS
 62
    7
 10
282.49905672438666
 20
154.30314215644614
 11
282.49905672438666
 21
124.3031421564466
  0
LINE
  8
_f-0_
  6
CONTINUOUS
 62
    7
 10
282.49905672438666
 20
124.3031421564466
 11
285.69905672438648
 21
124.3031421564466
  0
LINE
  8
_f-0_
  6
CONTINUOUS
 62
    7
 10
427.52539786301656
 20
154.3031421564466
 11
438.70306907234351
 21
191.01577456734378
  0
LINE
  8
_f-1_
  6
CONTINUOUS
 62
    7
 10
423.36949852323994
 20
191.52370554910578
 11
423.36949852323994
 21
162.98152730617778
  0
ARC
  8
_f-1_
  6
CONTINUOUS
 62
    7
 10
407.36949852324085
 20
139.8031421564466
 40
26.499999999999986
 50
141.56203196710712
 51
38.437968032892968
  0
ARC
  8
_f-1_
  6
CONTINUOUS
 62
    7
 10
407.36949852324085
 20
139.8031421564466
 40
24.999999999999986
 50
143.95770726244547
 51
36.042292737554533
  0
ARC
  8
_f-1_
  6
CONTINUOUS
 62
    7
 10
407.36949852324085
 20
139.8031421564466
 40
20.999999999999986
 50
153.21098365441662
 51
26.789016345583377
  0
ARC
  8
_f-1_
  6
CONTINUOUS
 62
    7
 10
407.36949852324085
 20
139.8031421564466
 40
19.499999999999986
 50
158.28472081587677
 51
21.715279184123233
  0
ARC
  8
_f-0_
  6
CONTINUOUS
 62
    7
 10
407.36949852324085
 20
139.8031421564466
 40
32.499999999999986
 50
134.5367044831703
 51
45.463295516829703
  0
ARC
  8
_f-0_
  6
CONTINUOUS
 62
    7
 10
407.36949852324085
 20
139.8031421564466
 40
15.499999999999986
 50
270
 51
344.20565913301544
  0
ARC
  8
_f-0_
  6
CONTINUOUS
 62
    7
 10
448.26949852324049
 20
188.10314215644632
 40
9.9999999999999858
 50
90
 51
163.06640043611344
  0
ARC
  8
_f-0_
  6
CONTINUOUS
 62
    7
 10
448.26949852324049
 20
191.3031421564466
 40
9.9999999999999858
 50
90
 51
164.35842721122052
  0
CIRCLE
  8
_f-0_
  6
CONTINUOUS
 62
    7
 10
407.36949852324085
 20
139.8031421564466
 40
8.5
  0
ARC
  8
_f-0_
  6
CONTINUOUS
 62
    7
 10
407.36949852324085
 20
139.8031421564466
 40
15.499999999999986
 50
195.79434086698461
 51
270
  0
ARC
  8
_f-0_
  6
CONTINUOUS
 62
    7
 10
366.4694985232403
 20
188.10314215644632
 40
9.9999999999999858
 50
16.933599563886553
 51
90
  0
ARC
  8
_f-0_
  6
CONTINUOUS
 62
    7
 10
366.4694985232403
 20
191.3031421564466
 40
9.9999999999999858
 50
15.64157278877947
 51
90
  0
ARC
  8
_f-0_
  6
CONTINUOUS
 62
    7
 10
327.29905672438593
 20
193.10314215644632
 40
5
 50
0
 51
90
  0
ARC
  8
_f-0_
  6
CONTINUOUS
 62
    7
 10
290.69905672438603
 20
193.10314215644632
 40
5
 50
90
 51
180
  0
ARC
  8
_f-0_
  6
CONTINUOUS
 62
    7
 10
172.65594360288554
 20
154.30314215644614
 40
109.84311312150078
 50
0
 51
22.16386014875571
  0
ARC
  8
_f-0_
  6
CONTINUOUS
 62
    7
 10
195.32303855101389
 20
154.30314215644614
 40
90.376018173817897
 50
0.0000000036577523
 51
27.179265601897853
  0
ARC
  8
_f-0_
  6
CONTINUOUS
 62
    7
 10
276.23482674619748
 20
196.49670706263726
 40
2
 50
180
 51
202.16386014875627
  0
ARC
  8
_f-0_
  6
CONTINUOUS
 62
    7
 10
277.49905672438621
 20
196.49829319088542
 40
2
 50
180
 51
207.17926560189804
  0
ARC
  8
_f-0_
  6
CONTINUOUS
 62
    7
 10
274.73482674619748
 20
200.8031421564466
 40
0.5
 50
90
 51
180
  0
ARC
  8
_f-0_
  6
CONTINUOUS
 62
    7
 10
341.76328670257533
 20
196.49670706263726
 40
2
 50
337.83613985124373
 51
0.0000000000000063
  0
ARC
  8
_f-0_
  6
CONTINUOUS
 62
    7
 10
445.34216984588727
 20
154.30314215644614
 40
109.84311312150078
 50
157.8361398512443
 51
180
  0
ARC
  8
_f-0_
  6
CONTINUOUS
 62
    7
 10
340.49905672438615
 20
196.49829319088542
 40
2
 50
332.82073439810193
 51
0.000000000000019
  0
ARC
  8
_f-0_
  6
CONTINUOUS
 62
    7
 10
422.67507489775869
 20
154.30314215644614
 40
90.376018173817897
 50
152.82073439810216
 51
179.99999999634227
  0
ARC
  8
_f-0_
  6
CONTINUOUS
 62
    7
 10
343.26328670257533
 20
200.8031421564466
 40
0.5
 50
0
 51
90
  0
ARC
  8
_f-0_
  6
CONTINUOUS
 62
    7
 10
275.24905672438621
 20
147.3031421564466
 40
0.75
 50
90
 51
180
  0
ARC
  8
_f-0_
  6
CONTINUOUS
 62
    7
 10
280.97742022438609
 20
147.58849615644715
 40
5
 50
174.66785499999978
 51
215.24477999999993
  0
ARC
  8
_f-0_
  6
CONTINUOUS
 62
    7
 10
285.97381872438604
 20
140.51315715644716
 40
10
 50
155.22862399999991
 51
184.07151099999959
  0
ARC
  8
_f-0_
  6
CONTINUOUS
 62
    7
 10
280.97742022438609
 20
132.01778815644695
 40
5
 50
144.75521999999964
 51
185.3321449999998
  0
ARC
  8
_f-0_
  6
CONTINUOUS
 62
    7
 10
275.24905672438621
 20
132.3031421564466
 40
0.75
 50
180
 51
270
  0
ARC
  8
_f-0_
  6
CONTINUOUS
 62
    7
 10
285.97381872438604
 20
139.09312715644694
 40
10
 50
175.92848900000004
 51
204.77137599999966
  0
ARC
  8
_f-0_
  6
CONTINUOUS
 62
    7
 10
272.5475042243865
 20
140.78630065644677
 40
10
 50
5.6422043214078608
 51
23.059334000000003
  0
ARC
  8
_f-0_
  6
CONTINUOUS
 62
    7
 10
272.5475042243865
 20
138.81998365644642
 40
10
 50
336.94066600000002
 51
354.35779567859214
  0
ARC
  8
_f-0_
  6
CONTINUOUS
 62
    7
 10
277.57201122438659
 20
132.15415515644702
 40
5
 50
9.7995955382493722
 51
33.353117000000424
  0
ARC
  8
_f-0_
  6
CONTINUOUS
 62
    7
 10
277.57201122438659
 20
147.45212915644709
 40
5
 50
326.64688299999955
 51
350.20040446175079
  0
ARC
  8
_f-0_
  6
CONTINUOUS
 62
    7
 10
329.46780672623748
 20
139.8031421564466
 40
11.031249998148837
 50
309.59775270452445
 51
50.402247302573535
  0
ARC
  8
_f-0_
  6
CONTINUOUS
 62
    7
 10
291.99905672438621
 20
110.3031421564466
 40
3
 50
180
 51
270
  0
ARC
  8
_f-0_
  6
CONTINUOUS
 62
    7
 10
325.99905672438666
 20
110.3031421564466
 40
3
 50
270
 51
0
  0
ARC
  8
_f-0_
  6
CONTINUOUS
 62
    7
 10
325.99905672438666
 20
169.30314215644657
 40
3
 50
0
 51
90
  0
ARC
  8
_f-0_
  6
CONTINUOUS
 62
    7
 10
291.99905672438621
 20
169.30314215644657
 40
3
 50
90
 51
180
  0
LINE
  8
_f-0_
  6
CONTINUOUS
 62
    7
 10
449.86949852323994
 20
78.892028429553307
 11
442.79787751441688
 21
78.892028429553307
  0
LINE
  8
_f-0_
  6
CONTINUOUS
 62
    7
 10
442.79787751441688
 20
78.892028429553307
 11
438.33404009839467
 21
80.088110060320219
  0
LINE
  8
_f-0_
  6
CONTINUOUS
 62
    7
 10
440.70722086307194
 20
72.392028429553761
 11
447.03177618340885
 21
72.392028429553761
  0
LINE
  8
_f-0_
  6
CONTINUOUS
 62
    7
 10
439.86949852323994
 20
62.392028429553989
 11
439.86949852323994
 21
28.392028429553534
  0
LINE
  8
_f-0_
  6
CONTINUOUS
 62
    7
 10
440.70722086307194
 20
27.392028429553761
 11
447.03177618340885
 21
27.392028429553761
  0
LINE
  8
_f-0_
  6
CONTINUOUS
 62
    7
 10
440.70722086307194
 20
18.392028429553761
 11
447.03177618340885
 21
18.392028429553761
  0
LINE
  8
_f-0_
  6
CONTINUOUS
 62
    7
 10
436.86949852323994
 20
25.392028429553534
 11
377.86949852323994
 21
25.392028429553534
  0
LINE
  8
_f-0_
  6
CONTINUOUS
 62
    7
 10
367.70722086307194
 20
18.392028429553761
 11
374.03177618340885
 21
18.392028429553761
  0
LINE
  8
_f-0_
  6
CONTINUOUS
 62
    7
 10
374.86949852323994
 20
28.392028429553534
 11
374.86949852323994
 21
62.392028429553989
  0
LINE
  8
_f-0_
  6
CONTINUOUS
 62
    7
 10
374.03177618340885
 20
63.392028429553761
 11
367.70722086307194
 21
63.392028429553761
  0
LINE
  8
_f-0_
  6
CONTINUOUS
 62
    7
 10
371.941119532063
 20
78.892028429553307
 11
364.86949852323994
 21
78.892028429553307
  0
LINE
  8
_f-0_
  6
CONTINUOUS
 62
    7
 10
371.941119532063
 20
78.892028429553307
 11
376.40495694808521
 21
80.088110060320219
  0
LINE
  8
_f-0_
  6
CONTINUOUS
 62
    7
 10
374.03177618340885
 20
72.392028429553761
 11
367.70722086307194
 21
72.392028429553761
  0
LINE
  8
_f-0_
  6
CONTINUOUS
 62
    7
 10
377.86949852323994
 20
65.392028429553989
 11
436.86949852323994
 21
65.392028429553989
  0
LINE
  8
_f-0_
  6
CONTINUOUS
 62
    7
 10
447.03177618340885
 20
63.392028429553761
 11
440.70722086307194
 21
63.392028429553761
  0
LINE
  8
_f-0_
  6
CONTINUOUS
 62
    7
 10
428.36949852323994
 20
65.392028429553989
 11
426.86949852323994
 21
66.992028429553898
  0
LINE
  8
_f-0_
  6
CONTINUOUS
 62
    7
 10
426.86949852323994
 20
66.992028429553898
 11
387.86949852323994
 21
66.992028429553898
  0
LINE
  8
_f-0_
  6
CONTINUOUS
 62
    7
 10
387.86949852323994
 20
66.992028429553898
 11
386.36949852323994
 21
65.392028429553989
  0
LINE
  8
_f-0_
  6
CONTINUOUS
 62
    7
 10
397.36949852323994
 20
66.992028429553898
 11
397.36949852323994
 21
68.692028429553716
  0
LINE
  8
_f-0_
  6
CONTINUOUS
 62
    7
 10
395.86949852323994
 20
69.192028429553261
 11
418.86949852323994
 21
69.192028429553261
  0
LINE
  8
_f-0_
  6
CONTINUOUS
 62
    7
 10
417.36949852323994
 20
68.692028429553716
 11
417.36949852323994
 21
66.992028429553898
  0
LINE
  8
_f-0_
  6
CONTINUOUS
 62
    7
 10
418.86949852323994
 20
72.392028429553307
 11
395.86949852323994
 21
72.392028429553307
  0
LINE
  8
_f-0_
  6
CONTINUOUS
 62
    7
 10
398.86949852323994
 20
72.392028429553307
 11
398.86949852323994
 21
73.392028429553307
  0
LINE
  8
_f-0_
  6
CONTINUOUS
 62
    7
 10
398.86949852323994
 20
73.392028429553307
 11
415.86949852236955
 21
73.392028429553307
  0
LINE
  8
_f-0_
  6
CONTINUOUS
 62
    7
 10
415.86949852236955
 20
73.392028429553307
 11
415.86949852236955
 21
72.392028429553307
  0
LINE
  8
ADD_LINE
  6
DOT
 62
    9
 10
407.36949852323994
 20
18.392028429553307
 11
406.66239174205327
 21
19.099135210738837
  0
LINE
  8
ADD_LINE
  6
DOT
 62
    9
 10
407.36949852323994
 20
18.392028429553307
 11
408.07660530442661
 21
19.099135210738837
  0
LINE
  8
_f-0_
  6
CONTINUOUS
 62
    7
 10
412.26949852323958
 20
17.641472929552378
 11
412.26949852323958
 21
12.786921429552763
  0
LINE
  8
_f-0_
  6
CONTINUOUS
 62
    7
 10
412.36949852323994
 20
10.392028429552624
 11
412.36949852323994
 21
7.0920291924927596
  0
LINE
  8
_f-0_
  6
CONTINUOUS
 62
    7
 10
412.36949852323994
 20
7.0920291924927596
 11
402.36949852323994
 21
7.0920291924927596
  0
LINE
  8
_f-0_
  6
CONTINUOUS
 62
    7
 10
402.36949852323994
 20
7.0920291924927596
 11
402.36949852323994
 21
10.392028429552624
  0
LINE
  8
_f-0_
  6
CONTINUOUS
 62
    7
 10
403.06949833250508
 20
10.392028429552624
 11
403.06949833250508
 21
6.3920284295533065
  0
LINE
  8
_f-0_
  6
CONTINUOUS
 62
    7
 10
403.06949833250508
 20
6.3920284295533065
 11
411.6694987139748
 21
6.3920284295533065
  0
LINE
  8
_f-0_
  6
CONTINUOUS
 62
    7
 10
411.6694987139748
 20
6.3920284295533065
 11
412.36949852323994
 21
7.0920291924927596
  0
LINE
  8
_f-0_
  6
CONTINUOUS
 62
    7
 10
411.6694987139748
 20
6.3920284295533065
 11
411.6694987139748
 21
10.392028429552624
  0
LINE
  8
_f-0_
  6
CONTINUOUS
 62
    7
 10
414.86949852323994
 20
10.392028429552624
 11
399.86949852323994
 21
10.392028429552624
  0
LINE
  8
_f-0_
  6
CONTINUOUS
 62
    7
 10
399.11949852323994
 20
11.142028429552624
 11
399.11949852323994
 21
11.892028429552624
  0
LINE
  8
_f-0_
  6
CONTINUOUS
 62
    7
 10
399.11949852323994
 20
11.892028429552624
 11
397.56949852323976
 21
12.786921429552763
  0
LINE
  8
_f-0_
  6
CONTINUOUS
 62
    7
 10
397.56949852323976
 20
12.786921429552763
 11
397.56949852323976
 21
17.641472929552378
  0
LINE
  8
_f-0_
  6
CONTINUOUS
 62
    7
 10
397.56949852323976
 20
17.641472929552378
 11
398.86949852323994
 21
18.392028429553307
  0
LINE
  8
_f-0_
  6
CONTINUOUS
 62
    7
 10
395.86949852323994
 20
18.392028429553307
 11
418.86949852323994
 21
18.392028429553307
  0
LINE
  8
_f-0_
  6
CONTINUOUS
 62
    7
 10
417.16949852324012
 20
17.641472929552378
 11
417.16949852324012
 21
12.786921429552763
  0
LINE
  8
_f-0_
  6
CONTINUOUS
 62
    7
 10
417.16949852324012
 20
12.786921429552763
 11
415.61949852323994
 21
11.892028429552624
  0
LINE
  8
_f-0_
  6
CONTINUOUS
 62
    7
 10
415.61949852323994
 20
11.892028429552624
 11
415.61949852323994
 21
11.142028429552624
  0
LINE
  8
_f-0_
  6
CONTINUOUS
 62
    7
 10
415.86949852323994
 20
18.392028429553307
 11
417.16949852324012
 21
17.641472929552378
  0
LINE
  8
_f-0_
  6
CONTINUOUS
 62
    7
 10
417.36949852323994
 20
22.092028429553807
 11
417.36949852323994
 21
23.792028429553625
  0
LINE
  8
_f-0_
  6
CONTINUOUS
 62
    7
 10
418.86949852323994
 20
21.592028429553352
 11
395.86949852323994
 21
21.592028429553352
  0
LINE
  8
_f-0_
  6
CONTINUOUS
 62
    7
 10
397.36949852323994
 20
22.092028429553807
 11
397.36949852323994
 21
23.792028429553625
  0
LINE
  8
_f-0_
  6
CONTINUOUS
 62
    7
 10
387.86949852323994
 20
23.792028429553625
 11
426.86949852323994
 21
23.792028429553625
  0
LINE
  8
_f-0_
  6
CONTINUOUS
 62
    7
 10
426.86949852323994
 20
23.792028429553625
 11
428.36949852323994
 21
25.392028429553534
  0
LINE
  8
_f-0_
  6
CONTINUOUS
 62
    7
 10
438.33404009839467
 20
10.695946798786395
 11
442.79787751441688
 21
11.892028429553307
  0
LINE
  8
_f-0_
  6
CONTINUOUS
 62
    7
 10
442.79787751441688
 20
11.892028429553307
 11
449.86949852323994
 21
11.892028429553307
  0
LINE
  8
_f-0_
  6
CONTINUOUS
 62
    7
 10
454.86949852323994
 20
16.892028429553307
 11
454.86949852323994
 21
73.892028429553307
  0
LINE
  8
_f-0_
  6
CONTINUOUS
 62
    7
 10
367.70722086307194
 20
27.392028429553761
 11
374.03177618340885
 21
27.392028429553761
  0
LINE
  8
_f-0_
  6
CONTINUOUS
 62
    7
 10
386.36949852323994
 20
25.392028429553534
 11
387.86949852323994
 21
23.792028429553625
  0
LINE
  8
_f-0_
  6
CONTINUOUS
 62
    7
 10
402.46949852323939
 20
17.641472929552378
 11
402.46949852323939
 21
12.786921429552763
  0
LINE
  8
_f-0_
  6
CONTINUOUS
 62
    7
 10
402.36949852323994
 20
7.0920291924927596
 11
403.06949833250508
 21
6.3920284295533065
  0
LINE
  8
_f-0_
  6
CONTINUOUS
 62
    7
 10
376.40495694808521
 20
10.695946798786395
 11
371.941119532063
 21
11.892028429553307
  0
LINE
  8
_f-0_
  6
CONTINUOUS
 62
    7
 10
371.941119532063
 20
11.892028429553307
 11
364.86949852323994
 21
11.892028429553307
  0
LINE
  8
_f-0_
  6
CONTINUOUS
 62
    7
 10
359.86949852323994
 20
16.892028429553307
 11
359.86949852323994
 21
73.892028429553307
  0
ARC
  8
_f-0_
  6
CONTINUOUS
 62
    7
 10
370.86949852323994
 20
22.892028429553761
 40
5.5
 50
125.09680122758479
 51
234.90319877241524
  0
ARC
  8
_f-0_
  6
CONTINUOUS
 62
    7
 10
370.86949852323994
 20
22.892028429553761
 40
5.5
 50
305.09680122758471
 51
54.903198772415195
  0
ARC
  8
_f-0_
  6
CONTINUOUS
 62
    7
 10
370.86949852323994
 20
67.892028429553761
 40
5.5
 50
125.09680122758479
 51
234.90319877241524
  0
ARC
  8
_f-0_
  6
CONTINUOUS
 62
    7
 10
370.86949852323994
 20
67.892028429553761
 40
5.5
 50
305.09680122758471
 51
54.903198772415195
  0
ARC
  8
_f-0_
  6
CONTINUOUS
 62
    7
 10
443.86949852323994
 20
22.892028429553761
 40
5.5
 50
125.09680122758479
 51
234.90319877241524
  0
ARC
  8
_f-0_
  6
CONTINUOUS
 62
    7
 10
443.86949852323994
 20
22.892028429553761
 40
5.5
 50
305.09680122758471
 51
54.903198772415195
  0
ARC
  8
_f-0_
  6
CONTINUOUS
 62
    7
 10
443.86949852323994
 20
67.892028429553761
 40
5.5
 50
125.09680122758479
 51
234.90319877241524
  0
ARC
  8
_f-0_
  6
CONTINUOUS
 62
    7
 10
443.86949852323994
 20
67.892028429553761
 40
5.5
 50
305.09680122758471
 51
54.903198772415195
  0
ARC
  8
_f-0_
  6
CONTINUOUS
 62
    7
 10
418.86949852323994
 20
-6.6079715704466935
 40
25.000000000000007
 50
45.433456228523383
 51
90
  0
ARC
  8
_f-0_
  6
CONTINUOUS
 62
    7
 10
437.81640200818981
 20
12.627798451364583
 40
2
 50
225.43345622852218
 51
285.00000000000097
  0
ARC
  8
_f-0_
  6
CONTINUOUS
 62
    7
 10
449.86949852323994
 20
16.892028429553307
 40
5
 50
270
 51
0
  0
ARC
  8
_f-0_
  6
CONTINUOUS
 62
    7
 10
376.92259503829098
 20
12.627798451364583
 40
2
 50
254.99999999999901
 51
314.56654377147777
  0
ARC
  8
_f-0_
  6
CONTINUOUS
 62
    7
 10
395.86949852323994
 20
-6.6079715704466935
 40
25.000000000000007
 50
90
 51
134.56654377147663
  0
ARC
  8
_f-0_
  6
CONTINUOUS
 62
    7
 10
364.86949852323994
 20
16.892028429553307
 40
5
 50
180
 51
270
  0
ARC
  8
_f-0_
  6
CONTINUOUS
 62
    7
 10
437.81640200818981
 20
78.15625840774203
 40
2
 50
74.999999999999019
 51
134.5665437714778
  0
ARC
  8
_f-0_
  6
CONTINUOUS
 62
    7
 10
449.86949852323994
 20
73.892028429553307
 40
5
 50
0
 51
90
  0
ARC
  8
_f-0_
  6
CONTINUOUS
 62
    7
 10
376.92259503829098
 20
78.15625840774203
 40
2
 50
45.433456228522182
 51
105.00000000000097
  0
ARC
  8
_f-0_
  6
CONTINUOUS
 62
    7
 10
364.86949852323994
 20
73.892028429553307
 40
5
 50
90
 51
180
  0
ARC
  8
_f-0_
  6
CONTINUOUS
 62
    7
 10
436.86949852323994
 20
28.392028429553534
 40
3
 50
270
 51
0
  0
ARC
  8
_f-0_
  6
CONTINUOUS
 62
    7
 10
377.86949852323994
 20
62.392028429553989
 40
3
 50
90
 51
180
  0
ARC
  8
_f-0_
  6
CONTINUOUS
 62
    7
 10
377.86949852323994
 20
28.392028429553534
 40
3
 50
180
 51
270
  0
ARC
  8
_f-0_
  6
CONTINUOUS
 62
    7
 10
407.36949852323994
 20
66.360778431404583
 40
11.031249998148837
 50
39.597752704524446
 51
140.40224730257353
  0
ARC
  8
_f-0_
  6
CONTINUOUS
 62
    7
 10
395.86949852323994
 20
97.392028429553307
 40
25.000000000000007
 50
225.43345622852337
 51
270
  0
ARC
  8
_f-0_
  6
CONTINUOUS
 62
    7
 10
418.86949852323994
 20
97.392028429553307
 40
25.000000000000007
 50
270
 51
314.56654377147663
  0
ARC
  8
_f-0_
  6
CONTINUOUS
 62
    7
 10
395.86949852323994
 20
97.392028429553307
 40
28.200000000000006
 50
219.46016893331299
 51
270
  0
ARC
  8
_f-0_
  6
CONTINUOUS
 62
    7
 10
418.86949852323994
 20
97.392028429553307
 40
28.200000000000006
 50
270
 51
320.53983106668738
  0
ARC
  8
_f-0_
  6
CONTINUOUS
 62
    7
 10
399.86949852323994
 20
11.142028429552624
 40
0.75
 50
180
 51
270
  0
ARC
  8
_f-0_
  6
CONTINUOUS
 62
    7
 10
399.58414452323939
 20
16.870391929552738
 40
5
 50
264.66785499999975
 51
305.24477999999999
  0
ARC
  8
_f-0_
  6
CONTINUOUS
 62
    7
 10
406.65948352323937
 20
21.86679042955268
 40
10
 50
245.22862399999991
 51
274.07151099999959
  0
ARC
  8
_f-0_
  6
CONTINUOUS
 62
    7
 10
415.15485252323958
 20
16.870391929552738
 40
5
 50
234.75521999999967
 51
275.33214499999991
  0
ARC
  8
_f-0_
  6
CONTINUOUS
 62
    7
 10
414.86949852323994
 20
11.142028429552624
 40
0.75
 50
270
 51
0
  0
ARC
  8
_f-0_
  6
CONTINUOUS
 62
    7
 10
408.0795135232396
 20
21.86679042955268
 40
10
 50
265.92848900000001
 51
294.77137599999969
  0
ARC
  8
_f-0_
  6
CONTINUOUS
 62
    7
 10
406.38634002323977
 20
8.4404759295531449
 40
10
 50
95.64220432140786
 51
113.05933400000002
  0
ARC
  8
_f-0_
  6
CONTINUOUS
 62
    7
 10
408.35265702324011
 20
8.4404759295531449
 40
10
 50
66.94066600000005
 51
84.357795678592126
  0
ARC
  8
_f-0_
  6
CONTINUOUS
 62
    7
 10
415.01848552323952
 20
13.46498292955323
 40
5
 50
99.799595538249349
 51
123.35311700000041
  0
ARC
  8
_f-0_
  6
CONTINUOUS
 62
    7
 10
399.72051152323945
 20
13.46498292955323
 40
5
 50
56.646882999999548
 51
80.200404461750779
  0
ARC
  8
_f-0_
  6
CONTINUOUS
 62
    7
 10
395.86949852323994
 20
-6.6079715704466935
 40
28.200000000000006
 50
90
 51
140.53983106668704
  0
ARC
  8
_f-0_
  6
CONTINUOUS
 62
    7
 10
418.86949852323994
 20
-6.6079715704466935
 40
28.200000000000006
 50
39.460168933312787
 51
90
  0
ARC
  8
_f-0_
  6
CONTINUOUS
 62
    7
 10
436.86949852323994
 20
62.392028429553989
 40
3
 50
0.0000000000000127
 51
90.000000000000014
  0
TEXT
  8
_0-0_
 62
    7
 10
85.732574932241789
 20
210.81414536866066
 40
4.2999999999999998
 41
0.744186046511628
 50
0
  1
CA65-F
  0
TEXT
  8
_0-0_
 62
    7
 10
346.8411167759968
 20
211.93567079859838
 40
4.2999999999999998
 41
0.744186046511628
 50
0
  1
CA65-K
  0
LINE
  8
_0-1_
  6
CENTER1
 62
  152
 10
150.6390130370354
 20
16.892028429553761
 11
150.6390130370354
 21
73.892028429553761
  0
LINE
  8
_0-1_
  6
CENTER1
 62
  152
 10
125.6390130370354
 20
73.892028429553761
 11
125.6390130370354
 21
16.892028429553761
  0
LINE
  8
_0-1_
  6
CENTER1
 62
  152
 10
114.1390130370354
 20
17.136605619786792
 11
114.1390130370354
 21
29.738618743811571
  0
LINE
  8
_0-1_
  6
CENTER1
 62
  152
 10
107.62334907135198
 20
22.892028429553761
 11
192.83094282427362
 21
22.892028429553761
  0
LINE
  8
_0-1_
  6
CENTER1
 62
  152
 10
187.1390130370354
 20
17.136605619786792
 11
187.1390130370354
 21
29.738618743811571
  0
LINE
  8
_0-1_
  6
CENTER1
 62
  152
 10
114.1390130370354
 20
61.045438115295951
 11
114.1390130370354
 21
73.741629752176436
  0
LINE
  8
_0-1_
  6
CENTER1
 62
  152
 10
187.1390130370354
 20
73.741629752176436
 11
187.1390130370354
 21
61.045438115295951
  0
LINE
  8
_0-1_
  6
CENTER1
 62
  152
 10
193.92779042134214
 20
67.892028429553761
 11
107.62334907135198
 21
67.892028429553761
  0
LINE
  8
_0-1_
  6
CENTER1
 62
  152
 10
93.139013037035397
 20
45.392028429553761
 11
192.83094282427362
 21
45.392028429553761
  0
LINE
  8
_0-1_
  6
CENTER1
 62
  152
 10
187.1390130370354
 20
233.04771934667963
 11
187.1390130370354
 21
289.65274347906927
  0
LINE
  8
_0-1_
  6
CENTER1
 62
  152
 10
193.92779042134214
 20
283.8031421564466
 11
107.62334907135198
 21
283.8031421564466
  0
LINE
  8
_0-1_
  6
CENTER1
 62
  152
 10
107.62334907135198
 20
238.8031421564466
 11
192.83094282427362
 21
238.8031421564466
  0
LINE
  8
_0-1_
  6
CENTER1
 62
  152
 10
114.1390130370354
 20
231.04400167827646
 11
114.1390130370354
 21
291.15553173037154
  0
LINE
  8
_0-1_
  6
CENTER1
 62
  152
 10
125.6390130370354
 20
289.8031421564466
 11
125.6390130370354
 21
232.8031421564466
  0
LINE
  8
_0-1_
  6
CENTER1
 62
  152
 10
192.83094282427362
 20
261.3031421564466
 11
93.139013037035397
 21
261.3031421564466
  0
LINE
  8
_0-1_
  6
CENTER1
 62
  152
 10
125.6390130370354
 20
172.30314215644657
 11
125.6390130370354
 21
107.3031421564466
  0
LINE
  8
_0-1_
  6
CENTER1
 62
  152
 10
150.6390130370354
 20
133.64789074548582
 11
150.6390130370354
 21
206.544655488996
  0
LINE
  8
_0-1_
  6
CENTER1
 62
  152
 10
150.6390130370354
 20
232.8031421564466
 11
150.6390130370354
 21
289.8031421564466
  0
LINE
  8
_0-1_
  6
CENTER1
 62
  152
 10
158.1390130370354
 20
139.8031421564466
 11
93.139013037035397
 21
139.8031421564466
  0
LINE
  8
_0-1_
  6
CENTER1
 62
  152
 10
73.201187405143969
 20
139.8031421564466
 11
3.2011874051440827
 21
139.8031421564466
  0
LINE
  8
_0-1_
  6
CENTER1
 62
  152
 10
41.701187405143969
 20
201.3031421564466
 11
41.701187405143969
 21
107.3031421564466
  0
LINE
  8
_0-1_
  6
CENTER1
 62
  152
 10
370.86949852323994
 20
291.15553173037154
 11
370.86949852323994
 21
231.04400167827646
  0
LINE
  8
_0-1_
  6
CENTER1
 62
  152
 10
364.35383455755743
 20
238.8031421564466
 11
449.56142831047816
 21
238.8031421564466
  0
LINE
  8
_0-1_
  6
CENTER1
 62
  152
 10
443.86949852323994
 20
233.04771934667963
 11
443.86949852323994
 21
289.65274347906927
  0
LINE
  8
_0-1_
  6
CENTER1
 62
  152
 10
450.65827590754668
 20
283.8031421564466
 11
364.35383455755743
 21
283.8031421564466
  0
LINE
  8
_0-1_
  6
CENTER1
 62
  152
 10
449.56142831047816
 20
261.3031421564466
 11
364.35383455755743
 21
261.3031421564466
  0
LINE
  8
_0-1_
  6
CENTER1
 62
  152
 10
407.36949852324085
 20
230.18958269025313
 11
407.36949852324085
 21
291.28007883069989
  0
LINE
  8
_0-1_
  6
CENTER1
 62
  152
 10
439.86949852323994
 20
139.8031421564466
 11
374.86949852323994
 21
139.8031421564466
  0
LINE
  8
_0-1_
  6
CENTER1
 62
  152
 10
308.99905672438621
 20
172.30314215644657
 11
308.99905672438621
 21
107.3031421564466
  0
LINE
  8
_0-1_
  6
CENTER1
 62
  152
 10
270.49905672438666
 20
139.8031421564466
 11
340.49905672438615
 21
139.8031421564466
  0
LINE
  8
_0-1_
  6
CENTER1
 62
  152
 10
407.36949852324085
 20
104.44497813450039
 11
407.36949852324085
 21
209.79794254126534
  0
LINE
  8
_0-1_
  6
CENTER1
 62
  152
 10
443.86949852323994
 20
73.741629752176436
 11
443.86949852323994
 21
60.53963885555379
  0
LINE
  8
_0-1_
  6
CENTER1
 62
  152
 10
443.86949852323994
 20
30.244418003553733
 11
443.86949852323994
 21
17.136605619786792
  0
LINE
  8
_0-1_
  6
CENTER1
 62
  152
 10
449.56142831047816
 20
22.892028429553761
 11
437.08072113924061
 21
22.892028429553761
  0
LINE
  8
_0-1_
  6
CENTER1
 62
  152
 10
377.65827590724018
 20
22.892028429553761
 11
364.35383455755743
 21
22.892028429553761
  0
LINE
  8
_0-1_
  6
CENTER1
 62
  152
 10
370.86949852323994
 20
15.132887951383623
 11
370.86949852323994
 21
30.244418003553733
  0
LINE
  8
_0-1_
  6
CENTER1
 62
  152
 10
370.86949852323994
 20
60.53963885555379
 11
370.86949852323994
 21
75.2444180034787
  0
LINE
  8
_0-1_
  6
CENTER1
 62
  152
 10
364.35383455755743
 20
67.892028429553761
 11
377.65827590724018
 21
67.892028429553761
  0
LINE
  8
_0-1_
  6
CENTER1
 62
  152
 10
437.08072113924061
 20
67.892028429553761
 11
450.65827590754668
 21
67.892028429553761
  0
LINE
  8
_0-1_
  6
CENTER1
 62
  152
 10
407.36949852323994
 20
73.892028429553761
 11
407.36949852323994
 21
16.892028429553761
  0
LINE
  8
_0-1_
  6
CENTER1
 62
  152
 10
449.56142831047816
 20
45.392028429553761
 11
364.35383455755743
 21
45.392028429553761
  0
ENDSEC
  0
EOF
