  0
SECTION
  2
HEADER
  9
$ACADVER
  1
AC1009
  9
$DWGCODEPAGE
  3
ansi_932
  9
$INSBASE
 10
0.0
 20
0.0
 30
0.0
  9
$EXTMIN
 10
-33.31988637963067
 20
-30.36839231927711
 30
0.0
  9
$EXTMAX
 10
119.8359871143452
 20
37.97535768072289
 30
0.0
  9
$LIMMIN
 10
0.0
 20
0.0
  9
$LIMMAX
 10
1189.0
 20
841.0
  9
$ORTHOMODE
 70
     0
  9
$REGENMODE
 70
     1
  9
$FILLMODE
 70
     1
  9
$QTEXTMODE
 70
     0
  9
$MIRRTEXT
 70
     1
  9
$DRAGMODE
 70
     2
  9
$LTSCALE
 40
1.0
  9
$OSMODE
 70
    37
  9
$ATTMODE
 70
     1
  9
$TEXTSIZE
 40
0.2
  9
$TRACEWID
 40
0.05
  9
$TEXTSTYLE
  7
STANDARD
  9
$CLAYER
  8
0
  9
$CELTYPE
  6
BYBLOCK
  9
$CECOLOR
 62
   256
  9
$DIMSCALE
 40
1.0
  9
$DIMASZ
 40
0.18
  9
$DIMEXO
 40
0.0625
  9
$DIMDLI
 40
0.38
  9
$DIMRND
 40
0.0
  9
$DIMDLE
 40
0.36
  9
$DIMEXE
 40
0.18
  9
$DIMTP
 40
0.0
  9
$DIMTM
 40
0.0
  9
$DIMTXT
 40
0.18
  9
$DIMCEN
 40
0.09
  9
$DIMTSZ
 40
0.0
  9
$DIMTOL
 70
     0
  9
$DIMLIM
 70
     0
  9
$DIMTIH
 70
     1
  9
$DIMTOH
 70
     1
  9
$DIMSE1
 70
     0
  9
$DIMSE2
 70
     0
  9
$DIMTAD
 70
     0
  9
$DIMZIN
 70
     0
  9
$DIMBLK
  1

  9
$DIMASO
 70
     1
  9
$DIMSHO
 70
     1
  9
$DIMPOST
  1

  9
$DIMAPOST
  1

  9
$DIMALT
 70
     0
  9
$DIMALTD
 70
     2
  9
$DIMALTF
 40
25.4
  9
$DIMLFAC
 40
1.0
  9
$DIMTOFL
 70
     0
  9
$DIMTVP
 40
0.0
  9
$DIMTIX
 70
     0
  9
$DIMSOXD
 70
     0
  9
$DIMSAH
 70
     0
  9
$DIMBLK1
  1

  9
$DIMBLK2
  1

  9
$DIMSTYLE
  2
STANDARD
  9
$DIMCLRD
 70
     0
  9
$DIMCLRE
 70
     0
  9
$DIMCLRT
 70
     0
  9
$DIMTFAC
 40
1.0
  9
$DIMGAP
 40
0.09
  9
$LUNITS
 70
     2
  9
$LUPREC
 70
     4
  9
$SKETCHINC
 40
0.1
  9
$FILLETRAD
 40
0.5
  9
$AUNITS
 70
     0
  9
$AUPREC
 70
     0
  9
$MENU
  1
.
  9
$ELEVATION
 40
0.0
  9
$PELEVATION
 40
0.0
  9
$THICKNESS
 40
0.0
  9
$LIMCHECK
 70
     0
  9
$CHAMFERA
 40
0.0
  9
$CHAMFERB
 40
0.0
  9
$SKPOLY
 70
     0
  9
$TDCREATE
 40
2459508.38787919
  9
$TDUPDATE
 40
2459508.387880162
  9
$TDINDWG
 40
0.0000000116
  9
$TDUSRTIMER
 40
0.0000000116
  9
$USRTIMER
 70
     1
  9
$ANGBASE
 50
0.0
  9
$ANGDIR
 70
     0
  9
$PDMODE
 70
     0
  9
$PDSIZE
 40
-5.0
  9
$PLINEWID
 40
0.0
  9
$COORDS
 70
     1
  9
$SPLFRAME
 70
     0
  9
$SPLINETYPE
 70
     6
  9
$SPLINESEGS
 70
     8
  9
$ATTDIA
 70
     0
  9
$ATTREQ
 70
     1
  9
$HANDLING
 70
     1
  9
$HANDSEED
  5
209
  9
$SURFTAB1
 70
     6
  9
$SURFTAB2
 70
     6
  9
$SURFTYPE
 70
     6
  9
$SURFU
 70
     6
  9
$SURFV
 70
     6
  9
$UCSNAME
  2

  9
$UCSORG
 10
0.0
 20
0.0
 30
0.0
  9
$UCSXDIR
 10
1.0
 20
0.0
 30
0.0
  9
$UCSYDIR
 10
0.0
 20
1.0
 30
0.0
  9
$PUCSNAME
  2

  9
$PUCSORG
 10
0.0
 20
0.0
 30
0.0
  9
$PUCSXDIR
 10
1.0
 20
0.0
 30
0.0
  9
$PUCSYDIR
 10
0.0
 20
1.0
 30
0.0
  9
$USERI1
 70
     0
  9
$USERI2
 70
     0
  9
$USERI3
 70
     0
  9
$USERI4
 70
     0
  9
$USERI5
 70
     0
  9
$USERR1
 40
0.0
  9
$USERR2
 40
0.0
  9
$USERR3
 40
0.0
  9
$USERR4
 40
0.0
  9
$USERR5
 40
0.0
  9
$WORLDVIEW
 70
     1
  9
$SHADEDGE
 70
     3
  9
$SHADEDIF
 70
    70
  9
$TILEMODE
 70
     1
  9
$MAXACTVP
 70
    64
  9
$PLIMCHECK
 70
     0
  9
$PEXTMIN
 10
1.000000000000000E+20
 20
1.000000000000000E+20
 30
1.000000000000000E+20
  9
$PEXTMAX
 10
-1.000000000000000E+20
 20
-1.000000000000000E+20
 30
-1.000000000000000E+20
  9
$PLIMMIN
 10
0.0
 20
0.0
  9
$PLIMMAX
 10
12.0
 20
9.0
  9
$UNITMODE
 70
     0
  9
$VISRETAIN
 70
     1
  9
$PLINEGEN
 70
     0
  9
$PSLTSCALE
 70
     1
  0
ENDSEC
  0
SECTION
  2
TABLES
  0
TABLE
  2
VPORT
 70
     1
  0
VPORT
  2
*ACTIVE
 70
     0
 10
0.0
 20
0.0
 11
1.0
 21
1.0
 12
43.25805036735727
 22
3.803482680722894
 13
0.0
 23
0.0
 14
0.5
 24
0.5
 15
0.5
 25
0.5
 16
0.0
 26
0.0
 36
1.0
 17
0.0
 27
0.0
 37
0.0
 40
68.34375
 41
2.240963855421687
 42
50.0
 43
0.0
 44
0.0
 50
0.0
 51
0.0
 71
     0
 72
   100
 73
     1
 74
     3
 75
     0
 76
     0
 77
     0
 78
     0
  0
ENDTAB
  0
TABLE
  2
LTYPE
 70
    36
  0
LTYPE
  2
CONTINUOUS
 70
     0
  3
Solid line
 72
    65
 73
     0
 40
0.0
  0
LTYPE
  2
破線
 70
     0
  3
破線: __ __ __ __ __ __ __ __ __ __ __ __ __
 72
    65
 73
     2
 40
2.0
 49
1.0
 49
-1.0
  0
LTYPE
  2
一点鎖線
 70
     0
  3
一点鎖線: ____ . ____ . ____ . ____ . ____ . ____
 72
    65
 73
     4
 40
18.0
 49
12.0
 49
-2.0
 49
2.0
 49
-2.0
  0
LTYPE
  2
二点鎖線
 70
     0
  3
二点鎖線: ____ . . ____ . . ____ . . ____ . . ____ 
 72
    65
 73
     6
 40
22.0
 49
12.0
 49
-2.0
 49
2.0
 49
-2.0
 49
2.0
 49
-2.0
  0
LTYPE
  2
DASHED1
 70
     0
  3
--  --  --  --  --  --  --  --  
 72
    65
 73
     2
 40
2.5
 49
1.25
 49
-1.25
  0
LTYPE
  2
DASHED2
 70
     0
  3
----    ----    ----    ----    
 72
    65
 73
     2
 40
5.0
 49
2.5
 49
-2.5
  0
LTYPE
  2
DASHED3
 70
     0
  3
------  ------  ------  ------  
 72
    65
 73
     2
 40
5.0
 49
3.75
 49
-1.25
  0
LTYPE
  2
CENTER1
 70
     0
  3
----- - ----- - ----- - ----- - 
 72
    65
 73
     4
 40
10.0
 49
6.25
 49
-1.25
 49
1.25
 49
-1.25
  0
LTYPE
  2
CENTER2
 70
     0
  3
----------  --  ----------  --  
 72
    65
 73
     4
 40
20.0
 49
12.5
 49
-2.5
 49
2.5
 49
-2.5
  0
LTYPE
  2
PHANTOM1
 70
     0
  3
--- - - --- - - --- - - --- - - 
 72
    65
 73
     6
 40
9.5
 49
3.25
 49
-1.25
 49
1.25
 49
-1.25
 49
1.25
 49
-1.25
  0
LTYPE
  2
PHANTOM2
 70
     0
  3
--------  -  -  --------  -  -  
 72
    65
 73
     6
 40
20.0
 49
10.0
 49
-2.5
 49
1.25
 49
-2.5
 49
1.25
 49
-2.5
  0
LTYPE
  2
DOT
 70
     0
  3
-   -   -   -   -   -   -   -   
 72
    65
 73
     2
 40
2.5
 49
0.625
 49
-1.875
  0
LTYPE
  2
RAND1
 70
     0
  3
ランダム線1
 72
    65
 73
     4
 40
10.0
 49
1.0
 49
-2.0
 49
3.0
 49
-4.0
  0
LTYPE
  2
RAND2
 70
     0
  3
ランダム線2
 72
    65
 73
     4
 40
14.0
 49
2.0
 49
-3.0
 49
4.0
 49
-5.0
  0
LTYPE
  2
RAND3
 70
     0
  3
ランダム線3
 72
    65
 73
     4
 40
18.0
 49
3.0
 49
-4.0
 49
5.0
 49
-6.0
  0
LTYPE
  2
RAND4
 70
     0
  3
ランダム線4
 72
    65
 73
     4
 40
22.0
 49
4.0
 49
-5.0
 49
6.0
 49
-7.0
  0
LTYPE
  2
RAND5
 70
     0
  3
ランダム線5
 72
    65
 73
     4
 40
26.0
 49
5.0
 49
-6.0
 49
7.0
 49
-8.0
  0
LTYPE
  2
LONG1
 70
     0
  3
----------  --  ----------  --  
 72
    65
 73
     4
 40
40.0
 49
32.5
 49
-2.5
 49
2.5
 49
-2.5
  0
LTYPE
  2
LONG2
 70
     0
  3
--------  -  -  --------  -  -  
 72
    65
 73
     6
 40
40.0
 49
30.0
 49
-2.5
 49
1.25
 49
-2.5
 49
1.25
 49
-2.5
  0
LTYPE
  2
LONG3
 70
     0
  3
+++++++++++++++..+++++++++++++++
 72
    65
 73
     2
 40
40.0
 49
37.5
 49
-2.5
  0
LTYPE
  2
LONG4
 70
     0
  3
+++++++++++++++..+++++++++++++++
 72
    65
 73
     2
 40
80.0
 49
75.0
 49
-5.0
  0
LTYPE
  2
LONG5
 70
     0
  3
----------  --  ----------  --  
 72
    65
 73
     4
 40
60.0
 49
37.5
 49
-7.5
 49
7.5
 49
-7.5
  0
LTYPE
  2
DASHED
 70
     0
  3
-------   -------------   ------
 72
    65
 73
     2
 40
7.5
 49
6.0
 49
-1.5
  0
LTYPE
  2
DASHED_SPACED
 70
     0
  3
----        --------        ----
 72
    65
 73
     2
 40
12.0
 49
6.0
 49
-6.0
  0
LTYPE
  2
LONG_DASHED_DOTTED
 70
     0
  3
------------- --- --------------
 72
    65
 73
     4
 40
15.25
 49
12.0
 49
-1.5
 49
0.25
 49
-1.5
  0
LTYPE
  2
LONG_DASHED_DOUBLE-DOTTED
 70
     0
  3
----------- --- --- ------------
 72
    65
 73
     6
 40
17.0
 49
12.0
 49
-1.5
 49
0.25
 49
-1.5
 49
0.25
 49
-1.5
  0
LTYPE
  2
LONG_DASHED_TRIPLICATE-DOT
 70
     0
  3
--------- --- --- --- ----------
 72
    65
 73
     8
 40
18.75
 49
12.0
 49
-1.5
 49
0.25
 49
-1.5
 49
0.25
 49
-1.5
 49
0.25
 49
-1.5
  0
LTYPE
  2
DOTTED
 70
     0
  3
   -       -       -       -    
 72
    65
 73
     2
 40
1.75
 49
0.25
 49
-1.5
  0
LTYPE
  2
CHAIN
 70
     0
  3
-------------- -- --------------
 72
    65
 73
     4
 40
18.5
 49
12.0
 49
-1.5
 49
3.5
 49
-1.5
  0
LTYPE
  2
CHAIN_DOUBLE_DASH
 70
     0
  3
------------ -- -- -------------
 72
    65
 73
     6
 40
23.5
 49
12.0
 49
-1.5
 49
3.5
 49
-1.5
 49
3.5
 49
-1.5
  0
LTYPE
  2
DASHED_DOTTED
 70
     0
  3
-----------     -     ----------
 72
    65
 73
     4
 40
9.25
 49
6.0
 49
-1.5
 49
0.25
 49
-1.5
  0
LTYPE
  2
DOUBLE-DASHED_DOTTED
 70
     0
  3
------   -----------   -   -----
 72
    65
 73
     6
 40
16.75
 49
6.0
 49
-1.5
 49
6.0
 49
-1.5
 49
0.25
 49
-1.5
  0
LTYPE
  2
DASHED_DOUBLE-DOTTED
 70
     0
  3
---------    -    -    ---------
 72
    65
 73
     6
 40
11.0
 49
6.0
 49
-1.5
 49
0.25
 49
-1.5
 49
0.25
 49
-1.5
  0
LTYPE
  2
DOUBLE-DASHED_DOUBLE-DOTTE
 70
     0
  3
-----   ---------   -   -   ----
 72
    65
 73
     8
 40
18.5
 49
6.0
 49
-1.5
 49
6.0
 49
-1.5
 49
0.25
 49
-1.5
 49
0.25
 49
-1.5
  0
LTYPE
  2
DASHED_TRIPLICATE-DOTTED
 70
     0
  3
-------    -    -    -    ------
 72
    65
 73
     8
 40
12.75
 49
6.0
 49
-1.5
 49
0.25
 49
-1.5
 49
0.25
 49
-1.5
 49
0.25
 49
-1.5
  0
LTYPE
  2
DOUBLE-DASHED_TRIPLICATE-D
 70
     0
  3
-----  ---------  -  -  -  -----
 72
    65
 73
    10
 40
20.25
 49
6.0
 49
-1.5
 49
6.0
 49
-1.5
 49
0.25
 49
-1.5
 49
0.25
 49
-1.5
 49
0.25
 49
-1.5
  0
ENDTAB
  0
TABLE
  2
LAYER
 70
    12
  0
LAYER
  2
0
 70
     0
 62
     7
  6
CONTINUOUS
  0
LAYER
  2
CENTERLINE_LAYER
 70
     0
 62
     1
  6
一点鎖線
  0
LAYER
  2
DASH_LAYER
 70
     0
 62
     6
  6
破線
  0
LAYER
  2
SOLID_LAYER
 70
     0
 62
     7
  6
CONTINUOUS
  0
LAYER
  2
THICK_SOLID_LAYER
 70
     0
 62
     7
  6
CONTINUOUS
  0
LAYER
  2
DIMENSION_LAYER
 70
     0
 62
     3
  6
CONTINUOUS
  0
LAYER
  2
HATCH_LAYER
 70
     0
 62
     4
  6
CONTINUOUS
  0
LAYER
  2
HIDDEN_LAYER
 70
     0
 62
    -7
  6
CONTINUOUS
  0
LAYER
  2
_0-0_
 70
     0
 62
     7
  6
CONTINUOUS
  0
LAYER
  2
_0-1_
 70
     0
 62
     7
  6
CONTINUOUS
  0
LAYER
  2
_0-F_
 70
     0
 62
     7
  6
CONTINUOUS
  0
LAYER
  2
ADD_LINE
 70
     0
 62
     7
  6
CONTINUOUS
  0
ENDTAB
  0
TABLE
  2
STYLE
 70
     3
  0
STYLE
  2
STANDARD
 70
     0
 40
0.0
 41
1.0
 50
0.0
 71
     0
 42
3.5
  3
txt
  4

  0
STYLE
  2
標準
 70
     0
 40
0.0
 41
0.667
 50
0.0
 71
     0
 42
0.2
  3

  4

  0
STYLE
  2
TATEGAKI
 70
     0
 40
0.0
 41
1.0
 50
0.0
 71
     0
 42
0.2
  3

  4

  0
ENDTAB
  0
TABLE
  2
VIEW
 70
     0
  0
ENDTAB
  0
TABLE
  2
UCS
 70
     0
  0
ENDTAB
  0
TABLE
  2
APPID
 70
   115
  0
APPID
  2
ACAD
 70
     0
  0
APPID
  2
CAXA_DRAFT_PAPERORDER
 70
     0
  0
APPID
  2
CAXA_DRAFT_ROUGH
 70
     0
  0
APPID
  2
CAXA_DRAFT_ROUGH_STD
 70
     0
  0
APPID
  2
CAXA_DRAFT_FORMATED_TXT
 70
     0
  0
APPID
  2
CAXA_DRAFT_DATUM
 70
     0
  0
APPID
  2
CAXA_DRAFT_WELD
 70
     0
  0
APPID
  2
CAXA_DRAFT_GEOTOL
 70
     0
  0
APPID
  2
CAXA_DRAFT_CUTS
 70
     0
  0
APPID
  2
CAXA_DRAFT_DIMHALF
 70
     0
  0
APPID
  2
CAXA_DRAFT_DIMRAY
 70
     0
  0
APPID
  2
CAXA_DRAFT_DIMARCLEN
 70
     0
  0
APPID
  2
CAXA_DRAFT_DIMTAPER
 70
     0
  0
APPID
  2
CAXA_DRAFT_DIMPITCH
 70
     0
  0
APPID
  2
CAXA_DRAFT_DIMCOORD
 70
     0
  0
APPID
  2
CAXA_DRAFT_DIMORIALIGN
 70
     0
  0
APPID
  2
CAXA_DRAFT_DIMHOLEPOS
 70
     0
  0
APPID
  2
CAXA_DRAFT_DIMCRDLEADER
 70
     0
  0
APPID
  2
CAXA_DRAFT_DIMCHAMFER
 70
     0
  0
APPID
  2
CAXA_DRAFT_DIMCENTERHOLE
 70
     0
  0
APPID
  2
CAXA_DRAFT_DIMLEADER
 70
     0
  0
APPID
  2
CAXA_DRAFT_DIMCRDLIST
 70
     0
  0
APPID
  2
CAXA_DRAFT_PAPERSCALE
 70
     0
  0
APPID
  2
CAXA_DRAFT_FILEVERSION
 70
     0
  0
APPID
  2
CAXA_DRAFT_PRODUCTVERSION
 70
     0
  0
APPID
  2
CAXA_DRAFT_DATATABLE
 70
     0
  0
APPID
  2
CAXA_DRAFT_PAPERINFO
 70
     0
  0
APPID
  2
CAXA_DRAFT_PAPERFRAME
 70
     0
  0
APPID
  2
CAXA_DRAFT_PAPERTITLE
 70
     0
  0
APPID
  2
CAXA_DRAFT_PAPERPAREATABLE
 70
     0
  0
APPID
  2
CAXA_DRAFT_PARTNO
 70
     0
  0
APPID
  2
CAXA_DRAFT_BOMTABLE
 70
     0
  0
APPID
  2
CAXA_DRAFT_BLKREF_EXTATT
 70
     0
  0
APPID
  2
CAXA_DRAFT_DBVIEWDATA
 70
     0
  0
APPID
  2
CAXA_DRAFT_DIMSYMTOL
 70
     0
  0
APPID
  2
CAXA_DRAFT_DIMASSEMTOL
 70
     0
  0
APPID
  2
CAXA_DRAFT_DIMANGLETOL
 70
     0
  0
APPID
  2
CAXA_DRAFT_DRAFTDATA
 70
     0
  0
APPID
  2
CAXA_DRAFT_DIMORIGIN
 70
     0
  0
APPID
  2
CAXA_DRAFT_ENLARGE_EDGE
 70
     0
  0
APPID
  2
CAXA_DRAFT_DIMSTY_T_VPOS
 70
     0
  0
APPID
  2
CAXA_DRAFT_DIMSTY_AT_VPOS
 70
     0
  0
APPID
  2
CAXA_DRAFT_BLKHIDE
 70
     0
  0
APPID
  2
CAXA_DRAFT_DIMARROWREVERSE
 70
     0
  0
APPID
  2
CAXA_DRAFT_TXTSTYLE
 70
     0
  0
APPID
  2
CAXA_DRAFT_ATTRIBUTE_2PT
 70
     0
  0
APPID
  2
CAXA_DRAFT_ATTDEF_2PT
 70
     0
  0
APPID
  2
CAXA_DRAFT_DIMBIGARC
 70
     0
  0
APPID
  2
CAXA_DRAFT_ISNEB09R3
 70
     0
  0
APPID
  2
CAXA_DRAFT_WIPEOUT_B_HIDE
 70
     0
  0
APPID
  2
CAXA_DRAFT_BLKREF_SYMBOL
 70
     0
  0
APPID
  2
CAXA_DRAFT_ENL_COMMENTS
 70
     0
  0
APPID
  2
CAXA_DRAFT_ENL_TSCALE
 70
     0
  0
APPID
  2
CAXA_DRAFT_TXTSCALE
 70
     0
  0
APPID
  2
CAXA_DRAFT_KEEPLTSEG_ZOOM
 70
     0
  0
APPID
  2
CAXA_DRAFT_SPECLIB
 70
     0
  0
APPID
  2
CAXA_DRAFT_DATUM_2011R2
 70
     0
  0
APPID
  2
CAXA_DRAFT_ROUGH_2011R2
 70
     0
  0
APPID
  2
CAXA_DRAFT_GEOTOL_2011R2
 70
     0
  0
APPID
  2
CAXA_DRAFT_DMOVMAP_2011R3
 70
     0
  0
APPID
  2
CAXA_DRAFT_DDTSTY_2011R3
 70
     0
  0
APPID
  2
CAXA_DRAFT_SDTSTY_2011R3
 70
     0
  0
APPID
  2
CDRAFT_TXTROT_2011R3
 70
     0
  0
APPID
  2
CDRAFT_TOLOUT_2011R3
 70
     0
  0
APPID
  2
CAXA_DRAFT_DIMARCLENSTYLE
 70
     0
  0
APPID
  2
CAXA_DRAFT_DMOVMAP_2013
 70
     0
  0
APPID
  2
CAXA_DRAFT_DS_DLLNTYPE
 70
     0
  0
APPID
  2
CAXA_DRAFT_DS_LBLLNTYPE
 70
     0
  0
APPID
  2
CAXA_DRAFT_DS_RBLLNTYPE
 70
     0
  0
APPID
  2
CAXA_DRAFT_DS_ISFILLDFM
 70
     0
  0
APPID
  2
CAXA_DRAFT_DS_DISPZTOOL
 70
     0
  0
APPID
  2
CAXA_DRAFT_DS_SYMCOLOR
 70
     0
  0
APPID
  2
CAXA_DRAFT_HATCH_SCALE_ANG
 70
     0
  0
APPID
  2
CAXA_DRAFT_GEOTOL_ISFROMDW
 70
     0
  0
APPID
  2
CXDRAGDIADIMLNSTYLE
 70
     0
  0
APPID
  2
CXDRAGRADDIMLNSTYLE
 70
     0
  0
APPID
  2
CX_DBANNOTATE_SIMDIMORITXT
 70
     0
  0
APPID
  2
CX_DBANNOTATE_TXTLOCPARA
 70
     0
  0
APPID
  2
CX_DBANNOTATE_DRAGTXTLOC
 70
     0
  0
APPID
  2
USERSETTXTLOC
 70
     0
  0
APPID
  2
USERSETTXTLOCTYPE
 70
     0
  0
APPID
  2
USERSETTXTLOCPT
 70
     0
  0
APPID
  2
CAXA_DRAFT_IMAGE_BINARY
 70
     0
  0
APPID
  2
DIMTXTFRMSTYLE_2015R1
 70
     0
  0
APPID
  2
CAXA_DRAFT_GEOTOL_ISSHX
 70
     0
  0
APPID
  2
CAXA_SUPGRAPHICDIM
 70
     0
  0
APPID
  2
CAXA_GRAPHICARCLEN_HASLN
 70
     0
  0
APPID
  2
CAXA_GRAPHICDIM_OUT
 70
     0
  0
APPID
  2
CAXA_DATUM_LEADLNBKMODE
 70
     0
  0
APPID
  2
CX_DBDIM_CRDDIMLINEANDARRO
 70
     0
  0
APPID
  2
CX_DBDIM_TAPERANGLESTD
 70
     0
  0
APPID
  2
CX_DBATTRIBDEF_OPTIONALVAL
 70
     0
  0
APPID
  2
CAXA_DRAFT_LEADER_MLEADERL
 70
     0
  0
APPID
  2
CAXA_DRAFT_WELD_MLEADERLIN
 70
     0
  0
APPID
  2
CAXA_DRAFT_GEOTOL_MLEADERL
 70
     0
  0
APPID
  2
CAXA_DRAFT_ROUGH_MLEADERLI
 70
     0
  0
APPID
  2
CAXA_DRAFT_DATUM_MLEADERLI
 70
     0
  0
APPID
  2
CAXA_DRAFT_ROUGH_STDSPTDAT
 70
     0
  0
APPID
  2
CAXA_DRAFT_CUTS_LABLEDATA
 70
     0
  0
APPID
  2
CAXA_DRAFT_LEADER_DISPREFL
 70
     0
  0
APPID
  2
CAXA_DRAFT_TAPER_TEXTTYPE
 70
     0
  0
APPID
  2
CAXA_DRAFT_TAPER_RATEFORMA
 70
     0
  0
APPID
  2
CAXA_DRAFT_TAPER_RATESEPAR
 70
     0
  0
APPID
  2
CX_DIMSTYLE_TXTFRAME
 70
     0
  0
APPID
  2
CX_DBDIM_TXTFRAME
 70
     0
  0
APPID
  2
CAXA_DRAFT_TABLEENT
 70
     0
  0
APPID
  2
CDRAFT_DIM_STD_REV_NAME
 70
     0
  0
APPID
  2
CAXA_DRAFT_BOM_STDSPTDATA
 70
     0
  0
APPID
  2
CAXA_DRAFT_PARTNO_STDSPTDA
 70
     0
  0
APPID
  2
CAXA_DRAFT_DATUM_LOCPTEDIT
 70
     0
  0
APPID
  2
CAXA_DRAFT_INFO_WMFLAG
 70
     0
  0
APPID
  2
CX_DBDIM_CRDDIMTYPEANDDATA
 70
     0
  0
APPID
  2
CX_DBDIM_DIMORIGINBITEXT
 70
     0
  0
APPID
  2
CX_DBDIM_DIMCRDLEADERPTS
 70
     0
  0
APPID
  2
ACAECLAYERSTANDARD
 70
     0
  0
ENDTAB
  0
TABLE
  2
DIMSTYLE
 70
     5
  0
DIMSTYLE
  2
STANDARD
 70
     0
  3

  4

  5

  6

  7

 40
1.0
 41
0.18
 42
0.0625
 43
0.38
 44
0.18
 45
0.0
 46
0.36
 47
0.0
 48
0.0
140
0.18
141
0.09
142
0.0
143
25.4
144
1.0
145
0.0
146
1.0
147
0.09
 71
     0
 72
     0
 73
     1
 74
     1
 75
     0
 76
     0
 77
     0
 78
     0
170
     0
171
     2
172
     0
173
     0
174
     0
175
     0
176
     0
177
     0
178
     0
  0
DIMSTYLE
  2
標準
 70
     0
  3

  4

  5
CAXARROW
  6

  7

 40
1.0
 41
4.0
 42
0.0
 43
10.0
 44
2.0
 45
0.0
 46
6.0
 47
0.0
 48
0.0
140
3.5
141
0.0
142
0.0
143
1.0
144
1.0
145
0.0
146
0.7071067811865475
147
0.625
 71
     0
 72
     0
 73
     0
 74
     0
 75
     0
 76
     0
 77
     1
 78
     8
170
     0
171
     2
172
     1
173
     0
174
     0
175
     0
176
     0
177
     0
178
     0
  0
DIMSTYLE
  2
ANSI_DIM
 70
     0
  3

  4

  5
CAXARROW
  6

  7

 40
1.0
 41
4.0
 42
0.0
 43
10.0
 44
2.0
 45
0.0
 46
6.0
 47
0.0
 48
0.0
140
3.5
141
0.0
142
0.0
143
1.0
144
1.0
145
0.0
146
0.7071067811865475
147
0.625
 71
     0
 72
     0
 73
     0
 74
     0
 75
     0
 76
     0
 77
     1
 78
     8
170
     0
171
     2
172
     1
173
     0
174
     0
175
     0
176
     0
177
     0
178
     0
  0
DIMSTYLE
  2
ANSI_DIMLEADER_1994_
 70
     0
  3

  4

  5
CAXARROW
  6

  7

 40
1.0
 41
4.0
 42
0.0
 43
10.0
 44
2.0
 45
0.0
 46
6.0
 47
0.0
 48
0.0
140
3.5
141
0.0
142
0.0
143
1.0
144
1.0
145
0.0
146
0.7071067811865475
147
0.625
 71
     0
 72
     0
 73
     0
 74
     0
 75
     0
 76
     0
 77
     1
 78
     8
170
     0
171
     2
172
     1
173
     0
174
     0
175
     0
176
     0
177
     0
178
     0
  0
DIMSTYLE
  2
ANSI_TAPER_1994_
 70
     0
  3

  4

  5
CAXARROW
  6

  7

 40
1.0
 41
4.0
 42
0.0
 43
10.0
 44
2.0
 45
0.0
 46
6.0
 47
0.0
 48
0.0
140
3.5
141
0.0
142
0.0
143
1.0
144
1.0
145
0.0
146
0.7071067811865475
147
0.625
 71
     0
 72
     0
 73
     0
 74
     0
 75
     0
 76
     0
 77
     1
 78
     8
170
     0
171
     2
172
     1
173
     0
174
     0
175
     0
176
     0
177
     0
178
     0
  0
ENDTAB
  0
ENDSEC
  0
SECTION
  2
BLOCKS
  0
BLOCK
  8
0
  2
$MODEL_SPACE
 70
     0
 10
0.0
 20
0.0
 30
0.0
  3
$MODEL_SPACE
  1

  0
ENDBLK
  5
21
  8
0
  0
BLOCK
 67
     1
  8
0
  2
$PAPER_SPACE
 70
     0
 10
0.0
 20
0.0
 30
0.0
  3
$PAPER_SPACE
  1

  0
ENDBLK
  5
1D
 67
     1
  8
0
  0
BLOCK
  8
0
  2
_CAXARROW
 70
     0
 10
0.0
 20
0.0
 30
0.0
  3
_CAXARROW
  1

  0
INSERT
  5
114
  8
0
 62
     0
  2
*U2
 10
0.0
 20
0.0
 30
0.0
1001
ACAD
1002
{
1000
R14_HATCH_DATA
1000
114
1011
1.0
1021
0.0
1031
0.0
1021
0.0
1031
0.0
1011
0.0
1021
1.0
1031
0.0
1021
1.0
1031
0.0
1011
0.0
1021
0.0
1031
1.0
1021
0.0
1031
1.0
1040
0.0
1010
0.0
1020
0.0
1030
1.0
1000
SOLID
1070
     1
1070
     1
1071
        1
1071
        0
1071
        3
1070
     1
1040
0.0
1040
0.0
1040
-1.0
1040
0.125
1070
     1
1040
-1.0
1040
0.125
1040
-1.0
1040
-0.125
1070
     1
1040
-1.0
1040
-0.125
1040
0.0
1040
0.0
1071
        0
1070
     0
1070
     1
1071
        1
1040
0.0
1040
0.0
1040
0.0
1002
}
  0
ENDBLK
  5
116
  8
0
  0
BLOCK
  8
0
  2
*U2
 70
     1
 10
0.0
 20
0.0
 30
0.0
  3
*U2
  1

  0
SOLID
  5
206
  8
0
  6
CONTINUOUS
 62
     0
 10
-1.0
 20
-0.125
 30
0.0
 11
-1.0
 21
0.125
 31
0.0
 12
0.0
 22
0.0
 32
0.0
 13
0.0
 23
0.0
 33
0.0
  0
ENDBLK
  5
208
  8
0
  0
ENDSEC
  0
SECTION
  2
ENTITIES
  0
TEXT
  5
149
  8
_0-F_
 62
     7
 10
0.3603530727192492
 20
0.4541568712248249
 30
0.0
 40
4.3
  1
CA50VN
 41
0.744186
1001
CAXA_DRAFT_TXTSCALE
1041
1.0
  0
LINE
  5
14A
  8
_0-0_
  6
CONTINUOUS
 62
     7
 10
45.76649948395834
 20
18.770020410249
 30
0.0
 11
45.76649948395834
 21
52.770020410249
 31
0.0
  0
LINE
  5
14B
  8
_0-0_
  6
CONTINUOUS
 62
     7
 10
52.76649948395834
 20
31.270020410249
 30
0.0
 11
56.6636138009876
 21
33.520020410249
 31
0.0
  0
LINE
  5
14C
  8
_0-0_
  6
CONTINUOUS
 62
     7
 10
56.6636138009876
 20
33.520020410249
 30
0.0
 11
56.6636138009876
 21
38.020020410249
 31
0.0
  0
LINE
  5
14D
  8
_0-0_
  6
CONTINUOUS
 62
     7
 10
56.6636138009876
 20
38.020020410249
 30
0.0
 11
52.76649948395834
 21
40.270020410249
 31
0.0
  0
LINE
  5
14E
  8
_0-0_
  6
CONTINUOUS
 62
     7
 10
52.76649948395834
 20
40.270020410249
 30
0.0
 11
48.86938516692817
 21
38.020020410249
 31
0.0
  0
LINE
  5
14F
  8
_0-0_
  6
CONTINUOUS
 62
     7
 10
48.86938516692817
 20
38.020020410249
 30
0.0
 11
48.86938516692817
 21
33.520020410249
 31
0.0
  0
LINE
  5
150
  8
_0-0_
  6
CONTINUOUS
 62
     7
 10
48.86938516692817
 20
33.520020410249
 30
0.0
 11
52.76649948395834
 21
31.270020410249
 31
0.0
  0
LINE
  5
151
  8
_0-0_
  6
CONTINUOUS
 62
     7
 10
53.26649948395834
 20
40.74495759578178
 30
0.0
 11
53.26649948395834
 21
43.270020410249
 31
0.0
  0
LINE
  5
152
  8
_0-0_
  6
CONTINUOUS
 62
     7
 10
53.26649948395834
 20
43.270020410249
 30
0.0
 11
54.445948955728
 21
43.270020410249
 31
0.0
  0
LINE
  5
153
  8
_0-0_
  6
CONTINUOUS
 62
     7
 10
50.58705001218777
 20
42.770020410249
 30
0.0
 11
50.58705001218777
 21
40.270020410249
 31
0.0
  0
LINE
  5
154
  8
_0-0_
  6
CONTINUOUS
 62
     7
 10
51.08705001218777
 20
43.270020410249
 30
0.0
 11
52.26649948395834
 21
43.270020410249
 31
0.0
  0
LINE
  5
155
  8
_0-0_
  6
CONTINUOUS
 62
     7
 10
52.26649948395834
 20
43.270020410249
 30
0.0
 11
52.26649948395834
 21
40.74495759578178
 31
0.0
  0
LINE
  5
156
  8
_0-0_
  6
CONTINUOUS
 62
     7
 10
54.945948955728
 20
40.270020410249
 30
0.0
 11
54.945948955728
 21
42.770020410249
 31
0.0
  0
LINE
  5
157
  8
_0-0_
  6
CONTINUOUS
 62
     7
 10
3.766499487457168
 20
27.7700204110489
 30
0.0
 11
3.766499487457168
 21
43.7700204094491
 31
0.0
  0
LINE
  5
158
  8
_0-0_
  6
CONTINUOUS
 62
     7
 10
3.766499487457168
 20
43.7700204094491
 30
0.0
 11
8.766499486957855
 21
43.7700204094491
 31
0.0
  0
LINE
  5
159
  8
_0-0_
  6
CONTINUOUS
 62
     7
 10
8.766499486957855
 20
52.770020410249
 30
0.0
 11
68.76649948095792
 21
52.770020410249
 31
0.0
  0
LINE
  5
15A
  8
_0-0_
  6
CONTINUOUS
 62
     7
 10
68.76649948095792
 20
52.770020410249
 30
0.0
 11
68.76649948095792
 21
18.770020410249
 31
0.0
  0
LINE
  5
15B
  8
_0-0_
  6
CONTINUOUS
 62
     7
 10
68.76649948095792
 20
18.770020410249
 30
0.0
 11
8.766499486957855
 21
18.770020410249
 31
0.0
  0
LINE
  5
15C
  8
_0-0_
  6
CONTINUOUS
 62
     7
 10
8.766499486957855
 20
18.770020410249
 30
0.0
 11
8.766499486957855
 21
52.770020410249
 31
0.0
  0
LINE
  5
15D
  8
_0-0_
  6
CONTINUOUS
 62
     7
 10
8.766499483958341
 20
54.770020410249
 30
0.0
 11
8.766502297503848
 21
62.77002117410768
 31
0.0
  0
LINE
  5
15E
  8
_0-0_
  6
CONTINUOUS
 62
     7
 10
8.766499483958341
 20
62.770020410249
 30
0.0
 11
68.76649948395834
 21
62.770020410249
 31
0.0
  0
LINE
  5
15F
  8
_0-0_
  6
CONTINUOUS
 62
     7
 10
68.76649948395834
 20
62.770020410249
 30
0.0
 11
68.76649948395834
 21
54.770020410249
 31
0.0
  0
LINE
  5
160
  8
_0-0_
  6
CONTINUOUS
 62
     7
 10
68.76649948095792
 20
54.770020410249
 30
0.0
 11
8.766499483958341
 21
54.770020410249
 31
0.0
  0
LINE
  5
161
  8
_0-0_
  6
CONTINUOUS
 62
     7
 10
8.766499486957855
 20
27.7700204110489
 30
0.0
 11
3.766499487457168
 21
27.7700204110489
 31
0.0
  0
LINE
  5
162
  8
_0-0_
  6
CONTINUOUS
 62
     7
 10
8.766499483958341
 20
16.770020410249
 30
0.0
 11
8.766499483958341
 21
8.770020410249003
 31
0.0
  0
LINE
  5
163
  8
_0-0_
  6
CONTINUOUS
 62
     7
 10
8.766499483958341
 20
8.770020410249003
 30
0.0
 11
68.76649948395834
 21
8.770020410249003
 31
0.0
  0
LINE
  5
164
  8
_0-0_
  6
CONTINUOUS
 62
     7
 10
68.76649948395834
 20
8.770020410249003
 30
0.0
 11
68.76649948395834
 21
16.770020410249
 31
0.0
  0
LINE
  5
165
  8
_0-0_
  6
CONTINUOUS
 62
     7
 10
68.76649948395834
 20
16.770020410249
 30
0.0
 11
8.766499483958341
 21
16.770020410249
 31
0.0
  0
ARC
  5
166
  8
_0-0_
  6
CONTINUOUS
 62
     7
 10
38.76649948395834
 20
-47.729979589751
 30
0.0
 40
114.5
 50
74.81069946289065
 51
105.1892852783204
  0
ARC
  5
167
  8
_0-0_
  6
CONTINUOUS
 62
     7
 10
38.76649948395834
 20
119.270020410249
 30
0.0
 40
114.5
 50
254.8106994628907
 51
285.1892852783204
  0
ARC
  5
168
  8
_0-0_
  6
CONTINUOUS
 62
     7
 10
52.76649948395834
 20
35.770020410249
 30
0.0
 40
5.000000000000002
 50
115.8419327631668
 51
64.15806723683268
  0
ARC
  5
169
  8
_0-0_
  6
CONTINUOUS
 62
     7
 10
52.76649948395834
 20
35.770020410249
 30
0.0
 40
5.0
 50
84.26082952273362
 51
95.73917047726711
  0
ARC
  5
16A
  8
_0-0_
  6
CONTINUOUS
 62
     7
 10
51.08705001218777
 20
42.770020410249
 30
0.0
 40
0.5
 50
90.0
 51
179.9999999999992
  0
ARC
  5
16B
  8
_0-0_
  6
CONTINUOUS
 62
     7
 10
54.445948955728
 20
42.770020410249
 30
0.0
 40
0.5
 50
0.0000000000008142
 51
90.0
  0
CIRCLE
  5
16C
  8
_0-0_
  6
CONTINUOUS
 62
     7
 10
51.42677474818765
 20
42.00748900324891
 30
0.0
 40
0.5
  0
CIRCLE
  5
16D
  8
_0-0_
  6
CONTINUOUS
 62
     7
 10
54.10622421995822
 20
42.00748900324891
 30
0.0
 40
0.5
  0
LINE
  5
16E
  8
_0-0_
  6
CONTINUOUS
 62
     7
 10
68.76649948395834
 20
234.4873604383672
 30
0.0
 11
8.766499483958341
 21
234.4873604383672
 31
0.0
  0
LINE
  5
16F
  8
_0-0_
  6
CONTINUOUS
 62
     7
 10
8.766502297503848
 20
234.4873612022259
 30
0.0
 11
8.766499483958341
 21
226.4873604383672
 31
0.0
  0
LINE
  5
170
  8
_0-0_
  6
CONTINUOUS
 62
     7
 10
8.766499483958341
 20
226.4873604383672
 30
0.0
 11
68.76649948095792
 21
226.4873604383672
 31
0.0
  0
LINE
  5
171
  8
_0-0_
  6
CONTINUOUS
 62
     7
 10
68.76649948395834
 20
226.4873604383672
 30
0.0
 11
68.76649948395834
 21
234.4873604383672
 31
0.0
  0
LINE
  5
172
  8
_0-0_
  6
CONTINUOUS
 62
     7
 10
68.76649948095792
 20
224.4873604383672
 30
0.0
 11
68.76649948095792
 21
190.4873604383672
 31
0.0
  0
LINE
  5
173
  8
_0-0_
  6
CONTINUOUS
 62
     7
 10
68.76649948095792
 20
190.4873604383672
 30
0.0
 11
8.766499486957855
 21
190.4873604383672
 31
0.0
  0
LINE
  5
174
  8
_0-0_
  6
CONTINUOUS
 62
     7
 10
8.766499486957855
 20
190.4873604383672
 30
0.0
 11
8.766499486957855
 21
199.4873604391675
 31
0.0
  0
LINE
  5
175
  8
_0-0_
  6
CONTINUOUS
 62
     7
 10
3.766499487457168
 20
199.4873604391675
 30
0.0
 11
3.766499487457168
 21
215.4873604375673
 31
0.0
  0
LINE
  5
176
  8
_0-0_
  6
CONTINUOUS
 62
     7
 10
3.766499487457168
 20
215.4873604375673
 30
0.0
 11
23.7664994854581
 21
215.4873604375673
 31
0.0
  0
LINE
  5
177
  8
_0-0_
  6
CONTINUOUS
 62
     7
 10
23.7664994854581
 20
215.4873604375673
 30
0.0
 11
23.7664994854581
 21
199.4873604391675
 31
0.0
  0
LINE
  5
178
  8
_0-0_
  6
CONTINUOUS
 62
     7
 10
23.7664994854581
 20
199.4873604391675
 30
0.0
 11
3.766499487457168
 21
199.4873604391675
 31
0.0
  0
LINE
  5
179
  8
_0-0_
  6
CONTINUOUS
 62
     7
 10
68.76649948095792
 20
224.4873604383672
 30
0.0
 11
8.766499486957855
 21
224.4873604383672
 31
0.0
  0
LINE
  5
17A
  8
_0-0_
  6
CONTINUOUS
 62
     7
 10
8.766499486957855
 20
224.4873604383672
 30
0.0
 11
8.766499486957855
 21
215.4873604375673
 31
0.0
  0
LINE
  5
17B
  8
_0-0_
  6
CONTINUOUS
 62
     7
 10
23.1891492163254
 20
215.4873604375673
 30
0.0
 11
23.1891492163254
 21
199.4873604391675
 31
0.0
  0
LINE
  5
17C
  8
_0-0_
  6
CONTINUOUS
 62
     7
 10
47.85902196950383
 20
198.9873603606399
 30
0.0
 11
57.67397686231243
 21
198.9873602820623
 31
0.0
  0
LINE
  5
17D
  8
_0-0_
  6
CONTINUOUS
 62
     7
 10
47.85902210560334
 20
215.987360594672
 30
0.0
 11
57.67397699841285
 21
215.9873605160946
 31
0.0
  0
LINE
  5
17E
  8
_0-0_
  6
CONTINUOUS
 62
     7
 10
68.76649948395834
 20
188.4873604383672
 30
0.0
 11
8.766499483958341
 21
188.4873604383672
 31
0.0
  0
LINE
  5
17F
  8
_0-0_
  6
CONTINUOUS
 62
     7
 10
8.766499483958341
 20
188.4873604383672
 30
0.0
 11
8.766499483958341
 21
180.4873604383672
 31
0.0
  0
LINE
  5
180
  8
_0-0_
  6
CONTINUOUS
 62
     7
 10
8.766499483958341
 20
180.4873604383672
 30
0.0
 11
68.76649948395834
 21
180.4873604383672
 31
0.0
  0
LINE
  5
181
  8
_0-0_
  6
CONTINUOUS
 62
     7
 10
68.76649948395834
 20
180.4873604383672
 30
0.0
 11
68.76649948395834
 21
188.4873604383672
 31
0.0
  0
LINE
  5
182
  8
_0-0_
  6
CONTINUOUS
 62
     7
 10
57.83143869106289
 20
149.3558758924353
 30
0.0
 11
57.83143869106289
 21
162.6558658924353
 31
0.0
  0
LINE
  5
183
  8
_0-0_
  6
CONTINUOUS
 62
     7
 10
47.83143869106289
 20
162.6558658924353
 30
0.0
 11
48.5314386910627
 21
163.3558758924353
 31
0.0
  0
LINE
  5
184
  8
_0-0_
  6
CONTINUOUS
 62
     7
 10
48.5314386910627
 20
163.3558758924353
 30
0.0
 11
57.13143869106307
 21
163.3558758924353
 31
0.0
  0
LINE
  5
185
  8
_0-0_
  6
CONTINUOUS
 62
     7
 10
57.13143869106307
 20
163.3558758924353
 30
0.0
 11
57.83143869106289
 21
162.6558658924353
 31
0.0
  0
LINE
  5
186
  8
_0-0_
  6
CONTINUOUS
 62
     7
 10
57.09662659361356
 20
141.3560289178165
 30
0.0
 11
57.67397686280356
 21
142.3560289178165
 31
0.0
  0
LINE
  5
187
  8
_0-0_
  6
CONTINUOUS
 62
     7
 10
57.67397686280356
 20
142.3560289178165
 30
0.0
 11
57.67397686280356
 21
148.3558758924353
 31
0.0
  0
LINE
  5
188
  8
_0-0_
  6
CONTINUOUS
 62
     7
 10
57.67397686280356
 20
148.3558758924353
 30
0.0
 11
57.09662659361356
 21
149.3558758924353
 31
0.0
  0
LINE
  5
189
  8
_0-0_
  6
CONTINUOUS
 62
     7
 10
57.28137627431761
 20
149.0358800587744
 30
0.0
 11
48.25162269359907
 21
141.6760247514778
 31
0.0
  0
LINE
  5
18A
  8
_0-0_
  6
CONTINUOUS
 62
     7
 10
48.43637237430221
 20
141.3560289178165
 30
0.0
 11
47.85902210511313
 21
142.3560289178165
 31
0.0
  0
LINE
  5
18B
  8
_0-0_
  6
CONTINUOUS
 62
     7
 10
47.85902210511313
 20
142.3560289178165
 30
0.0
 11
42.95154472626791
 21
142.3560289178165
 31
0.0
  0
LINE
  5
18C
  8
_0-0_
  6
CONTINUOUS
 62
     7
 10
42.95154472626791
 20
142.3560289178165
 30
0.0
 11
43.95154472626791
 21
141.3560289178165
 31
0.0
  0
LINE
  5
18D
  8
_0-0_
  6
CONTINUOUS
 62
     7
 10
42.95154472626791
 20
142.3560289178165
 30
0.0
 11
42.95154472626791
 21
148.3558758924353
 31
0.0
  0
LINE
  5
18E
  8
_0-0_
  6
CONTINUOUS
 62
     7
 10
42.95154472626791
 20
148.3558758924353
 30
0.0
 11
47.85902210511313
 21
148.3558758924353
 31
0.0
  0
LINE
  5
18F
  8
_0-0_
  6
CONTINUOUS
 62
     7
 10
47.85902210511313
 20
148.3558758924353
 30
0.0
 11
48.43637237430221
 21
149.3558758924353
 31
0.0
  0
LINE
  5
190
  8
_0-0_
  6
CONTINUOUS
 62
     7
 10
48.25162269359907
 20
149.0358800587744
 30
0.0
 11
57.28137627431761
 21
141.6760247514778
 31
0.0
  0
LINE
  5
191
  8
_0-0_
  6
CONTINUOUS
 62
     7
 10
57.67397686280356
 20
142.3560289178165
 30
0.0
 11
62.58145424164877
 21
142.3560289178165
 31
0.0
  0
LINE
  5
192
  8
_0-0_
  6
CONTINUOUS
 62
     7
 10
62.58145424164877
 20
142.3560289178165
 30
0.0
 11
61.58145424164877
 21
141.3560289178165
 31
0.0
  0
LINE
  5
193
  8
_0-0_
  6
CONTINUOUS
 62
     7
 10
62.58145424164877
 20
142.3560289178165
 30
0.0
 11
62.58145424164877
 21
148.3558758924353
 31
0.0
  0
LINE
  5
194
  8
_0-0_
  6
CONTINUOUS
 62
     7
 10
62.58145424164877
 20
148.3558758924353
 30
0.0
 11
57.67397686280356
 21
148.3558758924353
 31
0.0
  0
LINE
  5
195
  8
_0-0_
  6
CONTINUOUS
 62
     7
 10
47.83143869106289
 20
162.6558658924353
 30
0.0
 11
47.83143869106289
 21
149.3558758924353
 31
0.0
  0
LINE
  5
196
  8
_0-0_
  6
CONTINUOUS
 62
     7
 10
47.85902210511313
 20
148.3558758924353
 30
0.0
 11
47.85902210511313
 21
142.3560289178165
 31
0.0
  0
LINE
  5
197
  8
_0-0_
  6
CONTINUOUS
 62
     7
 10
41.76649948395834
 20
141.3560289178165
 30
0.0
 11
63.76649948395834
 21
141.3560289178165
 31
0.0
  0
LINE
  5
198
  8
_0-0_
  6
CONTINUOUS
 62
     7
 10
63.76649948395834
 20
141.3560289178165
 30
0.0
 11
63.76649948395834
 21
125.9390000532019
 31
0.0
  0
LINE
  5
199
  8
_0-0_
  6
CONTINUOUS
 62
     7
 10
13.06642242707267
 20
124.8318604657995
 30
0.0
 11
1.766499483957432
 21
131.3558758924353
 31
0.0
  0
LINE
  5
19A
  8
_0-0_
  6
CONTINUOUS
 62
     7
 10
1.766499483957432
 20
131.3558758924353
 30
0.0
 11
1.766499483957432
 21
133.3558758924353
 31
0.0
  0
LINE
  5
19B
  8
_0-0_
  6
CONTINUOUS
 62
     7
 10
1.766499483957432
 20
133.3558758924353
 30
0.0
 11
18.45132538117423
 21
133.3558758924353
 31
0.0
  0
LINE
  5
19C
  8
_0-0_
  6
CONTINUOUS
 62
     7
 10
18.45132538117423
 20
133.3558758924353
 30
0.0
 11
22.18337532319083
 21
134.3558758924353
 31
0.0
  0
LINE
  5
19D
  8
_0-0_
  6
CONTINUOUS
 62
     7
 10
62.58145424164877
 20
148.3558758924353
 30
0.0
 11
61.58145424164877
 21
149.3558758924353
 31
0.0
  0
LINE
  5
19E
  8
_0-0_
  6
CONTINUOUS
 62
     7
 10
61.58145424164877
 20
149.3558758924353
 30
0.0
 11
43.95154472626791
 21
149.3558758924353
 31
0.0
  0
LINE
  5
19F
  8
_0-0_
  6
CONTINUOUS
 62
     7
 10
43.95154472626791
 20
149.3558758924353
 30
0.0
 11
42.95154472626791
 21
148.3558758924353
 31
0.0
  0
LINE
  5
1A0
  8
_0-0_
  6
CONTINUOUS
 62
     7
 10
41.76649948395834
 20
141.3560289178165
 30
0.0
 11
41.76649948395834
 21
139.2054986188757
 31
0.0
  0
ARC
  5
1A1
  8
_0-0_
  6
CONTINUOUS
 62
     7
 10
52.76649948395834
 20
207.4873604383672
 30
0.0
 40
9.814954756708925
 50
300.0000000000002
 51
59.99999908259372
  0
ARC
  5
1A2
  8
_0-0_
  6
CONTINUOUS
 62
     7
 10
52.76649948395834
 20
207.4873604383672
 30
0.0
 40
9.814954756708929
 50
119.9999999999997
 51
239.9999990825924
  0
CIRCLE
  5
1A3
  8
_0-0_
  6
CONTINUOUS
 62
     7
 10
52.76649948395834
 20
207.4873604383672
 30
0.0
 40
11.9999999988
  0
CIRCLE
  5
1A4
  8
_0-0_
  6
CONTINUOUS
 62
     7
 10
52.76649948395834
 20
207.4873604383672
 30
0.0
 40
4.9999999995
  0
ARC
  5
1A5
  8
_0-0_
  6
CONTINUOUS
 62
     7
 10
38.76649948395834
 20
123.9873604383672
 30
0.0
 40
114.5
 50
74.81069946289065
 51
105.1892852783204
  0
ARC
  5
1A6
  8
_0-0_
  6
CONTINUOUS
 62
     7
 10
38.76649948395834
 20
290.9873604383672
 30
0.0
 40
114.5
 50
254.8106994628907
 51
285.1892852783204
  0
CIRCLE
  5
1A7
  8
_0-0_
  6
CONTINUOUS
 62
     7
 10
38.76649948395834
 20
109.3558758924353
 30
0.0
 40
18.0
  0
CIRCLE
  5
1A8
  8
_0-0_
  6
CONTINUOUS
 62
     7
 10
38.76649948395834
 20
109.3558758924353
 30
0.0
 40
30.0
  0
LINE
  5
1A9
  8
_0-0_
  6
CONTINUOUS
 62
     7
 10
104.4177611396235
 20
80.20292196379637
 30
0.0
 11
104.4177611396235
 21
140.2029219637959
 31
0.0
  0
LINE
  5
1AA
  8
_0-0_
  6
CONTINUOUS
 62
     7
 10
104.4177611396235
 20
140.2029219637959
 30
0.0
 11
112.4177611396235
 21
140.2029219637959
 31
0.0
  0
LINE
  5
1AB
  8
_0-0_
  6
CONTINUOUS
 62
     7
 10
112.4177611396235
 20
140.2029219637959
 30
0.0
 11
112.4177611396235
 21
80.20292196379637
 31
0.0
  0
LINE
  5
1AC
  8
_0-0_
  6
CONTINUOUS
 62
     7
 10
112.4177611396235
 20
80.20292196379637
 30
0.0
 11
104.4177603757652
 21
80.20292477734233
 31
0.0
  0
LINE
  5
1AD
  8
_0-0_
  6
CONTINUOUS
 62
     7
 10
114.4177611396235
 20
85.20292196379637
 30
0.0
 11
148.4177611396244
 21
85.20292196379637
 31
0.0
  0
LINE
  5
1AE
  8
_0-0_
  6
CONTINUOUS
 62
     7
 10
148.4177611396244
 20
85.20292196379637
 30
0.0
 11
148.4177611396244
 21
135.2029219637959
 31
0.0
  0
LINE
  5
1AF
  8
_0-0_
  6
CONTINUOUS
 62
     7
 10
148.4177611396244
 20
135.2029219637959
 30
0.0
 11
114.4177611396235
 21
135.2029219637959
 31
0.0
  0
LINE
  5
1B0
  8
_0-0_
  6
CONTINUOUS
 62
     7
 10
114.4177611396235
 20
135.2029219637959
 30
0.0
 11
114.4177611396235
 21
85.20292196379637
 31
0.0
  0
LINE
  5
1B1
  8
_0-0_
  6
CONTINUOUS
 62
     7
 10
135.7177611396245
 20
163.3558758924353
 30
0.0
 11
127.1177611396233
 21
163.3558758924353
 31
0.0
  0
LINE
  5
1B2
  8
_0-0_
  6
CONTINUOUS
 62
     7
 10
127.1177611396233
 20
163.3558758924353
 30
0.0
 11
126.4177611396235
 21
162.6558658924353
 31
0.0
  0
LINE
  5
1B3
  8
_0-0_
  6
CONTINUOUS
 62
     7
 10
136.4177611396244
 20
162.6558658924353
 30
0.0
 11
135.7177611396245
 21
163.3558758924353
 31
0.0
  0
LINE
  5
1B4
  8
_0-0_
  6
CONTINUOUS
 62
     7
 10
136.4177611396244
 20
149.3558758924353
 30
0.0
 11
136.4177611396244
 21
162.6558658924353
 31
0.0
  0
LINE
  5
1B5
  8
_0-0_
  6
CONTINUOUS
 62
     7
 10
126.4177611396235
 20
162.6558658924353
 30
0.0
 11
126.4177611396235
 21
149.3558758924353
 31
0.0
  0
LINE
  5
1B6
  8
_0-0_
  6
CONTINUOUS
 62
     7
 10
135.7478882492796
 20
149.3558758924353
 30
0.0
 11
136.3252385184696
 21
148.3558758924353
 31
0.0
  0
LINE
  5
1B7
  8
_0-0_
  6
CONTINUOUS
 62
     7
 10
136.3252385184696
 20
148.3558758924353
 30
0.0
 11
141.2327158973148
 21
148.3558758924353
 31
0.0
  0
LINE
  5
1B8
  8
_0-0_
  6
CONTINUOUS
 62
     7
 10
141.2327158973148
 20
148.3558758924353
 30
0.0
 11
141.2327158973148
 21
142.3560289178165
 31
0.0
  0
LINE
  5
1B9
  8
_0-0_
  6
CONTINUOUS
 62
     7
 10
141.2327158973148
 20
142.3560289178165
 30
0.0
 11
140.2327158973148
 21
141.3560289178165
 31
0.0
  0
LINE
  5
1BA
  8
_0-0_
  6
CONTINUOUS
 62
     7
 10
141.2327158973148
 20
142.3560289178165
 30
0.0
 11
136.3252385184696
 21
142.3560289178165
 31
0.0
  0
LINE
  5
1BB
  8
_0-0_
  6
CONTINUOUS
 62
     7
 10
136.3252385184696
 20
142.3560289178165
 30
0.0
 11
135.7478882492796
 21
141.3560289178165
 31
0.0
  0
LINE
  5
1BC
  8
_0-0_
  6
CONTINUOUS
 62
     7
 10
135.9326379299836
 20
141.6760247514778
 30
0.0
 11
126.9028843492642
 21
149.0358800587744
 31
0.0
  0
LINE
  5
1BD
  8
_0-0_
  6
CONTINUOUS
 62
     7
 10
127.0876340299682
 20
149.3558758924353
 30
0.0
 11
126.5102837607782
 21
148.3558758924353
 31
0.0
  0
LINE
  5
1BE
  8
_0-0_
  6
CONTINUOUS
 62
     7
 10
126.5102837607782
 20
148.3558758924353
 30
0.0
 11
121.602806381933
 21
148.3558758924353
 31
0.0
  0
LINE
  5
1BF
  8
_0-0_
  6
CONTINUOUS
 62
     7
 10
121.602806381933
 20
148.3558758924353
 30
0.0
 11
122.602806381933
 21
149.3558758924353
 31
0.0
  0
LINE
  5
1C0
  8
_0-0_
  6
CONTINUOUS
 62
     7
 10
122.602806381933
 20
149.3558758924353
 30
0.0
 11
140.2327158973148
 21
149.3558758924353
 31
0.0
  0
LINE
  5
1C1
  8
_0-0_
  6
CONTINUOUS
 62
     7
 10
140.2327158973148
 20
149.3558758924353
 30
0.0
 11
141.2327158973148
 21
148.3558758924353
 31
0.0
  0
LINE
  5
1C2
  8
_0-0_
  6
CONTINUOUS
 62
     7
 10
136.3252385184696
 20
148.3558758924353
 30
0.0
 11
136.3252385184696
 21
142.3560289178165
 31
0.0
  0
LINE
  5
1C3
  8
_0-0_
  6
CONTINUOUS
 62
     7
 10
135.9326379299836
 20
149.0358800587744
 30
0.0
 11
126.9028843492642
 21
141.6760247514778
 31
0.0
  0
LINE
  5
1C4
  8
_0-0_
  6
CONTINUOUS
 62
     7
 10
127.0876340299682
 20
141.3560289178165
 30
0.0
 11
126.5102837607782
 21
142.3560289178165
 31
0.0
  0
LINE
  5
1C5
  8
_0-0_
  6
CONTINUOUS
 62
     7
 10
126.5102837607782
 20
142.3560289178165
 30
0.0
 11
121.602806381933
 21
142.3560289178165
 31
0.0
  0
LINE
  5
1C6
  8
_0-0_
  6
CONTINUOUS
 62
     7
 10
121.602806381933
 20
142.3560289178165
 30
0.0
 11
122.602806381933
 21
141.3560289178165
 31
0.0
  0
LINE
  5
1C7
  8
_0-0_
  6
CONTINUOUS
 62
     7
 10
121.602806381933
 20
142.3560289178165
 30
0.0
 11
121.602806381933
 21
148.3558758924353
 31
0.0
  0
LINE
  5
1C8
  8
_0-0_
  6
CONTINUOUS
 62
     7
 10
126.5102837607782
 20
148.3558758924353
 30
0.0
 11
126.5102837607782
 21
142.3560289178165
 31
0.0
  0
LINE
  5
1C9
  8
_0-0_
  6
CONTINUOUS
 62
     7
 10
120.4177611396235
 20
141.3558758924353
 30
0.0
 11
120.4177611396235
 21
135.0525446902363
 31
0.0
  0
LINE
  5
1CA
  8
_0-0_
  6
CONTINUOUS
 62
     7
 10
120.4177611396235
 20
141.3558758924353
 30
0.0
 11
142.4177611396244
 21
141.3558758924353
 31
0.0
  0
LINE
  5
1CB
  8
_0-0_
  6
CONTINUOUS
 62
     7
 10
142.4177611396244
 20
141.3558758924353
 30
0.0
 11
142.4177611396244
 21
135.2029219637959
 31
0.0
  0
LINE
  5
1CC
  8
_0-0_
  6
CONTINUOUS
 62
     7
 10
150.4177611396244
 20
140.2029219637959
 30
0.0
 11
158.4177611396244
 21
140.2029219637959
 31
0.0
  0
LINE
  5
1CD
  8
_0-0_
  6
CONTINUOUS
 62
     7
 10
158.4177611396244
 20
140.2029219637959
 30
0.0
 11
158.4177611396244
 21
80.20292196379637
 31
0.0
  0
LINE
  5
1CE
  8
_0-0_
  6
CONTINUOUS
 62
     7
 10
158.4177611396244
 20
80.20292196379637
 30
0.0
 11
150.4177611396244
 21
80.20292196379637
 31
0.0
  0
LINE
  5
1CF
  8
_0-0_
  6
CONTINUOUS
 62
     7
 10
150.4177611396244
 20
80.20292196379637
 30
0.0
 11
150.4177611396244
 21
140.2029219637959
 31
0.0
  0
ARC
  5
1D0
  8
_0-0_
  6
CONTINUOUS
 62
     7
 10
214.9177611396244
 20
110.2029219637959
 30
0.0
 40
114.5
 50
164.8106994628908
 51
195.1892852783205
  0
ARC
  5
1D1
  8
_0-0_
  6
CONTINUOUS
 62
     7
 10
47.91776113962442
 20
110.2029219637959
 30
0.0
 40
114.5
 50
344.8106994628907
 51
15.18928527832038
  0
LINE
  5
1D2
  8
_0-1_
  6
CENTER1
 62
   152
 10
38.76649948395834
 20
66.770020410249
 30
0.0
 11
38.76649948395834
 21
4.770020410249003
 31
0.0
  0
LINE
  5
1D3
  8
_0-1_
  6
CENTER1
 62
   152
 10
52.76649948395834
 20
47.77002040904893
 30
0.0
 11
52.76649948395834
 21
23.77002041144908
 31
0.0
  0
LINE
  5
1D4
  8
_0-1_
  6
CENTER1
 62
   152
 10
54.10622421995822
 20
42.770020410249
 30
0.0
 11
54.10622421995822
 21
41.24495759624881
 31
0.0
  0
LINE
  5
1D5
  8
_0-1_
  6
CENTER1
 62
   152
 10
54.754495182558
 20
42.00748900324891
 30
0.0
 11
53.45795325735753
 21
42.00748900324891
 31
0.0
  0
LINE
  5
1D6
  8
_0-1_
  6
CENTER1
 62
   152
 10
52.07504571078744
 20
42.00748900324891
 30
0.0
 11
50.77850378558969
 21
42.00748900324891
 31
0.0
  0
LINE
  5
1D7
  8
_0-1_
  6
CENTER1
 62
   152
 10
51.42677474818765
 20
41.24495759624881
 30
0.0
 11
51.42677474818765
 21
42.770020410249
 31
0.0
  0
LINE
  5
1D8
  8
_0-1_
  6
CENTER1
 62
   152
 10
68.76649948095792
 20
35.770020410249
 30
0.0
 11
3.766499487457168
 21
35.770020410249
 31
0.0
  0
LINE
  5
1D9
  8
_0-1_
  6
CENTER1
 62
   152
 10
3.766499487457168
 20
207.4873604383672
 30
0.0
 11
68.76649948095792
 21
207.4873604383672
 31
0.0
  0
LINE
  5
1DA
  8
_0-1_
  6
CENTER1
 62
   152
 10
52.76649948395834
 20
195.4873604395677
 30
0.0
 11
52.76649948395834
 21
219.4873604371674
 31
0.0
  0
LINE
  5
1DB
  8
_0-1_
  6
CONTINUOUS
 62
   152
 10
57.13143869106307
 20
163.3558758924353
 30
0.0
 11
57.13143869106307
 21
150.5683158924355
 31
0.0
  0
LINE
  5
1DC
  8
_0-1_
  6
CONTINUOUS
 62
   152
 10
57.13143869106307
 20
150.5683158924355
 30
0.0
 11
57.83143869106289
 21
149.3558758924353
 31
0.0
  0
LINE
  5
1DD
  8
_0-1_
  6
CONTINUOUS
 62
   152
 10
57.83143869106289
 20
162.6558658924353
 30
0.0
 11
47.83143869106289
 21
162.6558658924353
 31
0.0
  0
LINE
  5
1DE
  8
_0-1_
  6
CENTER1
 62
   152
 10
52.76649948395834
 20
163.3558758924353
 30
0.0
 11
52.76649948395834
 21
135.8888739774573
 31
0.0
  0
LINE
  5
1DF
  8
_0-1_
  6
CONTINUOUS
 62
   152
 10
57.83143869106289
 20
150.5683158924355
 30
0.0
 11
47.83143869106289
 21
150.5683158924355
 31
0.0
  0
LINE
  5
1E0
  8
_0-1_
  6
CONTINUOUS
 62
   152
 10
48.5314386910627
 20
150.5683158924355
 30
0.0
 11
48.5314386910627
 21
163.3558758924353
 31
0.0
  0
LINE
  5
1E1
  8
_0-1_
  6
CONTINUOUS
 62
   152
 10
47.83143869106289
 20
149.3558758924353
 30
0.0
 11
48.5314386910627
 21
150.5683158924355
 31
0.0
  0
LINE
  5
1E2
  8
_0-1_
  6
CENTER1
 62
   152
 10
68.76649948395834
 20
109.3558758924353
 30
0.0
 11
8.766499483957432
 21
109.3558758924353
 31
0.0
  0
LINE
  5
1E3
  8
_0-1_
  6
CENTER1
 62
   152
 10
38.76649948395834
 20
139.3558758924353
 30
0.0
 11
38.76649948395834
 21
79.35587589243573
 31
0.0
  0
LINE
  5
1E4
  8
_0-1_
  6
CENTER1
 62
   152
 10
38.76649948395834
 20
176.4873604383672
 30
0.0
 11
38.76649948395834
 21
238.4873604383672
 31
0.0
  0
CIRCLE
  5
1E5
  8
_0-1_
  6
CONTINUOUS
 62
   152
 10
52.76649948395834
 20
207.4873604383672
 30
0.0
 40
4.300000190304863
  0
LINE
  5
1E6
  8
_0-1_
  6
CENTER1
 62
   152
 10
131.4177611396244
 20
80.20292196379637
 30
0.0
 11
131.4177611396244
 21
163.3558758924353
 31
0.0
  0
LINE
  5
1E7
  8
_0-1_
  6
CONTINUOUS
 62
   152
 10
126.4177611396235
 20
162.6558658924353
 30
0.0
 11
136.4177611396244
 21
162.6558658924353
 31
0.0
  0
LINE
  5
1E8
  8
_0-1_
  6
CONTINUOUS
 62
   152
 10
135.7177611396245
 20
163.3558758924353
 30
0.0
 11
135.7177611396245
 21
150.5683158924355
 31
0.0
  0
LINE
  5
1E9
  8
_0-1_
  6
CONTINUOUS
 62
   152
 10
135.7177611396245
 20
150.5683158924355
 30
0.0
 11
136.4177611396244
 21
149.3558758924353
 31
0.0
  0
LINE
  5
1EA
  8
_0-1_
  6
CONTINUOUS
 62
   152
 10
126.4177611396235
 20
149.3558758924353
 30
0.0
 11
127.1177611396233
 21
150.5683158924355
 31
0.0
  0
LINE
  5
1EB
  8
_0-1_
  6
CONTINUOUS
 62
   152
 10
127.1177611396233
 20
150.5683158924355
 30
0.0
 11
127.1177611396233
 21
163.3558758924353
 31
0.0
  0
LINE
  5
1EC
  8
_0-1_
  6
CONTINUOUS
 62
   152
 10
126.4177611396235
 20
150.5683158924355
 30
0.0
 11
136.4177611396244
 21
150.5683158924355
 31
0.0
  0
LINE
  5
1ED
  8
_0-1_
  6
CENTER1
 62
   152
 10
162.4177611396244
 20
110.2029219637959
 30
0.0
 11
100.4177611396235
 21
110.2029219637959
 31
0.0
  0
VIEWPORT
  5
1F0
 67
     1
  8
0
 10
0.0
 20
0.0
 30
0.0
 40
300.0
 41
220.0
 68
     1
 69
     1
1001
ACAD
1000
MVIEW
1002
{
1070
    16
1010
0.0
1020
0.0
1030
0.0
1010
0.0
1020
0.0
1030
1.0
1040
0.0
1040
1.0
1040
0.0
1040
0.0
1040
50.0
1040
0.0
1040
0.0
1070
     0
1070
   100
1070
     0
1070
     3
1070
     0
1070
     0
1070
     0
1070
     0
1040
0.0
1040
0.0
1040
0.0
1040
0.5
1040
0.5
1040
0.0
1040
0.0
1070
     0
1002
{
1002
}
1002
}
  0
ENDSEC
  0
EOF
