  0
SECTION
  2
HEADER
  9
$ACADVER
  1
AC1009
  9
$INSBASE
 10
0
 20
0
 30
0
  9
$EXTMIN
 10
0
 20
0
  9
$EXTMAX
 10
1189
 20
841
  9
$LIMMIN
 10
0
 20
0
  9
$LIMMAX
 10
1189
 20
841
  9
$LTSCALE
 40
1
  0
ENDSEC
  0
SECTION
  2
TABLES
  0
TABLE
  2
LTYPE
 70
     9
  0
LTYPE
  2
CONTINUOUS
 70
    64
  3
実線
 72
    65
 73
     0
 40
0.0
  0
LTYPE
  2
DASHED1
 70
    64
  3
--  --  --  --  --  --  --  --  
 72
    65
 73
     2
 40
2.5
 49
1.25
 49
-1.25
  0
LTYPE
  2
DASHED2
 70
    64
  3
----    ----    ----    ----    
 72
    65
 73
     2
 40
5.0
 49
2.5
 49
-2.5
  0
LTYPE
  2
DASHED3
 70
    64
  3
------  ------  ------  ------  
 72
    65
 73
     2
 40
5.0
 49
3.75
 49
-1.25
  0
LTYPE
  2
CENTER1
 70
    64
  3
----- - ----- - ----- - ----- - 
 72
    65
 73
     4
 40
10.0
 49
6.25
 49
-1.25
 49
1.25
 49
-1.25
  0
LTYPE
  2
CENTER2
 70
    64
  3
----------  --  ----------  --  
 72
    65
 73
     4
 40
20.0
 49
12.5
 49
-2.5
 49
2.5
 49
-2.5
  0
LTYPE
  2
PHANTOM1
 70
    64
  3
--- - - --- - - --- - - --- - - 
 72
    65
 73
     6
 40
10.0
 49
3.25
 49
-1.25
 49
1.25
 49
-1.25
 49
1.25
 49
-1.25
  0
LTYPE
  2
PHANTOM2
 70
    64
  3
--------  -  -  --------  -  -  
 72
    65
 73
     6
 40
20.0
 49
10.0
 49
-2.5
 49
1.25
 49
-2.5
 49
1.25
 49
-2.5
  0
LTYPE
  2
DOT
 70
    64
  3
-   -   -   -   -   -   -   -   
 72
    65
 73
     2
 40
2.5
 49
0.625
 49
-1.875
  0
LTYPE
  2
DUMMY
 70
    64
  3
ダミー
 72
    65
 73
     0
 40
0.0
  0
LTYPE
  2
RAND1
 70
    64
  3
ランダム線1
 72
    65
 73
     4
 40
10.0
 49
1.0
 49
-2.0
 49
3.0
 49
-4.0
  0
LTYPE
  2
RAND2
 70
    64
  3
ランダム線2
 72
    65
 73
     4
 40
14.0
 49
2.0
 49
-3.0
 49
4.0
 49
-5.0
  0
LTYPE
  2
RAND3
 70
    64
  3
ランダム線3
 72
    65
 73
     4
 40
18.0
 49
3.0
 49
-4.0
 49
5.0
 49
-6.0
  0
LTYPE
  2
RAND4
 70
    64
  3
ランダム線4
 72
    65
 73
     4
 40
22.0
 49
4.0
 49
-5.0
 49
6.0
 49
-7.0
  0
LTYPE
  2
RAND5
 70
    64
  3
ランダム線5
 72
    65
 73
     4
 40
26.0
 49
5.0
 49
-6.0
 49
7.0
 49
-8.0
  0
LTYPE
  2
LONG1
 70
    64
  3
----------  --  ----------  --  
 72
    65
 73
     4
 40
40.0
 49
32.5
 49
-2.5
 49
2.5
 49
-2.5
  0
LTYPE
  2
LONG2
 70
    64
  3
--------  -  -  --------  -  -  
 72
    65
 73
     6
 40
40.0
 49
30.0
 49
-2.5
 49
1.25
 49
-2.5
 49
1.25
 49
-2.5
  0
LTYPE
  2
LONG3
 70
    64
  3
+++++++++++++++..+++++++++++++++
 72
    65
 73
     2
 40
40.0
 49
37.5
 49
-2.5
  0
LTYPE
  2
LONG4
 70
    64
  3
+++++++++++++++..+++++++++++++++
 72
    65
 73
     2
 40
80.0
 49
75.0
 49
-5.0
  0
LTYPE
  2
LONG5
 70
    64
  3
----------  --  ----------  --  
 72
    65
 73
     4
 40
60.0
 49
37.5
 49
-7.5
 49
7.5
 49
-7.5
  0
LTYPE
  2
dashed
 70
   64
  3
-------   -------------   ------
 72
   65
 73
    2
 40
7.5
 49
6
 49
-1.5
  0
LTYPE
  2
dashed_spaced
 70
   64
  3
----        --------        ----
 72
   65
 73
    2
 40
12
 49
6
 49
-6
  0
LTYPE
  2
long_dashed_dotted
 70
   64
  3
------------- --- --------------
 72
   65
 73
    4
 40
15.25
 49
12
 49
-1.5
 49
0.25
 49
-1.5
  0
LTYPE
  2
long_dashed_double-dotted
 70
   64
  3
----------- --- --- ------------
 72
   65
 73
    6
 40
17
 49
12
 49
-1.5
 49
0.25
 49
-1.5
 49
0.25
 49
-1.5
  0
LTYPE
  2
long_dashed_triplicate-dotted
 70
   64
  3
--------- --- --- --- ----------
 72
   65
 73
    8
 40
18.75
 49
12
 49
-1.5
 49
0.25
 49
-1.5
 49
0.25
 49
-1.5
 49
0.25
 49
-1.5
  0
LTYPE
  2
dotted
 70
   64
  3
   -       -       -       -    
 72
   65
 73
    2
 40
1.75
 49
0.25
 49
-1.5
  0
LTYPE
  2
chain
 70
   64
  3
-------------- -- --------------
 72
   65
 73
    4
 40
18.5
 49
12
 49
-1.5
 49
3.5
 49
-1.5
  0
LTYPE
  2
chain_double_dash
 70
   64
  3
------------ -- -- -------------
 72
   65
 73
    6
 40
23.5
 49
12
 49
-1.5
 49
3.5
 49
-1.5
 49
3.5
 49
-1.5
  0
LTYPE
  2
dashed_dotted
 70
   64
  3
-----------     -     ----------
 72
   65
 73
    4
 40
9.25
 49
6
 49
-1.5
 49
0.25
 49
-1.5
  0
LTYPE
  2
double-dashed_dotted
 70
   64
  3
------   -----------   -   -----
 72
   65
 73
    6
 40
16.75
 49
6
 49
-1.5
 49
6
 49
-1.5
 49
0.25
 49
-1.5
  0
LTYPE
  2
dashed_double-dotted
 70
   64
  3
---------    -    -    ---------
 72
   65
 73
    6
 40
11
 49
6
 49
-1.5
 49
0.25
 49
-1.5
 49
0.25
 49
-1.5
  0
LTYPE
  2
double-dashed_double-dotted
 70
   64
  3
-----   ---------   -   -   ----
 72
   65
 73
    8
 40
18.5
 49
6
 49
-1.5
 49
6
 49
-1.5
 49
0.25
 49
-1.5
 49
0.25
 49
-1.5
  0
LTYPE
  2
dashed_triplicate-dotted
 70
   64
  3
-------    -    -    -    ------
 72
   65
 73
    8
 40
12.75
 49
6
 49
-1.5
 49
0.25
 49
-1.5
 49
0.25
 49
-1.5
 49
0.25
 49
-1.5
  0
LTYPE
  2
double-dashed_triplicate-dotted
 70
   64
  3
-----  ---------  -  -  -  -----
 72
   65
 73
   10
 40
20.25
 49
6
 49
-1.5
 49
6
 49
-1.5
 49
0.25
 49
-1.5
 49
0.25
 49
-1.5
 49
0.25
 49
-1.5
  0
LTYPE
  2
undefined
 70
   64
  3
--------------------------------
 72
   65
 73
    0
 40
0
  0
ENDTAB
  0
TABLE
  2
STYLE
  5
3
100
AcDbSymbolTable
 70
     1
  0
STYLE
  5
10
100
AcDbSymbolTableRecord
100
AcDbTextStyleTableRecord
  2
STANDARD
 70
     0
 40
0.0
 41
1.0
 50
0.0
 71
     0
 42
0.2
  3
txt
  4
bigfont.shx
  0
STYLE
  5
26
100
AcDbSymbolTableRecord
100
AcDbTextStyleTableRecord
  2
TATEGAKI
 70
    68
 40
0.0
 41
1.0
 50
0.0
 71
     0
 42
1.0
  3
txt
  4
bigfont.shx
  0
ENDTAB
  0
TABLE
  2
LAYER
 70
    4
  0
LAYER
  2
_0-0_
 70
   64
 62
    7
  6
CONTINUOUS
  0
LAYER
  2
_0-1_
 70
   64
 62
    7
  6
CONTINUOUS
  0
LAYER
  2
_0-f_
 70
   64
 62
    7
  6
CONTINUOUS
  0
LAYER
  2
ADD_LINE
 70
   64
 62
    7
  6
CONTINUOUS
  0
ENDTAB
  0
ENDSEC
  0
SECTION
  2
BLOCKS
  0
ENDSEC
  0
SECTION
  2
ENTITIES
  0
TEXT
  8
_0-f_
 62
    7
 10
0.5134041205920993
 20
0.5830345879410288
 40
4.2999999999999998
 41
0.744186046511628
 50
0
  1
CA50V
  0
LINE
  8
_0-0_
  6
CONTINUOUS
 62
    7
 10
54.3337995002139
 20
213.16778767923927
 11
61.261309500213429
 21
213.16778767923927
  0
LINE
  8
_0-0_
  6
CONTINUOUS
 62
    7
 10
62.110509500213539
 20
213.66526767923926
 11
70.797549500213336
 21
213.66526767923926
  0
LINE
  8
_0-0_
  6
CONTINUOUS
 62
    7
 10
70.797549500213336
 20
212.67012767923927
 11
63.750649500213967
 21
212.67012767923927
  0
LINE
  8
_0-0_
  6
CONTINUOUS
 62
    7
 10
53.426239500213796
 20
213.66526767923926
 11
10.797549500213336
 21
213.66526767923926
  0
LINE
  8
_0-0_
  6
CONTINUOUS
 62
    7
 10
10.797549500213336
 20
212.67012767923927
 11
51.844459500213361
 21
212.67012767923927
  0
LINE
  8
_0-0_
  6
CONTINUOUS
 62
    7
 10
70.797549500213336
 20
196.7455576792396
 11
63.750879500213614
 21
196.7455576792396
  0
LINE
  8
_0-0_
  6
CONTINUOUS
 62
    7
 10
62.110509500213539
 20
195.75024767923935
 11
70.797549500213336
 21
195.75024767923935
  0
LINE
  8
_0-0_
  6
CONTINUOUS
 62
    7
 10
70.797549500213336
 20
188.7833676792394
 11
10.797549500213336
 21
188.7833676792394
  0
LINE
  8
_0-0_
  6
CONTINUOUS
 62
    7
 10
10.797549500213336
 20
188.7833676792394
 11
10.797549500213336
 21
196.94455767923921
  0
LINE
  8
_0-0_
  6
CONTINUOUS
 62
    7
 10
10.797549500213336
 20
196.7455576792396
 11
51.844219500213512
 21
196.7455576792396
  0
LINE
  8
_0-0_
  6
CONTINUOUS
 62
    7
 10
53.484589500213588
 20
195.75024767923935
 11
10.797549500213336
 21
195.75024767923935
  0
LINE
  8
_0-0_
  6
CONTINUOUS
 62
    7
 10
9.597519500213366
 20
196.94455767923921
 11
18.047109500213537
 21
196.94455767923921
  0
LINE
  8
_0-0_
  6
CONTINUOUS
 62
    7
 10
18.054589500213297
 20
196.7455576792396
 11
18.054589500213297
 21
198.63634767923952
  0
LINE
  8
_0-0_
  6
CONTINUOUS
 62
    7
 10
18.047109500213537
 20
198.63634767923952
 11
10.797549500213336
 21
198.63634767923952
  0
LINE
  8
_0-0_
  6
CONTINUOUS
 62
    7
 10
10.797549500213336
 20
198.43770767923945
 11
10.797549500213336
 21
210.97815767923942
  0
LINE
  8
_0-0_
  6
CONTINUOUS
 62
    7
 10
10.797549500213336
 20
210.77915767923935
 11
18.047109500213537
 21
210.77915767923935
  0
LINE
  8
_0-0_
  6
CONTINUOUS
 62
    7
 10
18.053719500213447
 20
210.77915767923935
 11
18.053719500213447
 21
212.67012767923927
  0
LINE
  8
_0-0_
  6
CONTINUOUS
 62
    7
 10
18.047109500213537
 20
212.4713076792392
 11
9.597519500213366
 21
212.4713076792392
  0
LINE
  8
_0-0_
  6
CONTINUOUS
 62
    7
 10
10.797549500213336
 20
212.4713076792392
 11
10.797549500213336
 21
220.63249767923946
  0
LINE
  8
_0-0_
  6
CONTINUOUS
 62
    7
 10
10.797549500213336
 20
220.63249767923946
 11
70.797549500213336
 21
220.63249767923946
  0
LINE
  8
_0-0_
  6
CONTINUOUS
 62
    7
 10
70.797549500213336
 20
220.63249767923946
 11
70.797549500213336
 21
188.7833676792394
  0
LINE
  8
_0-0_
  6
CONTINUOUS
 62
    7
 10
61.261729500213733
 20
196.24789767923914
 11
54.333369500213848
 21
196.24789767923914
  0
LINE
  8
_0-0_
  6
CONTINUOUS
 62
    7
 10
18.053719500213447
 20
210.97815767923942
 11
10.095179500213362
 21
210.97815767923942
  0
LINE
  8
_0-0_
  6
CONTINUOUS
 62
    7
 10
9.10003950021337
 20
209.98283767923942
 11
9.10003950021337
 21
199.43284767923944
  0
LINE
  8
_0-0_
  6
CONTINUOUS
 62
    7
 10
9.10003950021337
 20
199.73151767923957
 11
3.1279595002133647
 21
199.73151767923957
  0
LINE
  8
_0-0_
  6
CONTINUOUS
 62
    7
 10
2.1328095002136251
 20
200.72681027923966
 11
2.1328095002136251
 21
208.68918027923939
  0
LINE
  8
_0-0_
  6
CONTINUOUS
 62
    7
 10
3.1279595002133647
 20
209.68434767923929
 11
9.10003950021337
 21
209.68434767923929
  0
LINE
  8
_0-0_
  6
CONTINUOUS
 62
    7
 10
7.6068895002135832
 20
209.68434767923929
 11
7.6068895002135832
 21
210.48066767923922
  0
LINE
  8
_0-0_
  6
CONTINUOUS
 62
    7
 10
7.6068895002135832
 20
199.73151767923957
 11
7.6068895002135832
 21
198.93518767923945
  0
LINE
  8
_0-0_
  6
CONTINUOUS
 62
    7
 10
10.095179500213362
 20
198.43770767923945
 11
18.047109500213537
 21
198.43770767923945
  0
LINE
  8
_0-0_
  6
CONTINUOUS
 62
    1
 10
10.797549500213336
 20
27.566655704872687
 11
11.367777518514231
 21
27.566655704872687
  0
ARC
  8
_0-0_
  6
CONTINUOUS
 62
    7
 10
3.1279595002133647
 20
200.72681027923966
 40
0.9952925999999997
 50
180
 51
270
  0
ARC
  8
_0-0_
  6
CONTINUOUS
 62
    7
 10
3.1279595002133647
 20
208.68918027923939
 40
0.9952925999999997
 50
90
 51
180
  0
ARC
  8
_0-0_
  6
CONTINUOUS
 62
    7
 10
40.797549500213336
 20
261.14921767923931
 40
78.33784
 50
247.48305000000002
 51
292.51693999999998
  0
ARC
  8
_0-0_
  6
CONTINUOUS
 62
    7
 10
40.797549500213336
 20
150.89337767923928
 40
75.918008
 50
66.723849000000001
 51
113.27615
  0
CIRCLE
  8
_0-0_
  6
CONTINUOUS
 62
    7
 10
57.79754950021379
 20
204.70775767923953
 40
5
  0
CIRCLE
  8
_0-0_
  6
CONTINUOUS
 62
    7
 10
57.79754950021379
 20
204.70775767923953
 40
9.9417646000000008
  0
ARC
  8
_0-0_
  6
CONTINUOUS
 62
    7
 10
57.79754950021379
 20
204.70775767923953
 40
9.1416450999999999
 50
292.26834000000002
 51
67.734531000000146
  0
ARC
  8
_0-0_
  6
CONTINUOUS
 62
    7
 10
57.79754950021379
 20
204.70775767923953
 40
9.1416450999999999
 50
112.26546000000003
 51
247.73165000000006
  0
ARC
  8
_0-0_
  6
CONTINUOUS
 62
    7
 10
10.095179500213362
 20
199.43284767923944
 40
0.9952925999999997
 50
180
 51
270
  0
ARC
  8
_0-0_
  6
CONTINUOUS
 62
    7
 10
10.095179500213362
 20
209.98283767923942
 40
0.9952925999999997
 50
90
 51
180
  0
ARC
  8
_0-0_
  6
CONTINUOUS
 62
    7
 10
9.597519500213366
 20
198.93518767923945
 40
1.9905853000000002
 50
180
 51
270
  0
ARC
  8
_0-0_
  6
CONTINUOUS
 62
    7
 10
9.597519500213366
 20
210.48066767923922
 40
1.9905853000000002
 50
90
 51
180
  0
LINE
  8
_0-0_
  6
CONTINUOUS
 62
    7
 10
23.097549500213518
 20
7.0666557048726872
 11
58.497549500213154
 21
7.0666557048726872
  0
LINE
  8
_0-0_
  6
CONTINUOUS
 62
    7
 10
58.497549500213154
 20
48.066655704872687
 11
23.097549500213518
 21
48.066655704872687
  0
LINE
  8
_0-0_
  6
CONTINUOUS
 62
    7
 10
20.797549500213336
 20
36.566655704872687
 11
20.797549500213336
 21
35.566655704872687
  0
LINE
  8
_0-0_
  6
CONTINUOUS
 62
    7
 10
19.797549500213336
 20
35.566655704872687
 11
19.797549500213336
 21
36.566655704872687
  0
LINE
  8
_0-0_
  6
CONTINUOUS
 62
    7
 10
27.297549500213336
 20
36.566655704872687
 11
27.297549500213336
 21
35.566655704872687
  0
LINE
  8
_0-0_
  6
CONTINUOUS
 62
    7
 10
31.797549500213336
 20
35.566655704872687
 11
10.797549500213336
 21
35.566655704872687
  0
LINE
  8
_0-0_
  6
CONTINUOUS
 62
    7
 10
10.797549500213336
 20
35.566655704872687
 11
10.797549500213336
 21
19.566655704872687
  0
LINE
  8
_0-0_
  6
CONTINUOUS
 62
    7
 10
10.797549500213336
 20
19.566655704872687
 11
31.741993500213084
 21
19.566655704872687
  0
LINE
  8
_0-0_
  6
CONTINUOUS
 62
    7
 10
31.741993500213084
 20
19.566655704872687
 11
31.297549500213336
 21
27.566655704872687
  0
LINE
  8
_0-0_
  6
CONTINUOUS
 62
    7
 10
31.297549500213336
 20
27.566655704872687
 11
31.797549500213336
 21
35.566655704872687
  0
LINE
  8
_0-0_
  6
CONTINUOUS
 62
    7
 10
40.797549500213336
 20
33.566655704872687
 11
49.297549500213336
 21
33.566655704872687
  0
LINE
  8
_0-0_
  6
CONTINUOUS
 62
    7
 10
49.297549500213336
 20
33.566655704872687
 11
49.297549500213336
 21
27.566655704872687
  0
LINE
  8
_0-0_
  6
CONTINUOUS
 62
    7
 10
49.297549500213336
 20
27.566655704872687
 11
40.797549500213336
 21
27.566655704872687
  0
LINE
  8
_0-0_
  6
CONTINUOUS
 62
    7
 10
40.797549500213336
 20
27.566655704872687
 11
40.797549500213336
 21
33.566655704872687
  0
LINE
  8
_0-0_
  6
CONTINUOUS
 62
    7
 10
45.297549500213336
 20
33.066655704872687
 11
45.297549500213336
 21
28.066655704872687
  0
LINE
  8
_0-0_
  6
CONTINUOUS
 62
    7
 10
52.797549500213336
 20
36.566655704872687
 11
52.797549500213336
 21
18.566655704872687
  0
LINE
  8
_0-0_
  6
CONTINUOUS
 62
    7
 10
59.797549500213336
 20
18.566655704872687
 11
62.797549500213336
 21
19.566655704872687
  0
LINE
  8
_0-0_
  6
CONTINUOUS
 62
    7
 10
62.797549500213336
 20
19.566655704872687
 11
70.797549500213336
 21
19.566655704872687
  0
LINE
  8
_0-0_
  6
CONTINUOUS
 62
    7
 10
70.797549500213336
 20
19.566655704872687
 11
70.797549500213336
 21
35.566655704872687
  0
LINE
  8
_0-0_
  6
CONTINUOUS
 62
    7
 10
70.797549500213336
 20
35.566655704872687
 11
62.797549500213336
 21
35.566655704872687
  0
LINE
  8
_0-0_
  6
CONTINUOUS
 62
    7
 10
62.797549500213336
 20
35.566655704872687
 11
59.797549500213336
 21
36.566655704872687
  0
LINE
  8
_0-0_
  6
CONTINUOUS
 62
    7
 10
67.797549500213336
 20
35.566655704872687
 11
67.297549500213336
 21
27.566655704872687
  0
LINE
  8
_0-0_
  6
CONTINUOUS
 62
    7
 10
67.297549500213336
 20
27.566655704872687
 11
67.797549500213336
 21
19.566655704872687
  0
LINE
  8
_0-0_
  6
CONTINUOUS
 62
    7
 10
70.297549500213336
 20
19.566655704872687
 11
70.297549500213336
 21
35.566655704872687
  0
LINE
  8
_0-0_
  6
CONTINUOUS
 62
    7
 10
70.297549500213336
 20
36.566655704872687
 11
11.297549500213336
 21
36.566655704872687
  0
LINE
  8
_0-0_
  6
CONTINUOUS
 62
    7
 10
10.797549500213336
 20
37.066655704872687
 11
10.797549500213336
 21
42.934878704872631
  0
LINE
  8
_0-0_
  6
CONTINUOUS
 62
    7
 10
70.297549500213336
 20
18.566655704872687
 11
11.297549500213336
 21
18.566655704872687
  0
LINE
  8
_0-0_
  6
CONTINUOUS
 62
    7
 10
10.797549500213336
 20
18.066655704872687
 11
10.797549500213336
 21
12.198431704872405
  0
LINE
  8
_0-0_
  6
CONTINUOUS
 62
    7
 10
19.797549500213336
 20
19.566655704872687
 11
19.797549500213336
 21
18.566655704872687
  0
LINE
  8
_0-0_
  6
CONTINUOUS
 62
    7
 10
20.797549500213336
 20
18.566655704872687
 11
20.797549500213336
 21
19.566655704872687
  0
LINE
  8
_0-0_
  6
CONTINUOUS
 62
    7
 10
27.297549500213336
 20
19.566655704872687
 11
27.297549500213336
 21
18.566655704872687
  0
LINE
  8
_0-0_
  6
CONTINUOUS
 62
    7
 10
70.797549500213336
 20
18.066655704872687
 11
70.797549500213336
 21
12.198431704872405
  0
LINE
  8
_0-0_
  6
CONTINUOUS
 62
    7
 10
70.797549500213336
 20
37.066655704872687
 11
70.797549500213336
 21
42.934878704872631
  0
ARC
  8
_0-0_
  6
CONTINUOUS
 62
    7
 10
40.797549500213336
 20
110.74665570487252
 40
105.18000000000001
 50
254.67822699999999
 51
285.32177300000001
  0
ARC
  8
_0-0_
  6
CONTINUOUS
 62
    7
 10
67.797549500213336
 20
12.198431704872405
 40
3
 50
285.32177300000001
 51
0.0000000000000127
  0
ARC
  8
_0-0_
  6
CONTINUOUS
 62
    7
 10
67.797549500213336
 20
42.934878704872631
 40
3
 50
0
 51
74.678227000000021
  0
ARC
  8
_0-0_
  6
CONTINUOUS
 62
    7
 10
13.797549500213336
 20
12.198431704872405
 40
3
 50
180
 51
254.67822699999996
  0
ARC
  8
_0-0_
  6
CONTINUOUS
 62
    7
 10
11.297549500213336
 20
18.066655704872687
 40
0.5
 50
90
 51
180
  0
ARC
  8
_0-0_
  6
CONTINUOUS
 62
    7
 10
11.297549500213336
 20
37.066655704872687
 40
0.5
 50
180
 51
270
  0
ARC
  8
_0-0_
  6
CONTINUOUS
 62
    7
 10
40.797549500213336
 20
-55.613344295127604
 40
105.18000000000001
 50
74.678227000000021
 51
105.32177300000001
  0
ARC
  8
_0-0_
  6
CONTINUOUS
 62
    7
 10
13.797549500213336
 20
42.934878704872631
 40
3
 50
105.32177300000001
 51
180
  0
ARC
  8
_0-0_
  6
CONTINUOUS
 62
    7
 10
70.297549500213336
 20
18.066655704872687
 40
0.5
 50
0
 51
90
  0
ARC
  8
_0-0_
  6
CONTINUOUS
 62
    7
 10
70.297549500213336
 20
37.066655704872687
 40
0.5
 50
270
 51
0
  0
CIRCLE
  8
_0-0_
  6
CONTINUOUS
 62
    7
 10
57.797549500213336
 20
27.566655704872687
 40
4.5
  0
LINE
  8
_0-0_
  6
CONTINUOUS
 62
    7
 10
2.1205895002135549
 20
121.05161947196154
 11
2.2089895002136473
 21
120.04209947196148
  0
LINE
  8
_0-0_
  6
CONTINUOUS
 62
    7
 10
2.2089895002136473
 20
120.04209947196148
 11
13.722079500213567
 21
120.95005947196148
  0
LINE
  8
_0-0_
  6
CONTINUOUS
 62
    7
 10
7.6068895002135832
 20
120.46812947196156
 11
8.0373595002133698
 21
115.54679947196144
  0
LINE
  8
_0-0_
  6
CONTINUOUS
 62
    7
 10
8.0373595002133698
 20
115.54679947196144
 11
11.811459500213459
 21
115.76381947196148
  0
LINE
  8
_0-0_
  6
CONTINUOUS
 62
    7
 10
67.79754950021379
 20
134.35524947196143
 11
67.79754950021379
 21
138.03035947196156
  0
LINE
  8
_0-0_
  6
CONTINUOUS
 62
    7
 10
65.797549500213336
 20
140.03035947196156
 11
47.79754950021379
 21
140.03035947196156
  0
LINE
  8
_0-0_
  6
CONTINUOUS
 62
    7
 10
47.79754950021379
 20
140.03035947196156
 11
47.79754950021379
 21
139.63731947196163
  0
LINE
  8
_0-0_
  6
CONTINUOUS
 62
    7
 10
48.597549500213518
 20
142.03035947196156
 11
47.79754950021379
 21
142.83035947196174
  0
LINE
  8
_0-0_
  6
CONTINUOUS
 62
    7
 10
47.79754950021379
 20
142.83035947196174
 11
47.79754950021379
 21
147.23035947196138
  0
LINE
  8
_0-0_
  6
CONTINUOUS
 62
    7
 10
47.797429500213639
 20
147.23023947196168
 11
48.597549500213518
 21
148.03035947196156
  0
LINE
  8
_0-0_
  6
CONTINUOUS
 62
    7
 10
48.597549500213518
 20
148.03035947196156
 11
66.997549500213609
 21
148.03035947196156
  0
LINE
  8
_0-0_
  6
CONTINUOUS
 62
    7
 10
66.997549500213609
 20
148.03035947196156
 11
67.797589500213689
 21
147.23030947196173
  0
LINE
  8
_0-0_
  6
CONTINUOUS
 62
    7
 10
67.79754950021379
 20
147.23035947196138
 11
67.79754950021379
 21
142.83035947196174
  0
LINE
  8
_0-0_
  6
CONTINUOUS
 62
    7
 10
67.79754950021379
 20
142.83035947196174
 11
66.997549500213609
 21
142.03035947196156
  0
LINE
  8
_0-0_
  6
CONTINUOUS
 62
    7
 10
66.997549500213609
 20
142.03035947196156
 11
48.597549500213518
 21
142.03035947196156
  0
LINE
  8
_0-0_
  6
CONTINUOUS
 62
    7
 10
47.797429500213639
 20
143.03042947196161
 11
52.29754950021379
 21
143.03042947196161
  0
LINE
  8
_0-0_
  6
CONTINUOUS
 62
    7
 10
52.79754950021379
 20
142.03035947196156
 11
52.79754950021379
 21
140.03035947196156
  0
LINE
  8
_0-0_
  6
CONTINUOUS
 62
    7
 10
53.797589500213689
 20
144.53028947196151
 11
53.797589500213689
 21
145.53031947196166
  0
LINE
  8
_0-0_
  6
CONTINUOUS
 62
    7
 10
55.297619500213841
 20
147.03035947196156
 11
60.297579500213942
 21
147.03035947196156
  0
LINE
  8
_0-0_
  6
CONTINUOUS
 62
    7
 10
63.29747950021374
 20
147.03035947196156
 11
67.79754950021379
 21
147.03035947196156
  0
LINE
  8
_0-0_
  6
CONTINUOUS
 62
    7
 10
67.797589500213689
 20
143.03042947196161
 11
63.29747950021374
 21
143.03042947196161
  0
LINE
  8
_0-0_
  6
CONTINUOUS
 62
    7
 10
62.79754950021379
 20
142.03035947196156
 11
62.79754950021379
 21
140.03035947196156
  0
LINE
  8
_0-0_
  6
CONTINUOUS
 62
    7
 10
61.797619500213386
 20
144.53028947196151
 11
61.797619500213386
 21
145.53031947196166
  0
LINE
  8
_0-0_
  6
CONTINUOUS
 62
    7
 10
62.79754950021379
 20
148.03035947196156
 11
62.79754950021379
 21
166.33034947196154
  0
LINE
  8
_0-0_
  6
CONTINUOUS
 62
    7
 10
62.79754950021379
 20
166.33034947196154
 11
62.097549500213972
 21
167.03035947196156
  0
LINE
  8
_0-0_
  6
CONTINUOUS
 62
    7
 10
62.097549500213972
 20
167.03035947196156
 11
53.497549500213609
 21
167.03035947196156
  0
LINE
  8
_0-0_
  6
CONTINUOUS
 62
    7
 10
53.497549500213609
 20
167.03035947196156
 11
52.79754950021379
 21
166.33034947196154
  0
LINE
  8
_0-0_
  6
CONTINUOUS
 62
    7
 10
52.79754950021379
 20
166.33034947196154
 11
52.79754950021379
 21
148.03035947196156
  0
LINE
  8
_0-0_
  6
CONTINUOUS
 62
    7
 10
52.29754950021379
 20
147.03035947196156
 11
47.79754950021379
 21
147.03035947196156
  0
LINE
  8
_0-0_
  6
CONTINUOUS
 62
    7
 10
55.297619500213841
 20
143.03042947196161
 11
60.297579500213942
 21
143.03042947196161
  0
LINE
  8
_0-0_
  6
CONTINUOUS
 62
    7
 10
105.06119864600856
 20
78.030359471962015
 11
113.56119864600811
 21
78.030359471962015
  0
LINE
  8
_0-0_
  6
CONTINUOUS
 62
    7
 10
113.56119864600811
 20
78.030359471962015
 11
113.56119864600811
 21
138.03035947196156
  0
LINE
  8
_0-0_
  6
CONTINUOUS
 62
    7
 10
113.56119864600811
 20
138.03035947196156
 11
105.06119864600856
 21
138.03035947196156
  0
LINE
  8
_0-0_
  6
CONTINUOUS
 62
    7
 10
105.06119864600856
 20
138.03035947196156
 11
105.06119864600856
 21
78.030359471962015
  0
LINE
  8
_0-0_
  6
CONTINUOUS
 62
    7
 10
114.56119864600811
 20
81.094591344520609
 11
131.56119864600856
 21
81.094591344520609
  0
LINE
  8
_0-0_
  6
CONTINUOUS
 62
    7
 10
131.56119864600856
 20
81.094591344520609
 11
131.56119864600856
 21
140.03035947196156
  0
LINE
  8
_0-0_
  6
CONTINUOUS
 62
    7
 10
131.56119864600856
 20
140.03035947196156
 11
114.56119864600811
 21
140.03035947196156
  0
LINE
  8
_0-0_
  6
CONTINUOUS
 62
    7
 10
114.56119864600811
 20
140.03035947196156
 11
114.56119864600811
 21
81.094591344520609
  0
LINE
  8
_0-0_
  6
CONTINUOUS
 62
    7
 10
118.06119864600811
 20
148.03035947196156
 11
118.06119864600811
 21
166.33034947196154
  0
LINE
  8
_0-0_
  6
CONTINUOUS
 62
    7
 10
128.06119864600811
 20
166.33034947196154
 11
127.36119864600829
 21
167.03035947196156
  0
LINE
  8
_0-0_
  6
CONTINUOUS
 62
    7
 10
127.36119864600829
 20
167.03035947196156
 11
118.76119864600838
 21
167.03035947196156
  0
LINE
  8
_0-0_
  6
CONTINUOUS
 62
    7
 10
118.76119864600838
 20
167.03035947196156
 11
118.06119864600811
 21
166.33034947196154
  0
LINE
  8
_0-0_
  6
CONTINUOUS
 62
    7
 10
128.06119864600811
 20
166.33034947196154
 11
128.06119864600811
 21
148.03035947196156
  0
LINE
  8
_0-0_
  6
CONTINUOUS
 62
    7
 10
117.56119864600811
 20
147.03035947196156
 11
113.06119864600811
 21
147.03035947196156
  0
LINE
  8
_0-0_
  6
CONTINUOUS
 62
    7
 10
113.06107864600841
 20
147.23023947196168
 11
113.86119864600829
 21
148.03035947196156
  0
LINE
  8
_0-0_
  6
CONTINUOUS
 62
    7
 10
113.86119864600829
 20
148.03035947196156
 11
132.26119864600838
 21
148.03035947196156
  0
LINE
  8
_0-0_
  6
CONTINUOUS
 62
    7
 10
132.26119864600838
 20
148.03035947196156
 11
133.06123864600846
 21
147.23030947196173
  0
LINE
  8
_0-0_
  6
CONTINUOUS
 62
    7
 10
133.06119864600811
 20
147.23035947196138
 11
133.06119864600811
 21
142.83035947196174
  0
LINE
  8
_0-0_
  6
CONTINUOUS
 62
    7
 10
133.06119864600811
 20
142.83035947196174
 11
132.26119864600838
 21
142.03035947196156
  0
LINE
  8
_0-0_
  6
CONTINUOUS
 62
    7
 10
132.26119864600838
 20
142.03035947196156
 11
113.86119864600829
 21
142.03035947196156
  0
LINE
  8
_0-0_
  6
CONTINUOUS
 62
    7
 10
113.86119864600829
 20
142.03035947196156
 11
113.06119864600811
 21
142.83035947196174
  0
LINE
  8
_0-0_
  6
CONTINUOUS
 62
    7
 10
113.06119864600811
 20
142.83035947196174
 11
113.06119864600811
 21
147.23035947196138
  0
LINE
  8
_0-0_
  6
CONTINUOUS
 62
    7
 10
113.06107864600841
 20
143.03042947196161
 11
117.56119864600811
 21
143.03042947196161
  0
LINE
  8
_0-0_
  6
CONTINUOUS
 62
    7
 10
118.06119864600811
 20
142.03035947196156
 11
118.06119864600811
 21
140.03035947196156
  0
LINE
  8
_0-0_
  6
CONTINUOUS
 62
    7
 10
119.06123864600846
 20
144.53028947196151
 11
119.06123864600846
 21
145.53031947196166
  0
LINE
  8
_0-0_
  6
CONTINUOUS
 62
    7
 10
120.56126864600816
 20
147.03035947196156
 11
125.56122864600826
 21
147.03035947196156
  0
LINE
  8
_0-0_
  6
CONTINUOUS
 62
    7
 10
128.56112864600851
 20
147.03035947196156
 11
133.06119864600811
 21
147.03035947196156
  0
LINE
  8
_0-0_
  6
CONTINUOUS
 62
    7
 10
133.06123864600846
 20
143.03042947196161
 11
128.56112864600851
 21
143.03042947196161
  0
LINE
  8
_0-0_
  6
CONTINUOUS
 62
    7
 10
128.06119864600811
 20
142.03035947196156
 11
128.06119864600811
 21
140.03035947196156
  0
LINE
  8
_0-0_
  6
CONTINUOUS
 62
    7
 10
127.06126864600816
 20
144.53028947196151
 11
127.06126864600816
 21
145.53031947196166
  0
LINE
  8
_0-0_
  6
CONTINUOUS
 62
    7
 10
125.56122864600826
 20
143.03042947196161
 11
120.56126864600816
 21
143.03042947196161
  0
LINE
  8
_0-0_
  6
CONTINUOUS
 62
    7
 10
114.56119864600811
 20
134.9661295067516
 11
131.56119864600856
 21
134.9661295067516
  0
LINE
  8
_0-0_
  6
CONTINUOUS
 62
    7
 10
132.56119864600856
 20
138.03035947196156
 11
141.06119864600811
 21
138.03035947196156
  0
LINE
  8
_0-0_
  6
CONTINUOUS
 62
    7
 10
141.06119864600811
 20
138.03035947196156
 11
141.06119864600811
 21
78.030359471962015
  0
LINE
  8
_0-0_
  6
CONTINUOUS
 62
    7
 10
141.06119142038193
 20
78.030359471962015
 11
132.56119864600856
 21
78.030359471962015
  0
LINE
  8
_0-0_
  6
CONTINUOUS
 62
    7
 10
132.56119864600856
 20
78.030359471962015
 11
132.56119864600856
 21
138.03035947196156
  0
LINE
  8
_0-0_
  6
CONTINUOUS
 62
    7
 10
6.5703195002133725
 20
121.44098947196142
 11
2.1205895002135549
 21
121.05161947196154
  0
ARC
  8
_0-0_
  6
CONTINUOUS
 62
    7
 10
52.29754950021379
 20
144.53028947196151
 40
1.4999998999999999
 50
270
 51
0
  0
ARC
  8
_0-0_
  6
CONTINUOUS
 62
    7
 10
55.297619500213841
 20
144.53028947196151
 40
1.4999998999999999
 50
180
 51
270
  0
ARC
  8
_0-0_
  6
CONTINUOUS
 62
    7
 10
52.29754950021379
 20
145.53031947196166
 40
1.4999998999999999
 50
0
 51
90
  0
ARC
  8
_0-0_
  6
CONTINUOUS
 62
    7
 10
55.297619500213841
 20
145.53031947196166
 40
1.4999998999999999
 50
90
 51
180
  0
ARC
  8
_0-0_
  6
CONTINUOUS
 62
    7
 10
63.29747950021374
 20
144.53028947196151
 40
1.4999998999999999
 50
180
 51
270
  0
ARC
  8
_0-0_
  6
CONTINUOUS
 62
    7
 10
63.29747950021374
 20
145.53031947196166
 40
1.4999998999999999
 50
90
 51
180
  0
ARC
  8
_0-0_
  6
CONTINUOUS
 62
    7
 10
60.297579500213942
 20
144.53028947196151
 40
1.4999998999999999
 50
270
 51
0
  0
ARC
  8
_0-0_
  6
CONTINUOUS
 62
    7
 10
60.297579500213942
 20
145.53031947196166
 40
1.4999998999999999
 50
0
 51
90
  0
CIRCLE
  8
_0-0_
  6
CONTINUOUS
 62
    7
 10
40.797549500213336
 20
108.03035947196156
 40
17.5
  0
ARC
  8
_0-0_
  6
CONTINUOUS
 62
    7
 10
117.56119864600811
 20
144.53028947196151
 40
1.4999998999999999
 50
270
 51
0
  0
ARC
  8
_0-0_
  6
CONTINUOUS
 62
    7
 10
120.56126864600816
 20
144.53028947196151
 40
1.4999998999999999
 50
180
 51
270
  0
ARC
  8
_0-0_
  6
CONTINUOUS
 62
    7
 10
117.56119864600811
 20
145.53031947196166
 40
1.4999998999999999
 50
0
 51
90
  0
ARC
  8
_0-0_
  6
CONTINUOUS
 62
    7
 10
120.56126864600816
 20
145.53031947196166
 40
1.4999998999999999
 50
90
 51
180
  0
ARC
  8
_0-0_
  6
CONTINUOUS
 62
    7
 10
128.56112864600851
 20
144.53028947196151
 40
1.4999998999999999
 50
180
 51
270
  0
ARC
  8
_0-0_
  6
CONTINUOUS
 62
    7
 10
128.56112864600851
 20
145.53031947196166
 40
1.4999998999999999
 50
90
 51
180
  0
ARC
  8
_0-0_
  6
CONTINUOUS
 62
    7
 10
125.56122864600826
 20
144.53028947196151
 40
1.4999998999999999
 50
270
 51
0
  0
ARC
  8
_0-0_
  6
CONTINUOUS
 62
    7
 10
125.56122864600826
 20
145.53031947196166
 40
1.4999998999999999
 50
0
 51
90
  0
ARC
  8
_0-0_
  6
CONTINUOUS
 62
    7
 10
7.1804095002135
 20
119.06908947196132
 40
2.449106
 50
38.389619000000003
 51
104.42466000000002
  0
ARC
  8
_0-0_
  6
CONTINUOUS
 62
    7
 10
65.797549500213336
 20
138.03035947196156
 40
2
 50
0
 51
90
  0
CIRCLE
  8
_0-0_
  6
CONTINUOUS
 62
    7
 10
40.797549500213336
 20
108.03035947196156
 40
30
  0
ARC
  8
_0-0_
  6
CONTINUOUS
 62
    7
 10
45.797549500213336
 20
139.63731947196163
 40
2
 50
261.01070000000004
 51
0.0000000000001526
  0
ARC
  8
_0-0_
  6
CONTINUOUS
 62
    7
 10
154.79754950021385
 20
134.35524947196143
 40
87.000000000000014
 50
180
 51
193.00282000000001
  0
ARC
  8
_0-0_
  6
CONTINUOUS
 62
    7
 10
30.561198646008052
 20
108.03035947196156
 40
114.50000000000003
 50
344.81069946289068
 51
15.18928527832036
  0
ARC
  8
_0-0_
  6
CONTINUOUS
 62
    7
 10
215.56119864600811
 20
108.03035947196156
 40
114.50000000000003
 50
164.81069946289068
 51
195.18928527832037
  0
LINE
  8
_0-1_
  6
CENTER1
 62
  152
 10
57.79754950021379
 20
194.76598767923917
 11
57.79754950021379
 21
214.64951767923924
  0
LINE
  8
_0-1_
  6
CENTER1
 62
  152
 10
47.855789500213632
 20
204.70775767923953
 11
67.739319500213696
 21
204.70775767923953
  0
LINE
  8
_0-1_
  6
CENTER1
 62
  152
 10
40.797549500213336
 20
182.8113776792394
 11
40.797549500213336
 21
226.81138767923937
  0
LINE
  8
_0-1_
  6
CENTER1
 62
  152
 10
40.797549500213336
 20
49.566655704872687
 11
40.797549500213336
 21
5.5666557048726872
  0
LINE
  8
_0-1_
  6
CENTER1
 62
  152
 10
10.797549500213336
 20
27.566655704872687
 11
70.797549500213336
 21
27.566655704872687
  0
CIRCLE
  8
_0-1_
  6
CONTINUOUS
 62
  152
 10
57.79754950021379
 20
204.70775767923953
 40
4.3000001000000001
  0
LINE
  8
_0-1_
  6
CENTER1
 62
  152
 10
10.797549500213336
 20
108.03035947196156
 11
70.797549500213336
 21
108.03035947196156
  0
LINE
  8
_0-1_
  6
CONTINUOUS
 62
  152
 10
52.79754950021379
 20
148.81791947196132
 11
53.497549500213609
 21
150.03035947196156
  0
LINE
  8
_0-1_
  6
CONTINUOUS
 62
  152
 10
53.497549500213609
 20
150.03035947196156
 11
53.497549500213609
 21
167.03035947196156
  0
LINE
  8
_0-1_
  6
CONTINUOUS
 62
  152
 10
52.79754950021379
 20
166.33034947196154
 11
62.79754950021379
 21
166.33034947196154
  0
LINE
  8
_0-1_
  6
CONTINUOUS
 62
  152
 10
62.097549500213972
 20
167.03035947196156
 11
62.097549500213972
 21
150.03035947196156
  0
LINE
  8
_0-1_
  6
CONTINUOUS
 62
  152
 10
62.097549500213972
 20
150.03035947196156
 11
62.79754950021379
 21
148.81791947196132
  0
LINE
  8
_0-1_
  6
CONTINUOUS
 62
  152
 10
62.79754950021379
 20
150.03035947196156
 11
52.79754950021379
 21
150.03035947196156
  0
LINE
  8
_0-1_
  6
CENTER1
 62
  152
 10
57.79754950021379
 20
132.74876947196151
 11
57.79754950021379
 21
167.03035947196156
  0
LINE
  8
_0-1_
  6
CENTER1
 62
  152
 10
40.797549500213336
 20
138.03035947196156
 11
40.797549500213336
 21
78.03035947196156
  0
LINE
  8
_0-1_
  6
CENTER1
 62
  152
 10
123.06119864600811
 20
78.030359471962015
 11
123.06119864600811
 21
167.03035947196156
  0
LINE
  8
_0-1_
  6
CONTINUOUS
 62
  152
 10
118.76119864600838
 20
167.03035947196156
 11
118.76119864600838
 21
150.03035947196156
  0
LINE
  8
_0-1_
  6
CONTINUOUS
 62
  152
 10
118.76119864600838
 20
150.03035947196156
 11
118.06119864600811
 21
148.81791947196132
  0
LINE
  8
_0-1_
  6
CONTINUOUS
 62
  152
 10
118.06119864600811
 20
166.33034947196154
 11
128.06119864600811
 21
166.33034947196154
  0
LINE
  8
_0-1_
  6
CONTINUOUS
 62
  152
 10
128.06119864600811
 20
148.81791947196132
 11
127.36119864600829
 21
150.03035947196156
  0
LINE
  8
_0-1_
  6
CONTINUOUS
 62
  152
 10
127.36119864600829
 20
150.03035947196156
 11
127.36119864600829
 21
167.03035947196156
  0
LINE
  8
_0-1_
  6
CONTINUOUS
 62
  152
 10
128.06119864600811
 20
150.03035947196156
 11
118.06119864600811
 21
150.03035947196156
  0
LINE
  8
_0-1_
  6
CENTER1
 62
  152
 10
145.06119864600856
 20
108.03035947196156
 11
101.06119864600811
 21
108.03035947196156
  0
POINT
  8
_0-1_
 62
  152
 10
113.06119864600811
 20
78.03035947196156
  0
LINE
  8
_0-1_
  6
CENTER1
 62
  152
 10
57.797549500213336
 20
1.9154977048725641
 11
57.797549500213336
 21
53.217813704872356
  0
ENDSEC
  0
EOF
