  0
SECTION
  2
HEADER
  9
$ACADVER
  1
AC1009
  9
$INSBASE
 10
0
 20
0
 30
0
  9
$EXTMIN
 10
0
 20
0
  9
$EXTMAX
 10
1189
 20
841
  9
$LIMMIN
 10
0
 20
0
  9
$LIMMAX
 10
1189
 20
841
  9
$LTSCALE
 40
1
  0
ENDSEC
  0
SECTION
  2
TABLES
  0
TABLE
  2
LTYPE
 70
     9
  0
LTYPE
  2
CONTINUOUS
 70
    64
  3
実線
 72
    65
 73
     0
 40
0.0
  0
LTYPE
  2
DASHED1
 70
    64
  3
--  --  --  --  --  --  --  --  
 72
    65
 73
     2
 40
2.5
 49
1.25
 49
-1.25
  0
LTYPE
  2
DASHED2
 70
    64
  3
----    ----    ----    ----    
 72
    65
 73
     2
 40
5.0
 49
2.5
 49
-2.5
  0
LTYPE
  2
DASHED3
 70
    64
  3
------  ------  ------  ------  
 72
    65
 73
     2
 40
5.0
 49
3.75
 49
-1.25
  0
LTYPE
  2
CENTER1
 70
    64
  3
----- - ----- - ----- - ----- - 
 72
    65
 73
     4
 40
10.0
 49
6.25
 49
-1.25
 49
1.25
 49
-1.25
  0
LTYPE
  2
CENTER2
 70
    64
  3
----------  --  ----------  --  
 72
    65
 73
     4
 40
20.0
 49
12.5
 49
-2.5
 49
2.5
 49
-2.5
  0
LTYPE
  2
PHANTOM1
 70
    64
  3
--- - - --- - - --- - - --- - - 
 72
    65
 73
     6
 40
10.0
 49
3.25
 49
-1.25
 49
1.25
 49
-1.25
 49
1.25
 49
-1.25
  0
LTYPE
  2
PHANTOM2
 70
    64
  3
--------  -  -  --------  -  -  
 72
    65
 73
     6
 40
20.0
 49
10.0
 49
-2.5
 49
1.25
 49
-2.5
 49
1.25
 49
-2.5
  0
LTYPE
  2
DOT
 70
    64
  3
-   -   -   -   -   -   -   -   
 72
    65
 73
     2
 40
2.5
 49
0.625
 49
-1.875
  0
LTYPE
  2
DUMMY
 70
    64
  3
ダミー
 72
    65
 73
     0
 40
0.0
  0
LTYPE
  2
RAND1
 70
    64
  3
ランダム線1
 72
    65
 73
     4
 40
10.0
 49
1.0
 49
-2.0
 49
3.0
 49
-4.0
  0
LTYPE
  2
RAND2
 70
    64
  3
ランダム線2
 72
    65
 73
     4
 40
14.0
 49
2.0
 49
-3.0
 49
4.0
 49
-5.0
  0
LTYPE
  2
RAND3
 70
    64
  3
ランダム線3
 72
    65
 73
     4
 40
18.0
 49
3.0
 49
-4.0
 49
5.0
 49
-6.0
  0
LTYPE
  2
RAND4
 70
    64
  3
ランダム線4
 72
    65
 73
     4
 40
22.0
 49
4.0
 49
-5.0
 49
6.0
 49
-7.0
  0
LTYPE
  2
RAND5
 70
    64
  3
ランダム線5
 72
    65
 73
     4
 40
26.0
 49
5.0
 49
-6.0
 49
7.0
 49
-8.0
  0
LTYPE
  2
LONG1
 70
    64
  3
----------  --  ----------  --  
 72
    65
 73
     4
 40
40.0
 49
32.5
 49
-2.5
 49
2.5
 49
-2.5
  0
LTYPE
  2
LONG2
 70
    64
  3
--------  -  -  --------  -  -  
 72
    65
 73
     6
 40
40.0
 49
30.0
 49
-2.5
 49
1.25
 49
-2.5
 49
1.25
 49
-2.5
  0
LTYPE
  2
LONG3
 70
    64
  3
+++++++++++++++..+++++++++++++++
 72
    65
 73
     2
 40
40.0
 49
37.5
 49
-2.5
  0
LTYPE
  2
LONG4
 70
    64
  3
+++++++++++++++..+++++++++++++++
 72
    65
 73
     2
 40
80.0
 49
75.0
 49
-5.0
  0
LTYPE
  2
LONG5
 70
    64
  3
----------  --  ----------  --  
 72
    65
 73
     4
 40
60.0
 49
37.5
 49
-7.5
 49
7.5
 49
-7.5
  0
LTYPE
  2
dashed
 70
   64
  3
-------   -------------   ------
 72
   65
 73
    2
 40
7.5
 49
6
 49
-1.5
  0
LTYPE
  2
dashed_spaced
 70
   64
  3
----        --------        ----
 72
   65
 73
    2
 40
12
 49
6
 49
-6
  0
LTYPE
  2
long_dashed_dotted
 70
   64
  3
------------- --- --------------
 72
   65
 73
    4
 40
15.25
 49
12
 49
-1.5
 49
0.25
 49
-1.5
  0
LTYPE
  2
long_dashed_double-dotted
 70
   64
  3
----------- --- --- ------------
 72
   65
 73
    6
 40
17
 49
12
 49
-1.5
 49
0.25
 49
-1.5
 49
0.25
 49
-1.5
  0
LTYPE
  2
long_dashed_triplicate-dotted
 70
   64
  3
--------- --- --- --- ----------
 72
   65
 73
    8
 40
18.75
 49
12
 49
-1.5
 49
0.25
 49
-1.5
 49
0.25
 49
-1.5
 49
0.25
 49
-1.5
  0
LTYPE
  2
dotted
 70
   64
  3
   -       -       -       -    
 72
   65
 73
    2
 40
1.75
 49
0.25
 49
-1.5
  0
LTYPE
  2
chain
 70
   64
  3
-------------- -- --------------
 72
   65
 73
    4
 40
18.5
 49
12
 49
-1.5
 49
3.5
 49
-1.5
  0
LTYPE
  2
chain_double_dash
 70
   64
  3
------------ -- -- -------------
 72
   65
 73
    6
 40
23.5
 49
12
 49
-1.5
 49
3.5
 49
-1.5
 49
3.5
 49
-1.5
  0
LTYPE
  2
dashed_dotted
 70
   64
  3
-----------     -     ----------
 72
   65
 73
    4
 40
9.25
 49
6
 49
-1.5
 49
0.25
 49
-1.5
  0
LTYPE
  2
double-dashed_dotted
 70
   64
  3
------   -----------   -   -----
 72
   65
 73
    6
 40
16.75
 49
6
 49
-1.5
 49
6
 49
-1.5
 49
0.25
 49
-1.5
  0
LTYPE
  2
dashed_double-dotted
 70
   64
  3
---------    -    -    ---------
 72
   65
 73
    6
 40
11
 49
6
 49
-1.5
 49
0.25
 49
-1.5
 49
0.25
 49
-1.5
  0
LTYPE
  2
double-dashed_double-dotted
 70
   64
  3
-----   ---------   -   -   ----
 72
   65
 73
    8
 40
18.5
 49
6
 49
-1.5
 49
6
 49
-1.5
 49
0.25
 49
-1.5
 49
0.25
 49
-1.5
  0
LTYPE
  2
dashed_triplicate-dotted
 70
   64
  3
-------    -    -    -    ------
 72
   65
 73
    8
 40
12.75
 49
6
 49
-1.5
 49
0.25
 49
-1.5
 49
0.25
 49
-1.5
 49
0.25
 49
-1.5
  0
LTYPE
  2
double-dashed_triplicate-dotted
 70
   64
  3
-----  ---------  -  -  -  -----
 72
   65
 73
   10
 40
20.25
 49
6
 49
-1.5
 49
6
 49
-1.5
 49
0.25
 49
-1.5
 49
0.25
 49
-1.5
 49
0.25
 49
-1.5
  0
LTYPE
  2
undefined
 70
   64
  3
--------------------------------
 72
   65
 73
    0
 40
0
  0
ENDTAB
  0
TABLE
  2
STYLE
  5
3
100
AcDbSymbolTable
 70
     1
  0
STYLE
  5
10
100
AcDbSymbolTableRecord
100
AcDbTextStyleTableRecord
  2
STANDARD
 70
     0
 40
0.0
 41
1.0
 50
0.0
 71
     0
 42
0.2
  3
txt
  4
bigfont.shx
  0
STYLE
  5
26
100
AcDbSymbolTableRecord
100
AcDbTextStyleTableRecord
  2
TATEGAKI
 70
    68
 40
0.0
 41
1.0
 50
0.0
 71
     0
 42
1.0
  3
txt
  4
bigfont.shx
  0
ENDTAB
  0
TABLE
  2
LAYER
 70
    3
  0
LAYER
  2
_0-0_
 70
   64
 62
    7
  6
CONTINUOUS
  0
LAYER
  2
_0-f_
 70
   64
 62
    7
  6
CONTINUOUS
  0
LAYER
  2
ADD_LINE
 70
   64
 62
    7
  6
CONTINUOUS
  0
ENDTAB
  0
ENDSEC
  0
SECTION
  2
BLOCKS
  0
ENDSEC
  0
SECTION
  2
ENTITIES
  0
LINE
  8
_0-0_
  6
CONTINUOUS
 62
    7
 10
7.7395941605969938
 20
185.80164246669273
 11
7.7395941605969938
 21
183.3016424666927
  0
LINE
  8
_0-0_
  6
CONTINUOUS
 62
    7
 10
7.7395941605969938
 20
183.3016424666927
 11
77.739594160596994
 21
183.3016424666927
  0
LINE
  8
_0-0_
  6
CONTINUOUS
 62
    7
 10
77.739594160596994
 20
183.3016424666927
 11
77.739594160596994
 21
185.80164246669273
  0
LINE
  8
_0-0_
  6
CONTINUOUS
 62
    7
 10
77.739594160596994
 20
185.80164246669273
 11
7.7395941605969938
 21
185.80164246669273
  0
LINE
  8
_0-0_
  6
CENTER1
 62
  152
 10
16.739594160597107
 20
190.90617464759885
 11
16.739594160597107
 21
177.6516435207273
  0
LINE
  8
_0-0_
  6
CONTINUOUS
 62
    7
 10
19.239594160598926
 20
175.80164246669611
 11
19.239594160598926
 21
180.10164246669609
  0
LINE
  8
_0-0_
  6
CONTINUOUS
 62
    7
 10
19.23959416059904
 20
180.10164246669609
 11
21.639594160598904
 21
182.50164246669604
  0
LINE
  8
_0-0_
  6
CONTINUOUS
 62
    7
 10
19.539594160598881
 20
182.50164246669604
 11
65.939594159947205
 21
182.50164246669604
  0
LINE
  8
_0-0_
  6
CONTINUOUS
 62
    7
 10
63.839594160598949
 20
182.50164246669604
 11
66.239594160598699
 21
180.10164246669609
  0
LINE
  8
_0-0_
  6
CONTINUOUS
 62
    7
 10
66.239594160598813
 20
180.10164246669609
 11
66.239594160598813
 21
175.80164246669611
  0
LINE
  8
_0-0_
  6
CONTINUOUS
 62
    7
 10
66.239594160598813
 20
175.80164246669611
 11
19.239594160598926
 21
175.80164246669611
  0
LINE
  8
_0-0_
  6
CONTINUOUS
 62
    7
 10
18.239594160598926
 20
172.80164246669599
 11
18.239594160598926
 21
150.48113439100592
  0
LINE
  8
_0-0_
  6
CONTINUOUS
 62
    7
 10
18.310961960854456
 20
147.2445024148879
 11
18.38530203003927
 21
155.10232086831797
  0
LINE
  8
_0-0_
  6
CONTINUOUS
 62
    7
 10
18.38530203003927
 20
155.10232086831797
 11
19.294942455239379
 21
162.80164246669608
  0
LINE
  8
_0-0_
  6
CONTINUOUS
 62
    7
 10
19.294942455238925
 20
162.80164246669597
 11
19.446381838617526
 21
163.55501740980054
  0
LINE
  8
_0-0_
  6
CONTINUOUS
 62
    7
 10
19.446381838617526
 20
163.55501740980054
 11
19.630282990057481
 21
164.25786878827603
  0
LINE
  8
_0-0_
  6
CONTINUOUS
 62
    7
 10
19.630282990057481
 20
164.25786878827603
 11
19.841203383070365
 21
164.88290500576736
  0
LINE
  8
_0-0_
  6
CONTINUOUS
 62
    7
 10
19.841203383070365
 20
164.88290500576736
 11
20.086626448717993
 21
165.45094029131596
  0
LINE
  8
_0-0_
  6
CONTINUOUS
 62
    7
 10
20.086626448717993
 20
165.45094029131596
 11
20.422560059286866
 21
166.04254058422424
  0
LINE
  8
_0-0_
  6
CONTINUOUS
 62
    7
 10
20.422560059286866
 20
166.04254058422424
 11
20.809430548284809
 21
166.5466573699656
  0
LINE
  8
_0-0_
  6
CONTINUOUS
 62
    7
 10
20.809430548284809
 20
166.5466573699656
 11
21.229508444508269
 21
166.94698943715397
  0
LINE
  8
_0-0_
  6
CONTINUOUS
 62
    7
 10
21.229508444508269
 20
166.94698943715397
 11
21.69522908805493
 21
167.26624732398005
  0
LINE
  8
_0-0_
  6
CONTINUOUS
 62
    7
 10
21.69522908805493
 20
167.26624732398005
 11
22.217491334096621
 21
167.51149851705378
  0
LINE
  8
_0-0_
  6
CONTINUOUS
 62
    7
 10
22.217491334096621
 20
167.51149851705378
 11
22.782364606790111
 21
167.67885342867788
  0
LINE
  8
_0-0_
  6
CONTINUOUS
 62
    7
 10
22.782364606790111
 20
167.67885342867788
 11
23.370565000359079
 21
167.77187593917125
  0
LINE
  8
_0-0_
  6
CONTINUOUS
 62
    7
 10
23.370565000359079
 20
167.77187593917125
 11
23.992684739877973
 21
167.80164246669611
  0
LINE
  8
_0-0_
  6
CONTINUOUS
 62
    7
 10
23.992684739877973
 20
167.80164246669611
 11
61.486503581321017
 21
167.80164246669611
  0
LINE
  8
_0-0_
  6
CONTINUOUS
 62
    7
 10
61.486503581321017
 20
167.80164246669611
 11
62.041875161142912
 21
167.77815028207118
  0
LINE
  8
_0-0_
  6
CONTINUOUS
 62
    7
 10
62.041875161142912
 20
167.77815028207118
 11
62.570654817146988
 21
167.70502376233782
  0
LINE
  8
_0-0_
  6
CONTINUOUS
 62
    7
 10
62.570654817146988
 20
167.70502376233782
 11
63.19641690370554
 21
167.53488972137725
  0
LINE
  8
_0-0_
  6
CONTINUOUS
 62
    7
 10
63.19641690370554
 20
167.53488972137725
 11
63.773049569017303
 21
167.27165683585559
  0
LINE
  8
_0-0_
  6
CONTINUOUS
 62
    7
 10
63.773049569017303
 20
167.27165683585559
 11
64.293785162775976
 21
166.91081480360799
  0
LINE
  8
_0-0_
  6
CONTINUOUS
 62
    7
 10
64.293785162775976
 20
166.91081480360799
 11
64.745081213011872
 21
166.45883472294071
  0
LINE
  8
_0-0_
  6
CONTINUOUS
 62
    7
 10
64.745081213011872
 20
166.45883472294071
 11
65.141549530580278
 21
165.90762250939068
  0
LINE
  8
_0-0_
  6
CONTINUOUS
 62
    7
 10
65.141549530580278
 20
165.90762250939068
 11
65.480915457951937
 21
165.26245142506798
  0
LINE
  8
_0-0_
  6
CONTINUOUS
 62
    7
 10
65.480915457951937
 20
165.26245142506798
 11
65.765071142342663
 21
164.52346156154556
  0
LINE
  8
_0-0_
  6
CONTINUOUS
 62
    7
 10
65.765071142342663
 20
164.52346156154556
 11
65.998658321386415
 21
163.698242949247
  0
LINE
  8
_0-0_
  6
CONTINUOUS
 62
    7
 10
65.998658321386415
 20
163.698242949247
 11
66.184245865958928
 21
162.80164246669597
  0
LINE
  8
_0-0_
  6
CONTINUOUS
 62
    7
 10
66.184245865958474
 20
162.80164246669597
 11
67.093886291158469
 21
155.10232086831792
  0
LINE
  8
_0-0_
  6
CONTINUOUS
 62
    7
 10
67.093886291158469
 20
155.10232086831792
 11
67.168226360343283
 21
147.24450241488785
  0
LINE
  8
_0-0_
  6
CONTINUOUS
 62
    7
 10
67.168226360343283
 20
147.24450241488785
 11
66.404716367452011
 21
139.49769354561846
  0
LINE
  8
_0-0_
  6
CONTINUOUS
 62
    7
 10
66.404716367452011
 20
139.49769354561846
 11
64.829543079296059
 21
132.12759330738794
  0
LINE
  8
_0-0_
  6
CONTINUOUS
 62
    7
 10
64.829543079295945
 20
132.12759330738794
 11
64.639180159254579
 21
131.50885041287052
  0
LINE
  8
_0-0_
  6
CONTINUOUS
 62
    7
 10
64.639180159254579
 20
131.50885041287052
 11
64.421217052381962
 21
130.93013869445809
  0
LINE
  8
_0-0_
  6
CONTINUOUS
 62
    7
 10
64.421217052381962
 20
130.93013869445809
 11
64.078702711747724
 21
130.20854050917256
  0
LINE
  8
_0-0_
  6
CONTINUOUS
 62
    7
 10
64.078702711747724
 20
130.20854050917256
 11
63.681737535673847
 21
129.56391316597512
  0
LINE
  8
_0-0_
  6
CONTINUOUS
 62
    7
 10
63.681737535673847
 20
129.56391316597512
 11
63.24890880739656
 21
129.02073571887723
  0
LINE
  8
_0-0_
  6
CONTINUOUS
 62
    7
 10
63.24890880739656
 20
129.02073571887723
 11
62.767392193505884
 21
128.55273398003601
  0
LINE
  8
_0-0_
  6
CONTINUOUS
 62
    7
 10
62.767392193505884
 20
128.55273398003601
 11
62.271238316652443
 21
128.18024284972137
  0
LINE
  8
_0-0_
  6
CONTINUOUS
 62
    7
 10
62.271238316652443
 20
128.18024284972137
 11
61.73959416059995
 21
127.87320384409816
  0
LINE
  8
_0-0_
  6
CONTINUOUS
 62
    7
 10
61.73959416059995
 20
127.87320384409816
 11
61.73959416059995
 21
125.80164246234045
  0
LINE
  8
_0-0_
  6
CONTINUOUS
 62
    7
 10
61.73959416059995
 20
125.80164246234045
 11
59.239594160598926
 21
125.80164246234045
  0
LINE
  8
_0-0_
  6
CONTINUOUS
 62
    7
 10
59.239594160598926
 20
125.80164246234045
 11
59.239594160598926
 21
167.71486413021489
  0
LINE
  8
_0-0_
  6
CONTINUOUS
 62
    7
 10
59.050271398137397
 20
167.74978214320075
 11
58.075715339982935
 21
167.80164246669611
  0
LINE
  8
_0-0_
  6
CONTINUOUS
 62
    7
 10
59.050271398137397
 20
167.74978214320075
 11
59.95553010115384
 21
167.58281946667682
  0
LINE
  8
_0-0_
  6
CONTINUOUS
 62
    7
 10
59.95553010115384
 20
167.58281946667682
 11
60.776184799398948
 21
167.28368187806603
  0
LINE
  8
_0-0_
  6
CONTINUOUS
 62
    7
 10
60.776184799398948
 20
167.28368187806603
 11
61.377893314897392
 21
166.92765186431831
  0
LINE
  8
_0-0_
  6
CONTINUOUS
 62
    7
 10
61.377893314897392
 20
166.92765186431831
 11
61.916143338273514
 21
166.46535744816134
  0
LINE
  8
_0-0_
  6
CONTINUOUS
 62
    7
 10
61.916143338273514
 20
166.46535744816134
 11
62.384939089432919
 21
165.89681823321183
  0
LINE
  8
_0-0_
  6
CONTINUOUS
 62
    7
 10
62.384939089432919
 20
165.89681823321183
 11
62.784927007854321
 21
165.21572046456919
  0
LINE
  8
_0-0_
  6
CONTINUOUS
 62
    7
 10
62.784927007854321
 20
165.21572046456919
 11
63.118894779549464
 21
164.42921225783812
  0
LINE
  8
_0-0_
  6
CONTINUOUS
 62
    7
 10
63.118894779549464
 20
164.42921225783812
 11
63.388126964105936
 21
163.55165237635799
  0
LINE
  8
_0-0_
  6
CONTINUOUS
 62
    7
 10
63.388126964105936
 20
163.55165237635799
 11
63.557896050657973
 21
162.80164246669597
  0
LINE
  8
_0-0_
  6
CONTINUOUS
 62
    7
 10
63.557896050657519
 20
162.80164246669597
 11
64.577945434748813
 21
155.09190882492646
  0
LINE
  8
_0-0_
  6
CONTINUOUS
 62
    7
 10
64.577945434748813
 20
155.09190882492646
 11
64.657058244828363
 21
147.18351337737636
  0
LINE
  8
_0-0_
  6
CONTINUOUS
 62
    7
 10
64.657058244828363
 20
147.18351337737636
 11
63.791825792412965
 21
139.41720064385538
  0
LINE
  8
_0-0_
  6
CONTINUOUS
 62
    7
 10
63.791825792412965
 20
139.41720064385538
 11
62.019527854225885
 21
132.12759330738794
  0
LINE
  8
_0-0_
  6
CONTINUOUS
 62
    7
 10
62.019527854225998
 20
132.12759330738794
 11
61.788552841928208
 21
131.47691212719701
  0
LINE
  8
_0-0_
  6
CONTINUOUS
 62
    7
 10
61.788552841928208
 20
131.47691212719701
 11
61.518508626473931
 21
130.8645289771523
  0
LINE
  8
_0-0_
  6
CONTINUOUS
 62
    7
 10
61.518508626473931
 20
130.8645289771523
 11
61.202758399414051
 21
130.28645360459285
  0
LINE
  8
_0-0_
  6
CONTINUOUS
 62
    7
 10
61.202758399414051
 20
130.28645360459285
 11
60.844254466793927
 21
129.7565824064161
  0
LINE
  8
_0-0_
  6
CONTINUOUS
 62
    7
 10
60.844254466793927
 20
129.7565824064161
 11
60.385703783050076
 21
129.21776245915009
  0
LINE
  8
_0-0_
  6
CONTINUOUS
 62
    7
 10
60.385703783050076
 20
129.21776245915009
 11
60.385703783050076
 21
167.42601646760613
  0
LINE
  8
_0-0_
  6
CONTINUOUS
 62
    7
 10
59.239594160598926
 20
166.23690584080813
 11
26.239594160598926
 21
166.23690584080813
  0
LINE
  8
_0-0_
  6
CONTINUOUS
 62
    7
 10
26.239594160598926
 20
167.71647137848035
 11
26.239594160598926
 21
125.80164246234045
  0
LINE
  8
_0-0_
  6
CONTINUOUS
 62
    7
 10
26.239594160598926
 20
125.80164246234045
 11
23.73959416059995
 21
125.80164246234045
  0
LINE
  8
_0-0_
  6
CONTINUOUS
 62
    7
 10
23.73959416059995
 20
125.80164246234045
 11
23.73959416059995
 21
127.87320384409816
  0
LINE
  8
_0-0_
  6
CONTINUOUS
 62
    7
 10
23.73959416059995
 20
127.87320384409816
 11
23.307010727380089
 21
128.11656889897
  0
LINE
  8
_0-0_
  6
CONTINUOUS
 62
    7
 10
23.307010727380089
 20
128.11656889897
 11
22.8495075500025
 21
128.43967455225663
  0
LINE
  8
_0-0_
  6
CONTINUOUS
 62
    7
 10
22.8495075500025
 20
128.43967455225663
 11
22.425324754355302
 21
128.81622154755382
  0
LINE
  8
_0-0_
  6
CONTINUOUS
 62
    7
 10
22.425324754355302
 20
128.81622154755382
 11
22.045275499114041
 21
129.23618951283771
  0
LINE
  8
_0-0_
  6
CONTINUOUS
 62
    7
 10
22.045275499114041
 20
129.23618951283771
 11
21.699322322045077
 21
129.70805190738986
  0
LINE
  8
_0-0_
  6
CONTINUOUS
 62
    7
 10
21.699322322045077
 20
129.70805190738986
 11
21.378897838550188
 21
130.24859082112835
  0
LINE
  8
_0-0_
  6
CONTINUOUS
 62
    7
 10
21.378897838550188
 20
130.24859082112835
 11
21.095472997737602
 21
130.84128802976238
  0
LINE
  8
_0-0_
  6
CONTINUOUS
 62
    7
 10
21.095472997737602
 20
130.84128802976238
 11
20.855709797124973
 21
131.46327066722915
  0
LINE
  8
_0-0_
  6
CONTINUOUS
 62
    7
 10
20.855709797124973
 20
131.46327066722915
 11
20.649645241902022
 21
132.12759330738794
  0
LINE
  8
_0-0_
  6
CONTINUOUS
 62
    7
 10
20.64964524190168
 20
132.127593307388
 11
19.074471953745729
 21
139.49769354561852
  0
LINE
  8
_0-0_
  6
CONTINUOUS
 62
    7
 10
19.074471953745729
 20
139.49769354561852
 11
18.310961960854456
 21
147.2445024148879
  0
LINE
  8
_0-0_
  6
CONTINUOUS
 62
    7
 10
20.822130076369376
 20
147.18351337737636
 11
20.901242886448927
 21
155.09190882492652
  0
LINE
  8
_0-0_
  6
CONTINUOUS
 62
    7
 10
20.901242886448927
 20
155.09190882492652
 11
21.921292270540221
 21
162.80164246669602
  0
LINE
  8
_0-0_
  6
CONTINUOUS
 62
    7
 10
21.92129227053988
 20
162.80164246669597
 11
22.127586913583855
 21
163.68741804552917
  0
LINE
  8
_0-0_
  6
CONTINUOUS
 62
    7
 10
22.127586913583855
 20
163.68741804552917
 11
22.386530976165091
 21
164.50197402653384
  0
LINE
  8
_0-0_
  6
CONTINUOUS
 62
    7
 10
22.386530976165091
 20
164.50197402653384
 11
22.700640984217102
 21
165.230812391222
  0
LINE
  8
_0-0_
  6
CONTINUOUS
 62
    7
 10
22.700640984217102
 20
165.230812391222
 11
23.074591531573901
 21
165.86664514383727
  0
LINE
  8
_0-0_
  6
CONTINUOUS
 62
    7
 10
23.074591531573901
 20
165.86664514383727
 11
23.510028873237843
 21
166.41024639298837
  0
LINE
  8
_0-0_
  6
CONTINUOUS
 62
    7
 10
23.510028873237843
 20
166.41024639298837
 11
24.003999739341907
 21
166.85736730491979
  0
LINE
  8
_0-0_
  6
CONTINUOUS
 62
    7
 10
24.003999739341907
 20
166.85736730491979
 11
24.574138880388773
 21
167.218380170107
  0
LINE
  8
_0-0_
  6
CONTINUOUS
 62
    7
 10
24.574138880388773
 20
167.218380170107
 11
25.203522525651465
 21
167.48636550932855
  0
LINE
  8
_0-0_
  6
CONTINUOUS
 62
    7
 10
25.203522525651465
 20
167.48636550932855
 11
25.884699666446977
 21
167.66716530613007
  0
LINE
  8
_0-0_
  6
CONTINUOUS
 62
    7
 10
25.884699666446977
 20
167.66716530613007
 11
26.621899247501574
 21
167.76958564929973
  0
LINE
  8
_0-0_
  6
CONTINUOUS
 62
    7
 10
26.621899247501574
 20
167.76958564929973
 11
27.403472981216055
 21
167.80164246669611
  0
LINE
  8
_0-0_
  6
CONTINUOUS
 62
    7
 10
25.093484538148005
 20
167.43951242118374
 11
25.093484538148005
 21
129.21776245915009
  0
LINE
  8
_0-0_
  6
CONTINUOUS
 62
    7
 10
25.093484538148005
 20
129.21776245915009
 11
24.650922106519602
 21
129.73544548567577
  0
LINE
  8
_0-0_
  6
CONTINUOUS
 62
    7
 10
24.650922106519602
 20
129.73544548567577
 11
24.253435369580984
 21
130.32456910556004
  0
LINE
  8
_0-0_
  6
CONTINUOUS
 62
    7
 10
24.253435369580984
 20
130.32456910556004
 11
23.818920100973173
 21
131.16961334358774
  0
LINE
  8
_0-0_
  6
CONTINUOUS
 62
    7
 10
23.818920100973173
 20
131.16961334358774
 11
23.459660466971968
 21
132.12759330738794
  0
LINE
  8
_0-0_
  6
CONTINUOUS
 62
    7
 10
23.459660466971854
 20
132.12759330738794
 11
21.687362528784774
 21
139.41720064385538
  0
LINE
  8
_0-0_
  6
CONTINUOUS
 62
    7
 10
21.687362528784774
 20
139.41720064385538
 11
20.822130076369376
 21
147.18351337737636
  0
LINE
  8
_0-0_
  6
CONTINUOUS
 62
    7
 10
18.599998569797094
 20
143.22925365993837
 11
17.694121887367714
 21
143.22925365993819
  0
LINE
  8
_0-0_
  6
CONTINUOUS
 62
    7
 10
17.694121887367714
 20
143.22925365993819
 11
17.119594160596648
 21
142.23414244681362
  0
LINE
  8
_0-0_
  6
CONTINUOUS
 62
    7
 10
17.119594160596648
 20
142.23414244681362
 11
17.119594160596648
 21
129.36914244681395
  0
LINE
  8
_0-0_
  6
CONTINUOUS
 62
    7
 10
17.119594160596648
 20
129.36914244681395
 11
17.694121887367714
 21
128.37403123368938
  0
LINE
  8
_0-0_
  6
CONTINUOUS
 62
    7
 10
17.694121887367714
 20
128.37403123368938
 11
17.469404087748558
 21
128.80248580833847
  0
LINE
  8
_0-0_
  6
CONTINUOUS
 62
    7
 10
17.469404087748558
 20
128.80248580833847
 11
17.2935346602153
 21
129.23511112244529
  0
LINE
  8
_0-0_
  6
CONTINUOUS
 62
    7
 10
17.2935346602153
 20
129.23511112244529
 11
17.176323045507729
 21
129.66663473602989
  0
LINE
  8
_0-0_
  6
CONTINUOUS
 62
    7
 10
17.176323045507729
 20
129.66663473602989
 11
17.122721701744354
 21
130.09891147863891
  0
LINE
  8
_0-0_
  6
CONTINUOUS
 62
    7
 10
17.122721701744354
 20
130.09891147863891
 11
17.119594160596648
 21
130.23093403697055
  0
LINE
  8
_0-0_
  6
CONTINUOUS
 62
    7
 10
17.119594160596648
 20
130.23093403697055
 11
17.160164695076332
 21
130.70763215299172
  0
LINE
  8
_0-0_
  6
CONTINUOUS
 62
    7
 10
17.160164695076332
 20
130.70763215299172
 11
17.277285092683201
 21
131.17808768030227
  0
LINE
  8
_0-0_
  6
CONTINUOUS
 62
    7
 10
17.277285092683201
 20
131.17808768030227
 11
17.458904019497709
 21
131.63683043065777
  0
LINE
  8
_0-0_
  6
CONTINUOUS
 62
    7
 10
17.458904019497709
 20
131.63683043065777
 11
17.694121887367714
 21
132.08783684025184
  0
LINE
  8
_0-0_
  6
CONTINUOUS
 62
    7
 10
17.694121887367714
 20
132.08783684025184
 11
20.661977199632247
 21
132.08783684025155
  0
LINE
  8
_0-0_
  6
CONTINUOUS
 62
    7
 10
17.694121887367714
 20
132.08783684025184
 11
17.363286214157142
 21
133.43345602264225
  0
LINE
  8
_0-0_
  6
CONTINUOUS
 62
    7
 10
17.363286214157142
 20
133.43345602264225
 11
17.165155533376605
 21
134.79096742184078
  0
LINE
  8
_0-0_
  6
CONTINUOUS
 62
    7
 10
17.165155533376605
 20
134.79096742184078
 11
17.119594160596648
 21
135.80164244681384
  0
LINE
  8
_0-0_
  6
CONTINUOUS
 62
    7
 10
17.119594160596648
 20
135.80164244681384
 11
17.207209924259473
 21
137.20711640673301
  0
LINE
  8
_0-0_
  6
CONTINUOUS
 62
    7
 10
17.207209924259473
 20
137.20711640673301
 11
17.450519876322574
 21
138.57697993232728
  0
LINE
  8
_0-0_
  6
CONTINUOUS
 62
    7
 10
17.450519876322574
 20
138.57697993232728
 11
17.694121887367714
 21
139.51544805337619
  0
LINE
  8
_0-0_
  6
CONTINUOUS
 62
    7
 10
17.694121887367714
 20
139.51544805337619
 11
19.071727596100345
 21
139.51544805337608
  0
LINE
  8
_0-0_
  6
CONTINUOUS
 62
    7
 10
17.694121887367714
 20
139.51544805337619
 11
17.469404087748558
 21
139.94390262802528
  0
LINE
  8
_0-0_
  6
CONTINUOUS
 62
    7
 10
17.469404087748558
 20
139.94390262802528
 11
17.2935346602153
 21
140.3765279421321
  0
LINE
  8
_0-0_
  6
CONTINUOUS
 62
    7
 10
17.2935346602153
 20
140.3765279421321
 11
17.176323045507729
 21
140.8080515557167
  0
LINE
  8
_0-0_
  6
CONTINUOUS
 62
    7
 10
17.176323045507729
 20
140.8080515557167
 11
17.122721701744354
 21
141.24032829832572
  0
LINE
  8
_0-0_
  6
CONTINUOUS
 62
    7
 10
17.122721701744354
 20
141.24032829832572
 11
17.119594160596648
 21
141.37235085665708
  0
LINE
  8
_0-0_
  6
CONTINUOUS
 62
    7
 10
17.119594160596648
 20
141.37235085665708
 11
17.160164695076332
 21
141.84904897267853
  0
LINE
  8
_0-0_
  6
CONTINUOUS
 62
    7
 10
17.160164695076332
 20
141.84904897267853
 11
17.277285092683201
 21
142.31950449998908
  0
LINE
  8
_0-0_
  6
CONTINUOUS
 62
    7
 10
17.277285092683201
 20
142.31950449998908
 11
17.458904019497709
 21
142.77824725034458
  0
LINE
  8
_0-0_
  6
CONTINUOUS
 62
    7
 10
17.458904019497709
 20
142.77824725034458
 11
17.694121887367714
 21
143.22925365993819
  0
LINE
  8
_0-0_
  6
CONTINUOUS
 62
    7
 10
17.119594160596648
 20
141.8016424468139
 11
16.619594160596762
 21
141.8016424468139
  0
LINE
  8
_0-0_
  6
CONTINUOUS
 62
    7
 10
15.119594160596648
 20
140.3016424468139
 11
15.119594160596648
 21
131.3016424468139
  0
LINE
  8
_0-0_
  6
CONTINUOUS
 62
    7
 10
16.619594160596762
 20
129.8016424468139
 11
17.119594160596648
 21
129.8016424468139
  0
LINE
  8
_0-0_
  6
CONTINUOUS
 62
    7
 10
17.694121887367714
 20
128.37403123368938
 11
22.942455557914514
 21
128.37403123368927
  0
LINE
  8
_0-0_
  6
CONTINUOUS
 62
    7
 10
25.093484538148005
 20
129.21776245915009
 11
26.239594160598926
 21
129.21776245915009
  0
LINE
  8
_0-0_
  6
CONTINUOUS
 62
    7
 10
26.239594160597107
 20
129.80164244681436
 11
28.739594160597107
 21
129.80164244681436
  0
LINE
  8
_0-0_
  6
CONTINUOUS
 62
    7
 10
28.739594160597107
 20
141.80164244681436
 11
26.239594160597107
 21
141.80164244681436
  0
LINE
  8
_0-0_
  6
CONTINUOUS
 62
    7
 10
28.739594160597107
 20
158.80164244661802
 11
28.739594160597107
 21
112.80164244681436
  0
LINE
  8
_0-0_
  6
CONTINUOUS
 62
    7
 10
30.739594160597107
 20
110.80164244681436
 11
54.739594160597107
 21
110.80164244681436
  0
LINE
  8
_0-0_
  6
CONTINUOUS
 62
    7
 10
56.739594160597107
 20
112.80164244681436
 11
56.739594160597107
 21
158.80164244661802
  0
LINE
  8
_0-0_
  6
CONTINUOUS
 62
    7
 10
54.739594160597107
 20
160.80164244681436
 11
30.739594160597107
 21
160.80164244681436
  0
LINE
  8
_0-0_
  6
CENTER1
 62
  152
 10
42.739594160597107
 20
145.48113439100416
 11
42.739594160597107
 21
188.3016424666929
  0
LINE
  8
_0-0_
  6
CENTER1
 62
  152
 10
68.739594160597107
 20
190.90617464759885
 11
68.739594160597107
 21
177.6516435207273
  0
LINE
  8
_0-0_
  6
CONTINUOUS
 62
    7
 10
66.239594160598813
 20
180.10164246669609
 11
19.239594160598926
 21
180.10164246669609
  0
LINE
  8
_0-0_
  6
CENTER1
 62
  152
 10
9.7395941606188217
 20
135.80164244681379
 11
85.83683013108714
 21
135.80164244681401
  0
LINE
  8
_0-0_
  6
CONTINUOUS
 62
    7
 10
78.511232758133815
 20
133.29534293553229
 11
78.681950001809582
 21
133.03151270661948
  0
LINE
  8
_0-0_
  6
CONTINUOUS
 62
    7
 10
78.681950001809582
 20
133.03151270661948
 11
78.73959416059995
 21
132.7571384280522
  0
LINE
  8
_0-0_
  6
CONTINUOUS
 62
    7
 10
78.73959416059995
 20
132.7571384280522
 11
78.73959416059995
 21
127.70893735791458
  0
LINE
  8
_0-0_
  6
CONTINUOUS
 62
    7
 10
78.73959416059995
 20
127.70893735791458
 11
78.681950001809582
 21
127.4345630793473
  0
LINE
  8
_0-0_
  6
CONTINUOUS
 62
    7
 10
78.681950001809582
 20
127.4345630793473
 11
78.511232758133815
 21
127.17073285043455
  0
LINE
  8
_0-0_
  6
CONTINUOUS
 62
    7
 10
78.511232758133815
 20
127.17073285043455
 11
78.234002997507559
 21
126.92758551891563
  0
LINE
  8
_0-0_
  6
CONTINUOUS
 62
    7
 10
78.234002997507559
 20
126.92758551891563
 11
77.860914504159496
 21
126.71446510038231
  0
LINE
  8
_0-0_
  6
CONTINUOUS
 62
    7
 10
77.860914504159496
 20
126.71446510038231
 11
77.40630485965869
 21
126.53956169299943
  0
LINE
  8
_0-0_
  6
CONTINUOUS
 62
    7
 10
77.40630485965869
 20
126.53956169299943
 11
76.88764445769516
 21
126.40959673662587
  0
LINE
  8
_0-0_
  6
CONTINUOUS
 62
    7
 10
76.88764445769516
 20
126.40959673662587
 11
76.324865126648319
 21
126.32956471164982
  0
LINE
  8
_0-0_
  6
CONTINUOUS
 62
    7
 10
76.324865126648319
 20
126.32956471164982
 11
75.73959416059995
 21
126.30254120390862
  0
LINE
  8
_0-0_
  6
CONTINUOUS
 62
    7
 10
75.73959416059995
 20
126.30254120390862
 11
70.73959416059995
 21
126.30254120390862
  0
LINE
  8
_0-0_
  6
CONTINUOUS
 62
    7
 10
70.73959416059995
 20
126.30254120390862
 11
70.73959416059995
 21
121.34872346779684
  0
LINE
  8
_0-0_
  6
CONTINUOUS
 62
    7
 10
70.73959416059995
 20
121.34872346779684
 11
68.739594160481715
 21
121.34872346779684
  0
LINE
  8
_0-0_
  6
CONTINUOUS
 62
    7
 10
68.739594160481715
 20
121.34872346779684
 11
68.739594160481715
 21
132.72460846663438
  0
LINE
  8
_0-0_
  6
CONTINUOUS
 62
    7
 10
70.739594160481715
 20
132.80354312594602
 11
70.735529582603704
 21
132.81005722215059
  0
LINE
  8
_0-0_
  6
CONTINUOUS
 62
    7
 10
70.735529582603704
 20
132.81005722215059
 11
70.166987110655214
 21
133.67325725001609
  0
LINE
  8
_0-0_
  6
CONTINUOUS
 62
    7
 10
70.166987110655214
 20
133.67325725001609
 11
69.832152419990621
 21
134.08861853524689
  0
LINE
  8
_0-0_
  6
CONTINUOUS
 62
    7
 10
69.832152419990621
 20
134.08861853524689
 11
69.41324141825578
 21
134.4859590777711
  0
LINE
  8
_0-0_
  6
CONTINUOUS
 62
    7
 10
69.41324141825578
 20
134.4859590777711
 11
69.047490352941622
 21
134.74178413013919
  0
LINE
  8
_0-0_
  6
CONTINUOUS
 62
    7
 10
69.047490352941622
 20
134.74178413013919
 11
68.613422008590987
 21
134.96202356825211
  0
LINE
  8
_0-0_
  6
CONTINUOUS
 62
    7
 10
68.613422008590987
 20
134.96202356825216
 11
65.799964588939474
 21
136.14907427659284
  0
LINE
  8
_0-0_
  6
CONTINUOUS
 62
    7
 10
66.030215122867162
 20
137.31333557814958
 11
70.04442009689717
 21
135.61966684705942
  0
LINE
  8
_0-0_
  6
CONTINUOUS
 62
    7
 10
70.04442009689717
 20
135.61966684707397
 11
70.338323209621421
 21
135.46670517939413
  0
LINE
  8
_0-0_
  6
CONTINUOUS
 62
    7
 10
70.338323209621421
 20
135.46670517939413
 11
70.557944293618448
 21
135.28843398187155
  0
LINE
  8
_0-0_
  6
CONTINUOUS
 62
    7
 10
70.557944293618448
 20
135.28843398187155
 11
70.693679757497989
 21
135.09264869794231
  0
LINE
  8
_0-0_
  6
CONTINUOUS
 62
    7
 10
70.693679757497989
 20
135.09264869794231
 11
70.739594160506613
 21
134.88791062706292
  0
LINE
  8
_0-0_
  6
CONTINUOUS
 62
    7
 10
70.739594160545607
 20
134.88791062706292
 11
70.73959416059995
 21
134.16353458205816
  0
LINE
  8
_0-0_
  6
CONTINUOUS
 62
    7
 10
70.73959416059995
 20
134.16353458205816
 11
75.73959416059995
 21
134.16353458205811
  0
LINE
  8
_0-0_
  6
CONTINUOUS
 62
    7
 10
75.73959416059995
 20
134.16353458205816
 11
76.324865126648319
 21
134.13651107431696
  0
LINE
  8
_0-0_
  6
CONTINUOUS
 62
    7
 10
76.324865126648319
 20
134.13651107431696
 11
76.88764445769516
 21
134.05647904934091
  0
LINE
  8
_0-0_
  6
CONTINUOUS
 62
    7
 10
76.88764445769516
 20
134.05647904934091
 11
77.40630485965869
 21
133.9265140929673
  0
LINE
  8
_0-0_
  6
CONTINUOUS
 62
    7
 10
77.40630485965869
 20
133.9265140929673
 11
77.860914504159496
 21
133.75161068558452
  0
LINE
  8
_0-0_
  6
CONTINUOUS
 62
    7
 10
77.860914504159496
 20
133.75161068558452
 11
78.234002997507559
 21
133.5384902670512
  0
LINE
  8
_0-0_
  6
CONTINUOUS
 62
    7
 10
78.234002997507559
 20
133.5384902670512
 11
78.511232758133815
 21
133.29534293553229
  0
LINE
  8
_0-0_
  6
CONTINUOUS
 62
    7
 10
78.73959416059995
 20
129.47554740203833
 11
78.681950001809582
 21
129.20117312347105
  0
LINE
  8
_0-0_
  6
CONTINUOUS
 62
    7
 10
78.681950001809582
 20
129.20117312347105
 11
78.511232758133815
 21
128.93734289455824
  0
LINE
  8
_0-0_
  6
CONTINUOUS
 62
    7
 10
78.511232758133815
 20
128.93734289455824
 11
78.234002997507559
 21
128.69419556303933
  0
LINE
  8
_0-0_
  6
CONTINUOUS
 62
    7
 10
78.234002997507559
 20
128.69419556303933
 11
77.860914504159496
 21
128.48107514450601
  0
LINE
  8
_0-0_
  6
CONTINUOUS
 62
    7
 10
77.860914504159496
 20
128.48107514450601
 11
77.40630485965869
 21
128.30617173712318
  0
LINE
  8
_0-0_
  6
CONTINUOUS
 62
    7
 10
77.40630485965869
 20
128.30617173712318
 11
76.88764445769516
 21
128.17620678074962
  0
LINE
  8
_0-0_
  6
CONTINUOUS
 62
    7
 10
76.88764445769516
 20
128.17620678074962
 11
76.324865126648319
 21
128.09617475577352
  0
LINE
  8
_0-0_
  6
CONTINUOUS
 62
    7
 10
76.324865126648319
 20
128.09617475577352
 11
75.73959416059995
 21
128.06915124803237
  0
LINE
  8
_0-0_
  6
CONTINUOUS
 62
    7
 10
75.73959416059995
 20
128.06915124803231
 11
70.739594160481715
 21
128.06915124803231
  0
LINE
  8
_0-0_
  6
CONTINUOUS
 62
    7
 10
70.739594160481715
 20
128.06915124803231
 11
70.349413516449431
 21
128.03520633139766
  0
LINE
  8
_0-0_
  6
CONTINUOUS
 62
    7
 10
70.349413516449431
 20
128.03520633139766
 11
69.974227295751461
 21
127.93467606560341
  0
LINE
  8
_0-0_
  6
CONTINUOUS
 62
    7
 10
69.974227295751461
 20
127.93467606560341
 11
69.628453694442442
 21
127.77142377238596
  0
LINE
  8
_0-0_
  6
CONTINUOUS
 62
    7
 10
69.628453694442442
 20
127.77142377238596
 11
69.325380598108609
 21
127.5517231458208
  0
LINE
  8
_0-0_
  6
CONTINUOUS
 62
    7
 10
69.325380598108609
 20
127.5517231458208
 11
69.076654935876604
 21
127.28401715777721
  0
LINE
  8
_0-0_
  6
CONTINUOUS
 62
    7
 10
69.076654935876604
 20
127.28401715777721
 11
68.891835095459101
 21
126.97859359924456
  0
LINE
  8
_0-0_
  6
CONTINUOUS
 62
    7
 10
68.891835095459101
 20
126.97859359924456
 11
68.77802359967518
 21
126.64718972629362
  0
LINE
  8
_0-0_
  6
CONTINUOUS
 62
    7
 10
68.77802359967518
 20
126.64718972629362
 11
68.739594160481715
 21
126.30254120390862
  0
LINE
  8
_0-0_
  6
CONTINUOUS
 62
    7
 10
68.628517105916785
 20
125.80931146649277
 11
68.712205314283096
 21
125.71930269188232
  0
LINE
  8
_0-0_
  6
CONTINUOUS
 62
    7
 10
68.712205314283096
 20
125.71930269188232
 11
68.739594160481715
 21
125.61176771051441
  0
LINE
  8
_0-0_
  6
CONTINUOUS
 62
    7
 10
68.628517105916785
 20
125.80931146649277
 11
68.335581264993039
 21
125.92088883607596
  0
LINE
  8
_0-0_
  6
CONTINUOUS
 62
    7
 10
68.335581264993039
 20
125.92088883607596
 11
68.07752362372878
 21
125.96502741590041
  0
LINE
  8
_0-0_
  6
CONTINUOUS
 62
    7
 10
68.07752362372878
 20
125.96502741590041
 11
64.434768224080358
 21
126.47953121312173
  0
LINE
  8
_0-0_
  6
CONTINUOUS
 62
    7
 10
64.434768224080358
 20
126.47953121310911
 11
64.140866287941435
 21
126.53073594589125
  0
LINE
  8
_0-0_
  6
CONTINUOUS
 62
    7
 10
64.140866287941435
 20
126.53073594589125
 11
63.921245655745452
 21
126.59041315490811
  0
LINE
  8
_0-0_
  6
CONTINUOUS
 62
    7
 10
63.921245655745452
 20
126.59041315490811
 11
63.785509812074224
 21
126.65595329864743
  0
LINE
  8
_0-0_
  6
CONTINUOUS
 62
    7
 10
63.785509812074224
 20
126.65595329864743
 11
63.739594160486263
 21
126.72449046349442
  0
LINE
  8
_0-0_
  6
CONTINUOUS
 62
    7
 10
63.739594160486263
 20
126.724491719757
 11
63.739594160486263
 21
129.65786589683694
  0
LINE
  8
_0-0_
  6
CONTINUOUS
 62
    7
 10
60.385703783050076
 20
129.21776245915009
 11
59.239594160598926
 21
129.21776245915009
  0
LINE
  8
_0-0_
  6
CONTINUOUS
 62
    7
 10
59.239594160597107
 20
129.80164244681436
 11
56.739594160597107
 21
129.80164244681436
  0
LINE
  8
_0-0_
  6
CONTINUOUS
 62
    7
 10
56.739594160597107
 20
141.80164244681436
 11
59.239594160597107
 21
141.80164244681436
  0
LINE
  8
_0-0_
  6
CONTINUOUS
 62
    7
 10
66.874549394880205
 20
143.18306563840315
 11
70.558639089727762
 21
143.18306563840321
  0
LINE
  8
_0-0_
  6
CONTINUOUS
 62
    7
 10
70.558639089727762
 20
143.18306563840321
 11
71.129594160599822
 21
142.19414244681377
  0
LINE
  8
_0-0_
  6
CONTINUOUS
 62
    7
 10
71.129594160599822
 20
142.19414244681377
 11
71.129594160599822
 21
134.16353458205811
  0
LINE
  8
_0-0_
  6
CONTINUOUS
 62
    7
 10
71.010127325942904
 20
134.16203189377552
 11
71.042523228735945
 21
134.4049083171933
  0
LINE
  8
_0-0_
  6
CONTINUOUS
 62
    7
 10
71.042523228735945
 20
134.4049083171933
 11
71.129594160599822
 21
135.80164244681384
  0
LINE
  8
_0-0_
  6
CONTINUOUS
 62
    7
 10
71.129594160599822
 20
135.80164244681384
 11
71.084316107666268
 21
136.80603266790047
  0
LINE
  8
_0-0_
  6
CONTINUOUS
 62
    7
 10
71.084316107666268
 20
136.80603266790047
 11
70.887417487084804
 21
138.15510248824683
  0
LINE
  8
_0-0_
  6
CONTINUOUS
 62
    7
 10
70.887417487084804
 20
138.15510248824683
 11
70.558639089727762
 21
139.49235404260855
  0
LINE
  8
_0-0_
  6
CONTINUOUS
 62
    7
 10
70.558639089727762
 20
139.49235404260855
 11
66.403890096704004
 21
139.4923540426085
  0
LINE
  8
_0-0_
  6
CONTINUOUS
 62
    7
 10
70.558639089727762
 20
139.49235404260855
 11
70.792394273615855
 21
139.94055590398875
  0
LINE
  8
_0-0_
  6
CONTINUOUS
 62
    7
 10
70.792394273615855
 20
139.94055590398875
 11
70.972883817286515
 21
140.39644599829847
  0
LINE
  8
_0-0_
  6
CONTINUOUS
 62
    7
 10
70.972883817286515
 20
140.39644599829847
 11
71.089275910827382
 21
140.86397603457249
  0
LINE
  8
_0-0_
  6
CONTINUOUS
 62
    7
 10
71.089275910827382
 20
140.86397603457249
 11
71.129594160599822
 21
141.33770984050585
  0
LINE
  8
_0-0_
  6
CONTINUOUS
 62
    7
 10
71.129594160599822
 20
141.33770984050585
 11
71.1264860943038
 21
141.46891086769745
  0
LINE
  8
_0-0_
  6
CONTINUOUS
 62
    7
 10
71.1264860943038
 20
141.46891086769745
 11
71.073218124260393
 21
141.89849966715138
  0
LINE
  8
_0-0_
  6
CONTINUOUS
 62
    7
 10
71.073218124260393
 20
141.89849966715138
 11
70.956735393530607
 21
142.32734002350355
  0
LINE
  8
_0-0_
  6
CONTINUOUS
 62
    7
 10
70.956735393530607
 20
142.32734002350355
 11
70.781959565402985
 21
142.75727523393493
  0
LINE
  8
_0-0_
  6
CONTINUOUS
 62
    7
 10
70.781959565402985
 20
142.75727523393493
 11
70.558639089727762
 21
143.18306563840321
  0
LINE
  8
_0-0_
  6
CONTINUOUS
 62
    7
 10
70.739594160599836
 20
146.63923399645182
 11
67.138978041879795
 21
146.63923399645182
  0
LINE
  8
_0-0_
  6
CONTINUOUS
 62
    7
 10
67.210278458083053
 20
148.40584404057552
 11
70.739594160599836
 21
148.40584404057552
  0
LINE
  8
_0-0_
  6
CONTINUOUS
 62
    7
 10
70.739594160599836
 20
148.40584404057552
 11
71.324865126648319
 21
148.43286754831672
  0
LINE
  8
_0-0_
  6
CONTINUOUS
 62
    7
 10
71.324865126648319
 20
148.43286754831672
 11
71.88764445769516
 21
148.51289957329277
  0
LINE
  8
_0-0_
  6
CONTINUOUS
 62
    7
 10
71.88764445769516
 20
148.51289957329277
 11
72.40630485965869
 21
148.64286452966638
  0
LINE
  8
_0-0_
  6
CONTINUOUS
 62
    7
 10
72.40630485965869
 20
148.64286452966638
 11
72.860914504159496
 21
148.81776793704921
  0
LINE
  8
_0-0_
  6
CONTINUOUS
 62
    7
 10
72.860914504159496
 20
148.81776793704921
 11
73.234002997507559
 21
149.03088835558253
  0
LINE
  8
_0-0_
  6
CONTINUOUS
 62
    7
 10
73.234002997507559
 20
149.03088835558253
 11
73.511232758133701
 21
149.27403568710145
  0
LINE
  8
_0-0_
  6
CONTINUOUS
 62
    7
 10
73.511232758133701
 20
149.27403568710145
 11
73.681950001809582
 21
149.53786591601425
  0
LINE
  8
_0-0_
  6
CONTINUOUS
 62
    7
 10
73.681950001809582
 20
149.53786591601425
 11
73.739594160599836
 21
149.81224019458148
  0
LINE
  8
_0-0_
  6
CONTINUOUS
 62
    7
 10
73.739594160599836
 20
148.04563015045778
 11
73.739594160599836
 21
153.09383122059529
  0
LINE
  8
_0-0_
  6
CONTINUOUS
 62
    7
 10
73.739594160599836
 20
153.09383122059535
 11
73.681950001809582
 21
153.36820549916263
  0
LINE
  8
_0-0_
  6
CONTINUOUS
 62
    7
 10
73.681950001809582
 20
153.36820549916263
 11
73.511232758133701
 21
153.63203572807538
  0
LINE
  8
_0-0_
  6
CONTINUOUS
 62
    7
 10
73.511232758133701
 20
153.63203572807538
 11
73.234002997507559
 21
153.87518305959429
  0
LINE
  8
_0-0_
  6
CONTINUOUS
 62
    7
 10
73.234002997507559
 20
153.87518305959429
 11
72.860914504159496
 21
154.08830347812761
  0
LINE
  8
_0-0_
  6
CONTINUOUS
 62
    7
 10
72.860914504159496
 20
154.08830347812761
 11
72.40630485965869
 21
154.26320688551044
  0
LINE
  8
_0-0_
  6
CONTINUOUS
 62
    7
 10
72.40630485965869
 20
154.26320688551044
 11
71.88764445769516
 21
154.39317184188405
  0
LINE
  8
_0-0_
  6
CONTINUOUS
 62
    7
 10
71.88764445769516
 20
154.39317184188405
 11
71.324865126648319
 21
154.4732038668601
  0
LINE
  8
_0-0_
  6
CONTINUOUS
 62
    7
 10
71.324865126648319
 20
154.4732038668601
 11
70.739594160599836
 21
154.50022737460131
  0
LINE
  8
_0-0_
  6
CONTINUOUS
 62
    7
 10
70.739594160599836
 20
154.50022737460131
 11
67.239594160598813
 21
154.50022737460131
  0
LINE
  8
_0-0_
  6
CONTINUOUS
 62
    7
 10
67.239594160598813
 20
150.48113439100592
 11
67.239594160598813
 21
172.80164246669599
  0
LINE
  8
_0-0_
  6
CONTINUOUS
 62
    7
 10
70.739594160599836
 20
146.63923399645182
 11
71.324865126648319
 21
146.66625750419303
  0
LINE
  8
_0-0_
  6
CONTINUOUS
 62
    7
 10
71.324865126648319
 20
146.66625750419303
 11
71.88764445769516
 21
146.74628952916908
  0
LINE
  8
_0-0_
  6
CONTINUOUS
 62
    7
 10
71.88764445769516
 20
146.74628952916908
 11
72.40630485965869
 21
146.87625448554263
  0
LINE
  8
_0-0_
  6
CONTINUOUS
 62
    7
 10
72.40630485965869
 20
146.87625448554263
 11
72.860914504159496
 21
147.05115789292552
  0
LINE
  8
_0-0_
  6
CONTINUOUS
 62
    7
 10
72.860914504159496
 20
147.05115789292552
 11
73.234002997507559
 21
147.26427831145884
  0
LINE
  8
_0-0_
  6
CONTINUOUS
 62
    7
 10
73.234002997507559
 20
147.26427831145884
 11
73.511232758133701
 21
147.50742564297775
  0
LINE
  8
_0-0_
  6
CONTINUOUS
 62
    7
 10
73.511232758133701
 20
147.50742564297775
 11
73.681950001809582
 21
147.7712558718905
  0
LINE
  8
_0-0_
  6
CONTINUOUS
 62
    7
 10
73.681950001809582
 20
147.7712558718905
 11
73.739594160599836
 21
148.04563015045778
  0
LINE
  8
_0-0_
  6
CONTINUOUS
 62
    7
 10
120.77341435681717
 20
167.80164246669611
 11
120.77341435681717
 21
172.80164246669599
  0
LINE
  8
_0-0_
  6
CONTINUOUS
 62
    7
 10
121.77341435681649
 20
175.80164246669611
 11
121.77341435681649
 21
180.10164246669609
  0
LINE
  8
_0-0_
  6
CONTINUOUS
 62
    7
 10
121.7734143568174
 20
180.10164246669609
 11
124.17341435681715
 21
182.50164246669604
  0
LINE
  8
_0-0_
  6
CONTINUOUS
 62
    7
 10
122.07341435681678
 20
182.50164246669604
 11
168.47341435681699
 21
182.50164246669604
  0
LINE
  8
_0-0_
  6
CONTINUOUS
 62
    7
 10
166.37341435681651
 20
182.50164246669604
 11
168.77341435681626
 21
180.10164246669609
  0
LINE
  8
_0-0_
  6
CONTINUOUS
 62
    7
 10
168.77341435681717
 20
180.10164246669609
 11
168.77341435681717
 21
175.80164246669611
  0
LINE
  8
_0-0_
  6
CONTINUOUS
 62
    7
 10
168.77341435681717
 20
175.80164246669611
 11
121.77341435681649
 21
175.80164246669611
  0
LINE
  8
_0-0_
  6
CONTINUOUS
 62
    7
 10
121.7734143568174
 20
180.10164246669609
 11
168.77341435681626
 21
180.10164246669609
  0
LINE
  8
_0-0_
  6
CENTER1
 62
  152
 10
171.27341435682354
 20
177.65164352072773
 11
171.27341435682354
 21
190.90617464759927
  0
LINE
  8
_0-0_
  6
CONTINUOUS
 62
    7
 10
180.2734143568249
 20
185.80164246669273
 11
110.2734143568249
 21
185.80164246669273
  0
LINE
  8
_0-0_
  6
CONTINUOUS
 62
    7
 10
110.2734143568249
 20
185.80164246669273
 11
110.2734143568249
 21
183.3016424666927
  0
LINE
  8
_0-0_
  6
CONTINUOUS
 62
    7
 10
110.2734143568249
 20
183.3016424666927
 11
180.2734143568249
 21
183.3016424666927
  0
LINE
  8
_0-0_
  6
CONTINUOUS
 62
    7
 10
180.2734143568249
 20
183.3016424666927
 11
180.2734143568249
 21
185.80164246669273
  0
LINE
  8
_0-0_
  6
CONTINUOUS
 62
    7
 10
177.7734143568174
 20
168.80164246669599
 11
164.24708031782757
 21
170.99967174803194
  0
LINE
  8
_0-0_
  6
CONTINUOUS
 62
    7
 10
164.24708031782757
 20
170.99967174803194
 11
164.00618475231795
 21
171.02659984926987
  0
LINE
  8
_0-0_
  6
CONTINUOUS
 62
    7
 10
164.00618475231795
 20
171.02659984926987
 11
163.45558801536163
 21
171.00324344879618
  0
LINE
  8
_0-0_
  6
CONTINUOUS
 62
    7
 10
163.45558801536163
 20
171.00324344879618
 11
162.89172070018765
 21
170.86570516900784
  0
LINE
  8
_0-0_
  6
CONTINUOUS
 62
    7
 10
162.89172070018765
 20
170.86570516900784
 11
162.3453400635135
 21
170.62028538729442
  0
LINE
  8
_0-0_
  6
CONTINUOUS
 62
    7
 10
162.3453400635135
 20
170.62028538729442
 11
161.81871458306762
 21
170.25614140543593
  0
LINE
  8
_0-0_
  6
CONTINUOUS
 62
    7
 10
161.81871458306762
 20
170.25614140543593
 11
161.4792782479775
 21
169.92655183802191
  0
LINE
  8
_0-0_
  6
CONTINUOUS
 62
    7
 10
161.4792782479775
 20
169.92655183802191
 11
161.17914373766689
 21
169.52921835181795
  0
LINE
  8
_0-0_
  6
CONTINUOUS
 62
    7
 10
161.17914373766689
 20
169.52921835181795
 11
160.9974756461404
 21
169.19553111415547
  0
LINE
  8
_0-0_
  6
CONTINUOUS
 62
    7
 10
160.9974756461404
 20
169.19553111415547
 11
160.85807342119722
 21
168.82846430881
  0
LINE
  8
_0-0_
  6
CONTINUOUS
 62
    7
 10
160.85807342119722
 20
168.82846430881
 11
160.77097098728643
 21
168.43293090169249
  0
LINE
  8
_0-0_
  6
CONTINUOUS
 62
    7
 10
160.77097098728643
 20
168.43293090169249
 11
160.74112265507699
 21
168.02348003258589
  0
LINE
  8
_0-0_
  6
CONTINUOUS
 62
    7
 10
160.74112265507699
 20
168.02348003258589
 11
160.74112265507699
 21
138.13052832476149
  0
LINE
  8
_0-0_
  6
CONTINUOUS
 62
    7
 10
160.09802936665972
 20
137.48139255364964
 11
142.36359517378605
 21
128.06915124803231
  0
LINE
  8
_0-0_
  6
CONTINUOUS
 62
    7
 10
142.36359517378605
 20
128.06915124803231
 11
144.23879004579408
 21
124.53593115978487
  0
LINE
  8
_0-0_
  6
CONTINUOUS
 62
    7
 10
143.30119260979018
 20
126.30254120390862
 11
154.78415789659425
 21
132.39692453793447
  0
LINE
  8
_0-0_
  6
CONTINUOUS
 62
    7
 10
154.78415789659425
 20
132.39692453793447
 11
153.84656046059013
 21
134.16353458205811
  0
LINE
  8
_0-0_
  6
CONTINUOUS
 62
    7
 10
154.4955289877995
 20
134.50796329691951
 11
138.16016570276713
 21
162.80164246669597
  0
LINE
  8
_0-0_
  6
CONTINUOUS
 62
    7
 10
138.16016570276713
 20
162.80164246669597
 11
137.57528842474983
 21
163.698242949247
  0
LINE
  8
_0-0_
  6
CONTINUOUS
 62
    7
 10
137.57528842474983
 20
163.698242949247
 11
136.90252299969438
 21
164.52346156154556
  0
LINE
  8
_0-0_
  6
CONTINUOUS
 62
    7
 10
136.90252299969438
 20
164.52346156154556
 11
136.15846478753735
 21
165.26245142506798
  0
LINE
  8
_0-0_
  6
CONTINUOUS
 62
    7
 10
136.15846478753735
 20
165.26245142506798
 11
135.35458474066525
 21
165.90762250939068
  0
LINE
  8
_0-0_
  6
CONTINUOUS
 62
    7
 10
135.35458474066525
 20
165.90762250939068
 11
134.50360746033584
 21
166.45883472294071
  0
LINE
  8
_0-0_
  6
CONTINUOUS
 62
    7
 10
134.50360746033584
 20
166.45883472294071
 11
133.62580300333707
 21
166.91081480360799
  0
LINE
  8
_0-0_
  6
CONTINUOUS
 62
    7
 10
133.62580300333707
 20
166.91081480360799
 11
132.71072657741013
 21
167.27165683585559
  0
LINE
  8
_0-0_
  6
CONTINUOUS
 62
    7
 10
132.71072657741013
 20
167.27165683585559
 11
131.79210913399515
 21
167.53488972137725
  0
LINE
  8
_0-0_
  6
CONTINUOUS
 62
    7
 10
131.79210913399515
 20
167.53488972137725
 11
130.88664845073697
 21
167.70502376233782
  0
LINE
  8
_0-0_
  6
CONTINUOUS
 62
    7
 10
130.88664845073697
 20
167.70502376233782
 11
130.18466363378604
 21
167.77815028207118
  0
LINE
  8
_0-0_
  6
CONTINUOUS
 62
    7
 10
130.18466363378604
 20
167.77815028207118
 11
129.49991166492759
 21
167.80164246669611
  0
LINE
  8
_0-0_
  6
CONTINUOUS
 62
    7
 10
129.49991166492759
 20
167.80164246669611
 11
120.77341435681717
 21
167.80164246669611
  0
LINE
  8
_0-0_
  6
CENTER1
 62
  152
 10
119.27341435682354
 20
177.65164352072773
 11
119.27341435682354
 21
190.90617464759927
  0
LINE
  8
_0-0_
  6
CENTER1
 62
  152
 10
145.27341435682354
 20
188.30164246669329
 11
145.27341435682354
 21
162.80164246669369
  0
LINE
  8
_0-0_
  6
CENTER1
 62
  152
 10
170.27341437391794
 20
165.80164244681436
 11
170.27341437391794
 21
105.80164244681436
  0
LINE
  8
_0-0_
  6
CONTINUOUS
 62
    7
 10
168.02390381337682
 20
126.05794181884204
 11
165.37703073206956
 21
126.66902061926385
  0
LINE
  8
_0-0_
  6
CONTINUOUS
 62
    7
 10
160.37710199200114
 20
125.92088883607596
 11
175.90795302312006
 21
128.24474661096326
  0
LINE
  8
_0-0_
  6
CONTINUOUS
 62
    7
 10
176.66591437391844
 20
132.11093085101913
 11
176.66591437391844
 21
139.49235404260855
  0
LINE
  8
_0-0_
  6
CONTINUOUS
 62
    7
 10
176.66591437391844
 20
139.49235404260855
 11
170.27341437391851
 21
143.18306563840321
  0
LINE
  8
_0-0_
  6
CONTINUOUS
 62
    7
 10
170.27341437391851
 20
143.18306563840321
 11
163.88091437391847
 21
139.49235404260855
  0
LINE
  8
_0-0_
  6
CONTINUOUS
 62
    7
 10
163.88091437391847
 20
139.49235404260855
 11
163.88091437391836
 21
132.11093085101919
  0
LINE
  8
_0-0_
  6
CONTINUOUS
 62
    7
 10
163.88091437391836
 20
132.11093085101919
 11
170.2734143739184
 21
128.42021925522442
  0
LINE
  8
_0-0_
  6
CONTINUOUS
 62
    7
 10
170.2734143739184
 20
128.42021925522442
 11
176.66591437391844
 21
132.11093085101913
  0
LINE
  8
_0-0_
  6
CONTINUOUS
 62
    7
 10
179.15665394659027
 20
130.37454080200939
 11
183.82463121104979
 21
137.84092618766022
  0
LINE
  8
_0-0_
  6
CONTINUOUS
 62
    7
 10
186.09937347500431
 20
139.96003439269384
 11
191.55287450393791
 21
142.8543848459708
  0
LINE
  8
_0-0_
  6
CONTINUOUS
 62
    7
 10
194.03991232818407
 20
150.96700728629389
 11
192.16471745628928
 21
154.50022737460131
  0
LINE
  8
_0-0_
  6
CONTINUOUS
 62
    7
 10
192.16471745628928
 20
154.50022737460131
 11
180.68175216948521
 21
148.40584404057552
  0
LINE
  8
_0-0_
  6
CONTINUOUS
 62
    7
 10
180.68175216948521
 20
148.40584404057552
 11
181.61934960548911
 21
146.63923399645182
  0
LINE
  8
_0-0_
  6
CONTINUOUS
 62
    7
 10
181.61934960548911
 20
146.63923399645182
 11
193.10231489229329
 21
152.73361733047773
  0
LINE
  8
_0-0_
  6
CONTINUOUS
 62
    7
 10
179.32842808831685
 20
148.51348447190048
 11
177.7734143568174
 21
168.80164246669599
  0
LINE
  8
_0-0_
  6
CONTINUOUS
 62
    7
 10
169.7734143568166
 20
170.10164246669629
 11
169.7734143568166
 21
172.80164246669599
  0
LINE
  8
_0-0_
  6
CONTINUOUS
 62
    7
 10
167.17246256141243
 20
144.62229688240916
 11
160.09802936665972
 21
137.48139255364964
  0
LINE
  8
_0-0_
  6
CONTINUOUS
 62
    7
 10
160.0063090875509
 20
125.85343948734618
 11
160.37710199200114
 21
125.92088883607596
  0
LINE
  8
_0-0_
  6
CONTINUOUS
 62
    7
 10
158.45219632955877
 20
125.2867778409485
 11
152.35141248617708
 21
122.0488933354257
  0
LINE
  8
_0-0_
  6
CENTER1
 62
  152
 10
140.27341437391794
 20
135.80164244681436
 11
200.27341437391794
 21
135.80164244681436
  0
LINE
  8
_0-0_
  6
CENTER1
 62
  152
 10
251.1616055320959
 20
135.80164244681441
 11
319.70772837920833
 21
135.80164244681396
  0
LINE
  8
_0-0_
  6
CONTINUOUS
 62
    7
 10
312.70772837920833
 20
135.80164244681384
 11
312.66216700642838
 21
134.79096742184078
  0
LINE
  8
_0-0_
  6
CONTINUOUS
 62
    7
 10
312.66216700642838
 20
134.79096742184078
 11
312.46153968715396
 21
133.42096853272403
  0
LINE
  8
_0-0_
  6
CONTINUOUS
 62
    7
 10
312.46153968715396
 20
133.42096853272403
 11
312.13320065243727
 21
132.08783684025184
  0
LINE
  8
_0-0_
  6
CONTINUOUS
 62
    7
 10
312.13320065243727
 20
132.08783684025184
 11
312.3575904148193
 21
131.66005545716695
  0
LINE
  8
_0-0_
  6
CONTINUOUS
 62
    7
 10
312.3575904148193
 20
131.66005545716695
 11
312.53378787958968
 21
131.22675695149564
  0
LINE
  8
_0-0_
  6
CONTINUOUS
 62
    7
 10
312.53378787958968
 20
131.22675695149564
 11
312.65058456602742
 21
130.79637453614509
  0
LINE
  8
_0-0_
  6
CONTINUOUS
 62
    7
 10
312.65058456602742
 20
130.79637453614509
 11
312.70460083806063
 21
130.36295659530185
  0
LINE
  8
_0-0_
  6
CONTINUOUS
 62
    7
 10
312.70460083806063
 20
130.36295659530185
 11
312.70772837920833
 21
130.23093403697055
  0
LINE
  8
_0-0_
  6
CONTINUOUS
 62
    7
 10
312.70772837920833
 20
130.23093403697055
 11
312.66713097528412
 21
129.75580789949515
  0
LINE
  8
_0-0_
  6
CONTINUOUS
 62
    7
 10
312.66713097528412
 20
129.75580789949515
 11
312.55003744712178
 21
129.28378039363855
  0
LINE
  8
_0-0_
  6
CONTINUOUS
 62
    7
 10
312.55003744712178
 20
129.28378039363855
 11
312.3687735611004
 21
128.82585035277486
  0
LINE
  8
_0-0_
  6
CONTINUOUS
 62
    7
 10
312.3687735611004
 20
128.82585035277486
 11
312.13320065243727
 21
128.37403123368944
  0
LINE
  8
_0-0_
  6
CONTINUOUS
 62
    7
 10
312.13320065243727
 20
128.37403123368944
 11
312.70772837920833
 21
129.36914244681401
  0
LINE
  8
_0-0_
  6
CONTINUOUS
 62
    7
 10
312.70772837920833
 20
129.36914244681401
 11
312.70772837920833
 21
142.23414244681368
  0
LINE
  8
_0-0_
  6
CONTINUOUS
 62
    7
 10
312.70772837920833
 20
142.23414244681368
 11
312.13320065243727
 21
143.22925365993825
  0
LINE
  8
_0-0_
  6
CONTINUOUS
 62
    7
 10
312.13320065243727
 20
143.22925365993825
 11
312.35759041481936
 21
142.80147227685353
  0
LINE
  8
_0-0_
  6
CONTINUOUS
 62
    7
 10
312.35759041481936
 20
142.80147227685353
 11
312.53378787958968
 21
142.36817377118234
  0
LINE
  8
_0-0_
  6
CONTINUOUS
 62
    7
 10
312.53378787958968
 20
142.36817377118234
 11
312.65058456602748
 21
141.93779135583185
  0
LINE
  8
_0-0_
  6
CONTINUOUS
 62
    7
 10
312.65058456602748
 20
141.93779135583185
 11
312.70460083806063
 21
141.50437341498866
  0
LINE
  8
_0-0_
  6
CONTINUOUS
 62
    7
 10
312.70460083806063
 20
141.50437341498866
 11
312.70772837920833
 21
141.37235085665708
  0
LINE
  8
_0-0_
  6
CONTINUOUS
 62
    7
 10
312.70772837920833
 20
141.37235085665708
 11
312.66713097528412
 21
140.89722471918179
  0
LINE
  8
_0-0_
  6
CONTINUOUS
 62
    7
 10
312.66713097528412
 20
140.89722471918179
 11
312.55003744712178
 21
140.42519721332542
  0
LINE
  8
_0-0_
  6
CONTINUOUS
 62
    7
 10
312.55003744712178
 20
140.42519721332542
 11
312.3687735611004
 21
139.96726717246162
  0
LINE
  8
_0-0_
  6
CONTINUOUS
 62
    7
 10
312.3687735611004
 20
139.96726717246162
 11
312.13320065243727
 21
139.51544805337608
  0
LINE
  8
_0-0_
  6
CONTINUOUS
 62
    7
 10
312.13320065243727
 20
139.51544805337608
 11
306.6622561059794
 21
139.51544805337585
  0
LINE
  8
_0-0_
  6
CONTINUOUS
 62
    7
 10
306.6622561059794
 20
139.51544805337585
 11
306.43786634359742
 21
139.94322943646068
  0
LINE
  8
_0-0_
  6
CONTINUOUS
 62
    7
 10
306.43786634359742
 20
139.94322943646068
 11
306.26166887882704
 21
140.37652794213204
  0
LINE
  8
_0-0_
  6
CONTINUOUS
 62
    7
 10
306.26166887882704
 20
140.37652794213204
 11
306.14487219238924
 21
140.80691035748259
  0
LINE
  8
_0-0_
  6
CONTINUOUS
 62
    7
 10
306.14487219238924
 20
140.80691035748259
 11
306.09085592035603
 21
141.24032829832578
  0
LINE
  8
_0-0_
  6
CONTINUOUS
 62
    7
 10
306.09085592035603
 20
141.24032829832578
 11
306.08772837920833
 21
141.37235085665714
  0
LINE
  8
_0-0_
  6
CONTINUOUS
 62
    7
 10
306.08772837920833
 20
141.37235085665714
 11
306.1283257831326
 21
141.84747699413248
  0
LINE
  8
_0-0_
  6
CONTINUOUS
 62
    7
 10
306.1283257831326
 20
141.84747699413248
 11
306.24541931129488
 21
142.31950449998902
  0
LINE
  8
_0-0_
  6
CONTINUOUS
 62
    7
 10
306.24541931129488
 20
142.31950449998902
 11
306.42668319731638
 21
142.77743454085277
  0
LINE
  8
_0-0_
  6
CONTINUOUS
 62
    7
 10
306.42668319731638
 20
142.77743454085277
 11
306.6622561059794
 21
143.22925365993825
  0
LINE
  8
_0-0_
  6
CONTINUOUS
 62
    7
 10
306.6622561059794
 20
143.22925365993825
 11
306.08772837920833
 21
142.23414244681373
  0
LINE
  8
_0-0_
  6
CONTINUOUS
 62
    7
 10
306.6622561059794
 20
143.22925365993825
 11
312.13320065243727
 21
143.22925365993825
  0
LINE
  8
_0-0_
  6
CONTINUOUS
 62
    7
 10
311.22732397000789
 20
143.22925365993842
 11
311.58772837920606
 21
150.48113439100592
  0
LINE
  8
_0-0_
  6
CONTINUOUS
 62
    7
 10
311.58772837920606
 20
150.48113439100592
 11
311.58772837920606
 21
172.80164246669602
  0
LINE
  8
_0-0_
  6
CONTINUOUS
 62
    7
 10
310.58772837920606
 20
175.80164246669614
 11
310.58772837920606
 21
180.10164246669609
  0
LINE
  8
_0-0_
  6
CONTINUOUS
 62
    7
 10
310.58772837920594
 20
180.10164246669609
 11
308.18772837920608
 21
182.50164246669607
  0
LINE
  8
_0-0_
  6
CONTINUOUS
 62
    7
 10
310.2877283792061
 20
182.50164246669607
 11
263.88772837985778
 21
182.50164246669607
  0
LINE
  8
_0-0_
  6
CONTINUOUS
 62
    7
 10
265.98772837920609
 20
182.50164246669607
 11
263.58772837920628
 21
180.10164246669609
  0
LINE
  8
_0-0_
  6
CONTINUOUS
 62
    7
 10
263.58772837920617
 20
180.10164246669609
 11
263.58772837920617
 21
175.80164246669614
  0
LINE
  8
_0-0_
  6
CONTINUOUS
 62
    7
 10
263.58772837920617
 20
175.80164246669614
 11
310.58772837920606
 21
175.80164246669614
  0
LINE
  8
_0-0_
  6
CONTINUOUS
 62
    7
 10
310.58772837920606
 20
180.10164246669609
 11
263.58772837920628
 21
180.10164246669609
  0
LINE
  8
_0-0_
  6
CONTINUOUS
 62
    7
 10
262.58772837920617
 20
172.80164246669602
 11
262.58772837920617
 21
154.50022737460131
  0
LINE
  8
_0-0_
  6
CONTINUOUS
 62
    7
 10
264.08772837920509
 20
154.50022737460131
 11
259.08772837920515
 21
154.50022737460131
  0
LINE
  8
_0-0_
  6
CONTINUOUS
 62
    7
 10
259.08772837920515
 20
154.50022737460131
 11
258.50245741315672
 21
154.4732038668601
  0
LINE
  8
_0-0_
  6
CONTINUOUS
 62
    7
 10
258.50245741315672
 20
154.4732038668601
 11
257.93967808210982
 21
154.39317184188405
  0
LINE
  8
_0-0_
  6
CONTINUOUS
 62
    7
 10
257.93967808210982
 20
154.39317184188405
 11
257.42101768014629
 21
154.2632068855105
  0
LINE
  8
_0-0_
  6
CONTINUOUS
 62
    7
 10
257.42101768014629
 20
154.2632068855105
 11
256.96640803564549
 21
154.08830347812761
  0
LINE
  8
_0-0_
  6
CONTINUOUS
 62
    7
 10
256.96640803564549
 20
154.08830347812761
 11
256.59331954229742
 21
153.87518305959429
  0
LINE
  8
_0-0_
  6
CONTINUOUS
 62
    7
 10
256.59331954229742
 20
153.87518305959429
 11
256.31608978167128
 21
153.63203572807538
  0
LINE
  8
_0-0_
  6
CONTINUOUS
 62
    7
 10
256.31608978167128
 20
153.63203572807538
 11
256.1453725379954
 21
153.36820549916263
  0
LINE
  8
_0-0_
  6
CONTINUOUS
 62
    7
 10
256.1453725379954
 20
153.36820549916263
 11
256.08772837920515
 21
153.09383122059535
  0
LINE
  8
_0-0_
  6
CONTINUOUS
 62
    7
 10
256.08772837920515
 20
153.09383122059535
 11
256.08772837920515
 21
148.04563015045778
  0
LINE
  8
_0-0_
  6
CONTINUOUS
 62
    7
 10
256.08772837920515
 20
148.04563015045778
 11
256.1453725379954
 21
147.77125587189056
  0
LINE
  8
_0-0_
  6
CONTINUOUS
 62
    7
 10
256.1453725379954
 20
147.77125587189056
 11
256.31608978167128
 21
147.50742564297775
  0
LINE
  8
_0-0_
  6
CONTINUOUS
 62
    7
 10
256.31608978167128
 20
147.50742564297775
 11
256.59331954229742
 21
147.26427831145884
  0
LINE
  8
_0-0_
  6
CONTINUOUS
 62
    7
 10
256.59331954229742
 20
147.26427831145884
 11
256.96640803564549
 21
147.05115789292552
  0
LINE
  8
_0-0_
  6
CONTINUOUS
 62
    7
 10
256.96640803564549
 20
147.05115789292552
 11
257.42101768014629
 21
146.87625448554269
  0
LINE
  8
_0-0_
  6
CONTINUOUS
 62
    7
 10
257.42101768014629
 20
146.87625448554269
 11
257.93967808210982
 21
146.74628952916908
  0
LINE
  8
_0-0_
  6
CONTINUOUS
 62
    7
 10
257.93967808210982
 20
146.74628952916908
 11
258.50245741315672
 21
146.66625750419303
  0
LINE
  8
_0-0_
  6
CONTINUOUS
 62
    7
 10
258.50245741315672
 20
146.66625750419303
 11
259.08772837920515
 21
146.63923399645182
  0
LINE
  8
_0-0_
  6
CONTINUOUS
 62
    7
 10
259.08772837920515
 20
146.63923399645182
 11
264.08772837920515
 21
146.63923399645182
  0
LINE
  8
_0-0_
  6
CONTINUOUS
 62
    7
 10
262.68834449792524
 20
146.63923399645182
 11
262.95277314492478
 21
143.18306563840326
  0
LINE
  8
_0-0_
  6
CONTINUOUS
 62
    7
 10
264.0877283792052
 20
143.18306563840315
 11
259.26868345007722
 21
143.18306563840326
  0
LINE
  8
_0-0_
  6
CONTINUOUS
 62
    7
 10
259.26868345007722
 20
143.18306563840326
 11
258.69772837920516
 21
142.19414244681383
  0
LINE
  8
_0-0_
  6
CONTINUOUS
 62
    7
 10
258.69772837920516
 20
142.19414244681383
 11
258.69772837920516
 21
129.4091424468138
  0
LINE
  8
_0-0_
  6
CONTINUOUS
 62
    7
 10
258.69772837920516
 20
129.4091424468138
 11
259.26868345007722
 21
128.42021925522442
  0
LINE
  8
_0-0_
  6
CONTINUOUS
 62
    7
 10
259.26868345007722
 20
128.42021925522442
 11
264.0877283792052
 21
128.42021925522448
  0
LINE
  8
_0-0_
  6
CONTINUOUS
 62
    7
 10
264.08772837930917
 20
126.7244920745278
 11
264.08554233178006
 21
126.72122828956481
  0
LINE
  8
_0-0_
  6
CONTINUOUS
 62
    7
 10
264.08554233178006
 20
126.72122828956481
 11
264.07907884552446
 21
126.71810721555801
  0
LINE
  8
_0-0_
  6
CONTINUOUS
 62
    7
 10
264.07907884552446
 20
126.71810721555801
 11
264.06862057108185
 21
126.71526533817735
  0
LINE
  8
_0-0_
  6
CONTINUOUS
 62
    7
 10
264.06862057108185
 20
126.71526533817735
 11
264.0546248524916
 21
126.71282693372552
  0
LINE
  8
_0-0_
  6
CONTINUOUS
 62
    7
 10
264.05462485249166
 20
126.71282693372268
 11
259.78290244290781
 21
126.10948765912622
  0
LINE
  8
_0-0_
  6
CONTINUOUS
 62
    7
 10
259.78290244290781
 20
126.1094876591311
 11
259.47364703208996
 21
126.05492363689558
  0
LINE
  8
_0-0_
  6
CONTINUOUS
 62
    7
 10
259.47364703208996
 20
126.05492363689558
 11
259.2485511476815
 21
125.99101135473984
  0
LINE
  8
_0-0_
  6
CONTINUOUS
 62
    7
 10
259.2485511476815
 20
125.99101135473984
 11
259.11866675233267
 21
125.92088883607596
  0
LINE
  8
_0-0_
  6
CONTINUOUS
 62
    7
 10
259.11866675233267
 20
125.92088883607596
 11
259.08772837929837
 21
125.85343948734618
  0
LINE
  8
_0-0_
  6
CONTINUOUS
 62
    7
 10
259.08772837920503
 20
126.30254120390867
 11
254.08772837920509
 21
126.30254120390867
  0
LINE
  8
_0-0_
  6
CONTINUOUS
 62
    7
 10
254.08772837920509
 20
126.30254120390862
 11
253.50245741315666
 21
126.32956471164982
  0
LINE
  8
_0-0_
  6
CONTINUOUS
 62
    7
 10
253.50245741315666
 20
126.32956471164982
 11
252.93967808210982
 21
126.40959673662593
  0
LINE
  8
_0-0_
  6
CONTINUOUS
 62
    7
 10
252.93967808210982
 20
126.40959673662593
 11
252.42101768014629
 21
126.53956169299948
  0
LINE
  8
_0-0_
  6
CONTINUOUS
 62
    7
 10
252.42101768014629
 20
126.53956169299948
 11
251.96640803564549
 21
126.71446510038231
  0
LINE
  8
_0-0_
  6
CONTINUOUS
 62
    7
 10
251.96640803564549
 20
126.71446510038231
 11
251.59331954229742
 21
126.92758551891563
  0
LINE
  8
_0-0_
  6
CONTINUOUS
 62
    7
 10
251.59331954229742
 20
126.92758551891563
 11
251.31608978167122
 21
127.17073285043455
  0
LINE
  8
_0-0_
  6
CONTINUOUS
 62
    7
 10
251.31608978167122
 20
127.17073285043455
 11
251.1453725379954
 21
127.4345630793473
  0
LINE
  8
_0-0_
  6
CONTINUOUS
 62
    7
 10
251.1453725379954
 20
127.4345630793473
 11
251.08772837920509
 21
127.70893735791458
  0
LINE
  8
_0-0_
  6
CONTINUOUS
 62
    7
 10
251.08772837920503
 20
127.70893735791458
 11
251.08772837920509
 21
132.75713842805226
  0
LINE
  8
_0-0_
  6
CONTINUOUS
 62
    7
 10
251.08772837920509
 20
132.75713842805226
 11
251.1453725379954
 21
133.03151270661948
  0
LINE
  8
_0-0_
  6
CONTINUOUS
 62
    7
 10
251.1453725379954
 20
133.03151270661948
 11
251.31608978167122
 21
133.29534293553229
  0
LINE
  8
_0-0_
  6
CONTINUOUS
 62
    7
 10
251.31608978167122
 20
133.29534293553229
 11
251.59331954229742
 21
133.5384902670512
  0
LINE
  8
_0-0_
  6
CONTINUOUS
 62
    7
 10
251.59331954229742
 20
133.5384902670512
 11
251.96640803564549
 21
133.75161068558452
  0
LINE
  8
_0-0_
  6
CONTINUOUS
 62
    7
 10
251.96640803564549
 20
133.75161068558452
 11
252.42101768014629
 21
133.92651409296735
  0
LINE
  8
_0-0_
  6
CONTINUOUS
 62
    7
 10
252.42101768014629
 20
133.92651409296735
 11
252.93967808210982
 21
134.05647904934096
  0
LINE
  8
_0-0_
  6
CONTINUOUS
 62
    7
 10
252.93967808210982
 20
134.05647904934096
 11
253.50245741315666
 21
134.13651107431701
  0
LINE
  8
_0-0_
  6
CONTINUOUS
 62
    7
 10
253.50245741315666
 20
134.13651107431701
 11
254.08772837920509
 21
134.16353458205822
  0
LINE
  8
_0-0_
  6
CONTINUOUS
 62
    7
 10
254.08772837920509
 20
134.16353458205816
 11
258.69772837920516
 21
134.16353458205816
  0
LINE
  8
_0-0_
  6
CONTINUOUS
 62
    7
 10
258.78263181317146
 20
134.42260281400036
 11
258.69772837920516
 21
135.80164244681384
  0
LINE
  8
_0-0_
  6
CONTINUOUS
 62
    7
 10
258.69772837920516
 20
135.80164244681384
 11
258.74300643213877
 21
136.80603266790052
  0
LINE
  8
_0-0_
  6
CONTINUOUS
 62
    7
 10
258.74300643213877
 20
136.80603266790052
 11
258.94238616606219
 21
138.16751232568214
  0
LINE
  8
_0-0_
  6
CONTINUOUS
 62
    7
 10
258.94238616606219
 20
138.16751232568214
 11
259.26868345007722
 21
139.49235404260861
  0
LINE
  8
_0-0_
  6
CONTINUOUS
 62
    7
 10
259.26868345007722
 20
139.49235404260861
 11
264.0877283792052
 21
139.49235404260855
  0
LINE
  8
_0-0_
  6
CONTINUOUS
 62
    7
 10
266.08772837920509
 20
139.80164244681384
 11
268.08772837920509
 21
139.80164244681384
  0
LINE
  8
_0-0_
  6
CONTINUOUS
 62
    7
 10
270.58772837920787
 20
141.80164244681436
 11
273.08772837920787
 21
141.80164244681436
  0
LINE
  8
_0-0_
  6
CONTINUOUS
 62
    7
 10
273.08772837920787
 20
129.80164244681436
 11
270.58772837920787
 21
129.80164244681436
  0
LINE
  8
_0-0_
  6
CONTINUOUS
 62
    7
 10
270.58772837920606
 20
125.80164246234045
 11
268.08772837920509
 21
125.80164246234045
  0
LINE
  8
_0-0_
  6
CONTINUOUS
 62
    7
 10
268.08772837920509
 20
125.80164246234045
 11
268.08772837920509
 21
168.02348003258589
  0
LINE
  8
_0-0_
  6
CONTINUOUS
 62
    7
 10
268.08772837920509
 20
168.02348003258589
 11
268.11087211050938
 21
168.42597217069797
  0
LINE
  8
_0-0_
  6
CONTINUOUS
 62
    7
 10
268.11087211050938
 20
168.42597217069797
 11
268.18353831861407
 21
168.82846430881003
  0
LINE
  8
_0-0_
  6
CONTINUOUS
 62
    7
 10
268.18353831861407
 20
168.82846430881003
 11
268.29738902172556
 21
169.19102581546449
  0
LINE
  8
_0-0_
  6
CONTINUOUS
 62
    7
 10
268.29738902172556
 20
169.19102581546449
 11
268.45287466732407
 21
169.52921835181797
  0
LINE
  8
_0-0_
  6
CONTINUOUS
 62
    7
 10
268.45287466732407
 20
169.52921835181797
 11
268.70956842117283
 21
169.92186962433138
  0
LINE
  8
_0-0_
  6
CONTINUOUS
 62
    7
 10
268.70956842117283
 20
169.92186962433138
 11
269.01833324756302
 21
170.25614140543595
  0
LINE
  8
_0-0_
  6
CONTINUOUS
 62
    7
 10
269.01833324756302
 20
170.25614140543595
 11
269.50829120202474
 21
170.61615752036082
  0
LINE
  8
_0-0_
  6
CONTINUOUS
 62
    7
 10
269.50829120202474
 20
170.61615752036082
 11
270.06288530823701
 21
170.86570516900787
  0
LINE
  8
_0-0_
  6
CONTINUOUS
 62
    7
 10
270.06288530823701
 20
170.86570516900787
 11
270.66032649105784
 21
171.00244286678841
  0
LINE
  8
_0-0_
  6
CONTINUOUS
 62
    7
 10
270.66032649105784
 20
171.00244286678841
 11
271.29743663682598
 21
171.0265998492699
  0
LINE
  8
_0-0_
  6
CONTINUOUS
 62
    7
 10
271.29743663682598
 20
171.0265998492699
 11
271.58772837920606
 21
170.99967174803197
  0
LINE
  8
_0-0_
  6
CONTINUOUS
 62
    7
 10
271.58772837920503
 20
170.99967174803223
 11
275.57323581406797
 21
170.56873289648323
  0
LINE
  8
_0-0_
  6
CONTINUOUS
 62
    7
 10
275.57323581406797
 20
170.56873289648323
 11
279.99835630520738
 21
170.27196152302022
  0
LINE
  8
_0-0_
  6
CONTINUOUS
 62
    7
 10
279.99835630520738
 20
170.27196152302022
 11
284.69414269906906
 21
170.12068809398946
  0
LINE
  8
_0-0_
  6
CONTINUOUS
 62
    7
 10
284.69414269906906
 20
170.12068809398946
 11
289.48131405934168
 21
170.12068809398943
  0
LINE
  8
_0-0_
  6
CONTINUOUS
 62
    7
 10
289.48131405934168
 20
170.12068809398943
 11
294.17710045320337
 21
170.27196152302014
  0
LINE
  8
_0-0_
  6
CONTINUOUS
 62
    7
 10
294.17710045320337
 20
170.27196152302014
 11
298.60222094434289
 21
170.56873289648311
  0
LINE
  8
_0-0_
  6
CONTINUOUS
 62
    7
 10
298.60222094434289
 20
170.56873289648311
 11
302.58772837920606
 21
170.99967174803206
  0
LINE
  8
_0-0_
  6
CONTINUOUS
 62
    7
 10
302.58772837920606
 20
170.99967174803197
 11
303.25687331385245
 21
171.02638696587499
  0
LINE
  8
_0-0_
  6
CONTINUOUS
 62
    7
 10
303.25687331385245
 20
171.02638696587499
 11
303.91577934257305
 21
170.92417720143601
  0
LINE
  8
_0-0_
  6
CONTINUOUS
 62
    7
 10
303.91577934257305
 20
170.92417720143601
 11
304.59300113439963
 21
170.65779319719152
  0
LINE
  8
_0-0_
  6
CONTINUOUS
 62
    7
 10
304.59300113439963
 20
170.65779319719152
 11
304.91824316934452
 21
170.45211096246257
  0
LINE
  8
_0-0_
  6
CONTINUOUS
 62
    7
 10
304.91824316934452
 20
170.45211096246257
 11
305.21991555484601
 21
170.19667419805202
  0
LINE
  8
_0-0_
  6
CONTINUOUS
 62
    7
 10
305.21991555484601
 20
170.19667419805202
 11
305.4870639216694
 21
169.89441590136374
  0
LINE
  8
_0-0_
  6
CONTINUOUS
 62
    7
 10
305.4870639216694
 20
169.89441590136374
 11
305.72254579385708
 21
169.52928550232602
  0
LINE
  8
_0-0_
  6
CONTINUOUS
 62
    7
 10
305.72254579385708
 20
169.52928550232602
 11
305.87657331535007
 21
169.1949025934347
  0
LINE
  8
_0-0_
  6
CONTINUOUS
 62
    7
 10
305.87657331535007
 20
169.1949025934347
 11
305.99494847004712
 21
168.81610541738996
  0
LINE
  8
_0-0_
  6
CONTINUOUS
 62
    7
 10
305.99494847004712
 20
168.81610541738996
 11
306.06372645137139
 21
168.43325515576097
  0
LINE
  8
_0-0_
  6
CONTINUOUS
 62
    7
 10
306.06372645137139
 20
168.43325515576097
 11
306.08772837920503
 21
168.02348003258589
  0
LINE
  8
_0-0_
  6
CONTINUOUS
 62
    7
 10
306.08772837920503
 20
168.02348003258589
 11
306.08772837920503
 21
125.80164246234045
  0
LINE
  8
_0-0_
  6
CONTINUOUS
 62
    7
 10
306.08772837920503
 20
125.80164246234045
 11
303.58772837920606
 21
125.80164246234045
  0
LINE
  8
_0-0_
  6
CONTINUOUS
 62
    7
 10
303.58772837920606
 20
125.80164246234045
 11
303.58772837920606
 21
166.23690584080816
  0
LINE
  8
_0-0_
  6
CONTINUOUS
 62
    7
 10
303.58772837920606
 20
166.23690584080816
 11
270.58772837920606
 21
166.23690584080816
  0
LINE
  8
_0-0_
  6
CONTINUOUS
 62
    7
 10
270.58772837920606
 20
166.23690584080816
 11
270.58772837920606
 21
125.80164246234045
  0
LINE
  8
_0-0_
  6
CONTINUOUS
 62
    7
 10
268.08772837920509
 20
127.87320384409816
 11
267.55608422315254
 21
128.18024284972137
  0
LINE
  8
_0-0_
  6
CONTINUOUS
 62
    7
 10
267.55608422315254
 20
128.18024284972137
 11
267.0599303462991
 21
128.55273398003601
  0
LINE
  8
_0-0_
  6
CONTINUOUS
 62
    7
 10
267.0599303462991
 20
128.55273398003601
 11
266.57841373240842
 21
129.02073571887729
  0
LINE
  8
_0-0_
  6
CONTINUOUS
 62
    7
 10
266.57841373240842
 20
129.02073571887729
 11
266.14558500413114
 21
129.56391316597512
  0
LINE
  8
_0-0_
  6
CONTINUOUS
 62
    7
 10
266.14558500413114
 20
129.56391316597512
 11
266.08437939652981
 21
129.65277379198454
  0
LINE
  8
_0-0_
  6
CONTINUOUS
 62
    7
 10
266.08772837920509
 20
131.80164244681384
 11
268.08772837920509
 21
131.80164244681384
  0
LINE
  8
_0-0_
  6
CONTINUOUS
 62
    7
 10
264.0877283792052
 20
132.11093085101913
 11
259.26868345007722
 21
132.11093085101913
  0
LINE
  8
_0-0_
  6
CONTINUOUS
 62
    7
 10
259.26868345007722
 20
132.11093085101913
 11
259.03457543318967
 21
131.66192133391786
  0
LINE
  8
_0-0_
  6
CONTINUOUS
 62
    7
 10
259.03457543318967
 20
131.66192133391786
 11
258.85443872251847
 21
131.20683889532916
  0
LINE
  8
_0-0_
  6
CONTINUOUS
 62
    7
 10
258.85443872251847
 20
131.20683889532916
 11
258.73807333133664
 21
130.73774665573529
  0
LINE
  8
_0-0_
  6
CONTINUOUS
 62
    7
 10
258.73807333133664
 20
130.73774665573529
 11
258.69772837920516
 21
130.26557505312178
  0
LINE
  8
_0-0_
  6
CONTINUOUS
 62
    7
 10
258.69772837920516
 20
130.26557505312178
 11
258.70083644550124
 21
130.13437402593024
  0
LINE
  8
_0-0_
  6
CONTINUOUS
 62
    7
 10
258.70083644550124
 20
130.13437402593024
 11
258.75451676401792
 21
129.70365112343063
  0
LINE
  8
_0-0_
  6
CONTINUOUS
 62
    7
 10
258.75451676401792
 20
129.70365112343063
 11
258.87058714627437
 21
129.27594487012414
  0
LINE
  8
_0-0_
  6
CONTINUOUS
 62
    7
 10
258.87058714627437
 20
129.27594487012414
 11
259.0456889721271
 21
128.84534065357684
  0
LINE
  8
_0-0_
  6
CONTINUOUS
 62
    7
 10
259.0456889721271
 20
128.84534065357684
 11
259.26868345007722
 21
128.42021925522442
  0
LINE
  8
_0-0_
  6
CONTINUOUS
 62
    7
 10
259.08772837929644
 20
128.7336426317039
 11
259.08772837920503
 21
121.34872346779684
  0
LINE
  8
_0-0_
  6
CONTINUOUS
 62
    7
 10
259.08772837920503
 20
121.34872346779684
 11
261.08772837932327
 21
121.34872346779684
  0
LINE
  8
_0-0_
  6
CONTINUOUS
 62
    7
 10
261.08772837932327
 20
121.34872346779684
 11
261.08772837932327
 21
125.61176771051441
  0
LINE
  8
_0-0_
  6
CONTINUOUS
 62
    7
 10
261.08772837932327
 20
125.61176771051447
 11
261.11511722552189
 21
125.71930269188238
  0
LINE
  8
_0-0_
  6
CONTINUOUS
 62
    7
 10
261.11511722552189
 20
125.71930269188238
 11
261.1988054338882
 21
125.80931146649283
  0
LINE
  8
_0-0_
  6
CONTINUOUS
 62
    7
 10
261.1988054338882
 20
125.80931146649283
 11
261.49174127481194
 21
125.92088883607602
  0
LINE
  8
_0-0_
  6
CONTINUOUS
 62
    7
 10
261.49174127481194
 20
125.92088883607596
 11
261.7497989160762
 21
125.96502741590047
  0
LINE
  8
_0-0_
  6
CONTINUOUS
 62
    7
 10
261.7497989160762
 20
125.96502741590047
 11
265.39255431572468
 21
126.47953121312179
  0
LINE
  8
_0-0_
  6
CONTINUOUS
 62
    7
 10
265.39255431572468
 20
126.47953121310911
 11
265.6864586050325
 21
126.53073645399837
  0
LINE
  8
_0-0_
  6
CONTINUOUS
 62
    7
 10
265.6864586050325
 20
126.53073645399837
 11
265.90608014082517
 21
126.59041430250409
  0
LINE
  8
_0-0_
  6
CONTINUOUS
 62
    7
 10
265.90608014082517
 20
126.59041430250409
 11
266.04181522490319
 21
126.65595514184099
  0
LINE
  8
_0-0_
  6
CONTINUOUS
 62
    7
 10
266.04181522490319
 20
126.65595514184099
 11
266.08772837931872
 21
126.72449297601963
  0
LINE
  8
_0-0_
  6
CONTINUOUS
 62
    7
 10
266.08772837931878
 20
126.72449171975705
 11
266.08772837920509
 21
152.73361733047761
  0
LINE
  8
_0-0_
  6
CONTINUOUS
 62
    7
 10
266.08772837920503
 20
152.73361733047761
 11
266.04929894001145
 21
153.07826585286261
  0
LINE
  8
_0-0_
  6
CONTINUOUS
 62
    7
 10
266.04929894001145
 20
153.07826585286261
 11
265.93548744422759
 21
153.4096697258135
  0
LINE
  8
_0-0_
  6
CONTINUOUS
 62
    7
 10
265.93548744422759
 20
153.4096697258135
 11
265.75066760381014
 21
153.71509328434615
  0
LINE
  8
_0-0_
  6
CONTINUOUS
 62
    7
 10
265.75066760381014
 20
153.71509328434615
 11
265.50194194157814
 21
153.98279927238968
  0
LINE
  8
_0-0_
  6
CONTINUOUS
 62
    7
 10
265.50194194157814
 20
153.98279927238968
 11
265.19886884524425
 21
154.2024998989549
  0
LINE
  8
_0-0_
  6
CONTINUOUS
 62
    7
 10
265.19886884524425
 20
154.2024998989549
 11
264.85309524393529
 21
154.36575219217229
  0
LINE
  8
_0-0_
  6
CONTINUOUS
 62
    7
 10
264.85309524393529
 20
154.36575219217229
 11
264.47790902323732
 21
154.4662824579666
  0
LINE
  8
_0-0_
  6
CONTINUOUS
 62
    7
 10
264.47790902323732
 20
154.4662824579666
 11
264.08772837920509
 21
154.50022737460131
  0
LINE
  8
_0-0_
  6
CONTINUOUS
 62
    7
 10
264.08772837920515
 20
152.73361733047773
 11
264.08772837930917
 21
126.72449171975705
  0
LINE
  8
_0-0_
  6
CONTINUOUS
 62
    7
 10
259.26868345007722
 20
132.11093085101913
 11
259.0265962591551
 21
133.04356318118693
  0
LINE
  8
_0-0_
  6
CONTINUOUS
 62
    7
 10
259.0265962591551
 20
133.04356318118693
 11
258.78263181317146
 21
134.42260281400036
  0
LINE
  8
_0-0_
  6
CONTINUOUS
 62
    7
 10
258.69772837920516
 20
132.39692453793447
 11
254.08772837920509
 21
132.39692453793447
  0
LINE
  8
_0-0_
  6
CONTINUOUS
 62
    7
 10
254.08772837920509
 20
132.39692453793447
 11
253.50245741315666
 21
132.36990103019326
  0
LINE
  8
_0-0_
  6
CONTINUOUS
 62
    7
 10
253.50245741315666
 20
132.36990103019326
 11
252.93967808210982
 21
132.28986900521721
  0
LINE
  8
_0-0_
  6
CONTINUOUS
 62
    7
 10
252.93967808210982
 20
132.28986900521721
 11
252.42101768014629
 21
132.15990404884366
  0
LINE
  8
_0-0_
  6
CONTINUOUS
 62
    7
 10
252.42101768014629
 20
132.15990404884366
 11
251.96640803564549
 21
131.98500064146083
  0
LINE
  8
_0-0_
  6
CONTINUOUS
 62
    7
 10
251.96640803564549
 20
131.98500064146083
 11
251.59331954229742
 21
131.77188022292751
  0
LINE
  8
_0-0_
  6
CONTINUOUS
 62
    7
 10
251.59331954229742
 20
131.77188022292751
 11
251.31608978167122
 21
131.52873289140859
  0
LINE
  8
_0-0_
  6
CONTINUOUS
 62
    7
 10
251.31608978167122
 20
131.52873289140859
 11
251.1453725379954
 21
131.26490266249579
  0
LINE
  8
_0-0_
  6
CONTINUOUS
 62
    7
 10
251.1453725379954
 20
131.26490266249579
 11
251.08772837920509
 21
130.99052838392851
  0
LINE
  8
_0-0_
  6
CONTINUOUS
 62
    7
 10
259.26868345007722
 20
139.49235404260861
 11
259.04568897212704
 21
139.91747544096097
  0
LINE
  8
_0-0_
  6
CONTINUOUS
 62
    7
 10
259.04568897212704
 20
139.91747544096097
 11
258.87058714627437
 21
140.34807965750815
  0
LINE
  8
_0-0_
  6
CONTINUOUS
 62
    7
 10
258.87058714627437
 20
140.34807965750815
 11
258.75451676401792
 21
140.77578591081465
  0
LINE
  8
_0-0_
  6
CONTINUOUS
 62
    7
 10
258.75451676401792
 20
140.77578591081465
 11
258.70083644550124
 21
141.20650881331426
  0
LINE
  8
_0-0_
  6
CONTINUOUS
 62
    7
 10
258.70083644550124
 20
141.20650881331426
 11
258.69772837920516
 21
141.33770984050591
  0
LINE
  8
_0-0_
  6
CONTINUOUS
 62
    7
 10
258.69772837920516
 20
141.33770984050591
 11
258.73807333133664
 21
141.80988144311937
  0
LINE
  8
_0-0_
  6
CONTINUOUS
 62
    7
 10
258.73807333133664
 20
141.80988144311937
 11
258.85443872251847
 21
142.27897368271323
  0
LINE
  8
_0-0_
  6
CONTINUOUS
 62
    7
 10
258.85443872251847
 20
142.27897368271323
 11
259.03457543318967
 21
142.73405612130193
  0
LINE
  8
_0-0_
  6
CONTINUOUS
 62
    7
 10
259.03457543318967
 20
142.73405612130193
 11
259.26868345007722
 21
143.18306563840326
  0
LINE
  8
_0-0_
  6
CONTINUOUS
 62
    7
 10
259.08772837920515
 20
152.73361733047767
 11
258.50245741315672
 21
152.70659382273647
  0
LINE
  8
_0-0_
  6
CONTINUOUS
 62
    7
 10
258.50245741315672
 20
152.70659382273647
 11
257.93967808210982
 21
152.62656179776036
  0
LINE
  8
_0-0_
  6
CONTINUOUS
 62
    7
 10
257.93967808210982
 20
152.62656179776036
 11
257.42101768014629
 21
152.4965968413868
  0
LINE
  8
_0-0_
  6
CONTINUOUS
 62
    7
 10
257.42101768014629
 20
152.4965968413868
 11
256.96640803564549
 21
152.32169343400403
  0
LINE
  8
_0-0_
  6
CONTINUOUS
 62
    7
 10
256.96640803564549
 20
152.32169343400403
 11
256.59331954229742
 21
152.10857301547065
  0
LINE
  8
_0-0_
  6
CONTINUOUS
 62
    7
 10
256.59331954229742
 20
152.10857301547065
 11
256.31608978167128
 21
151.8654256839518
  0
LINE
  8
_0-0_
  6
CONTINUOUS
 62
    7
 10
256.31608978167128
 20
151.8654256839518
 11
256.1453725379954
 21
151.60159545503893
  0
LINE
  8
_0-0_
  6
CONTINUOUS
 62
    7
 10
256.1453725379954
 20
151.60159545503893
 11
256.08772837920515
 21
151.32722117647165
  0
LINE
  8
_0-0_
  6
CONTINUOUS
 62
    7
 10
259.08772837920515
 20
152.73361733047773
 11
264.08772837920515
 21
152.73361733047773
  0
LINE
  8
_0-0_
  6
CONTINUOUS
 62
    7
 10
273.08772837920787
 20
158.80164244661808
 11
273.08772837920787
 21
112.80164244681436
  0
LINE
  8
_0-0_
  6
CONTINUOUS
 62
    7
 10
275.08772837920787
 20
110.80164244681436
 11
299.08772837920787
 21
110.80164244681436
  0
LINE
  8
_0-0_
  6
CONTINUOUS
 62
    7
 10
301.08772837920787
 20
112.80164244681436
 11
301.08772837920787
 21
158.80164244661808
  0
LINE
  8
_0-0_
  6
CONTINUOUS
 62
    7
 10
299.08772837920787
 20
160.80164244681436
 11
275.08772837920787
 21
160.80164244681436
  0
LINE
  8
_0-0_
  6
CONTINUOUS
 62
    7
 10
268.08772837920503
 20
165.21101119045386
 11
268.15497989779374
 21
165.91150860237693
  0
LINE
  8
_0-0_
  6
CONTINUOUS
 62
    7
 10
268.15497989779374
 20
165.91150860237693
 11
268.35415001541554
 21
166.58508629160329
  0
LINE
  8
_0-0_
  6
CONTINUOUS
 62
    7
 10
268.35415001541554
 20
166.58508629160329
 11
268.67758473614612
 21
167.20585904528264
  0
LINE
  8
_0-0_
  6
CONTINUOUS
 62
    7
 10
268.67758473614612
 20
167.20585904528264
 11
269.11285464505215
 21
167.7499709146245
  0
LINE
  8
_0-0_
  6
CONTINUOUS
 62
    7
 10
269.11285464505215
 20
167.7499709146245
 11
269.64323256363639
 21
168.1965119856315
  0
LINE
  8
_0-0_
  6
CONTINUOUS
 62
    7
 10
269.64323256363639
 20
168.1965119856315
 11
270.24833636592723
 21
168.52832193536796
  0
LINE
  8
_0-0_
  6
CONTINUOUS
 62
    7
 10
270.24833636592723
 20
168.52832193536796
 11
270.90491225214862
 21
168.73264949354669
  0
LINE
  8
_0-0_
  6
CONTINUOUS
 62
    7
 10
270.90491225214862
 20
168.73264949354669
 11
271.58772837920503
 21
168.80164246669503
  0
LINE
  8
_0-0_
  6
CONTINUOUS
 62
    7
 10
271.58772837920503
 20
168.80164246669602
 11
302.58772837920606
 21
168.80164246669602
  0
LINE
  8
_0-0_
  6
CONTINUOUS
 62
    7
 10
302.58772837920606
 20
168.80164246669503
 11
303.27054450626247
 21
168.73264949354669
  0
LINE
  8
_0-0_
  6
CONTINUOUS
 62
    7
 10
303.27054450626247
 20
168.73264949354669
 11
303.92712039248386
 21
168.52832193536796
  0
LINE
  8
_0-0_
  6
CONTINUOUS
 62
    7
 10
303.92712039248386
 20
168.52832193536796
 11
304.5322241947747
 21
168.1965119856315
  0
LINE
  8
_0-0_
  6
CONTINUOUS
 62
    7
 10
304.5322241947747
 20
168.1965119856315
 11
305.06260211335893
 21
167.7499709146245
  0
LINE
  8
_0-0_
  6
CONTINUOUS
 62
    7
 10
305.06260211335893
 20
167.7499709146245
 11
305.49787202226497
 21
167.20585904528264
  0
LINE
  8
_0-0_
  6
CONTINUOUS
 62
    7
 10
305.49787202226497
 20
167.20585904528264
 11
305.8213067429956
 21
166.58508629160329
  0
LINE
  8
_0-0_
  6
CONTINUOUS
 62
    7
 10
305.8213067429956
 20
166.58508629160329
 11
306.02047686061735
 21
165.91150860237693
  0
LINE
  8
_0-0_
  6
CONTINUOUS
 62
    7
 10
306.02047686061735
 20
165.91150860237693
 11
306.08772837920606
 21
165.21101119045386
  0
LINE
  8
_0-0_
  6
CONTINUOUS
 62
    7
 10
303.58772837920787
 20
141.80164244681436
 11
301.08772837920787
 21
141.80164244681436
  0
LINE
  8
_0-0_
  6
CONTINUOUS
 62
    7
 10
306.6622561059794
 20
139.51544805337585
 11
306.41865409493425
 21
138.57697993232728
  0
LINE
  8
_0-0_
  6
CONTINUOUS
 62
    7
 10
306.41865409493425
 20
138.57697993232728
 11
306.17534414287121
 21
137.20711640673306
  0
LINE
  8
_0-0_
  6
CONTINUOUS
 62
    7
 10
306.17534414287121
 20
137.20711640673306
 11
306.08772837920833
 21
135.80164244681384
  0
LINE
  8
_0-0_
  6
CONTINUOUS
 62
    7
 10
306.08772837920833
 20
135.80164244681384
 11
306.13328975198829
 21
134.79096742184078
  0
LINE
  8
_0-0_
  6
CONTINUOUS
 62
    7
 10
306.13328975198829
 20
134.79096742184078
 11
306.33142043276894
 21
133.43345602264213
  0
LINE
  8
_0-0_
  6
CONTINUOUS
 62
    7
 10
306.33142043276894
 20
133.43345602264213
 11
306.6622561059794
 21
132.08783684025155
  0
LINE
  8
_0-0_
  6
CONTINUOUS
 62
    7
 10
306.6622561059794
 20
132.08783684025155
 11
306.42668319731638
 21
131.63601772116607
  0
LINE
  8
_0-0_
  6
CONTINUOUS
 62
    7
 10
306.42668319731638
 20
131.63601772116607
 11
306.24541931129488
 21
131.17808768030227
  0
LINE
  8
_0-0_
  6
CONTINUOUS
 62
    7
 10
306.24541931129488
 20
131.17808768030227
 11
306.1283257831326
 21
130.70606017444584
  0
LINE
  8
_0-0_
  6
CONTINUOUS
 62
    7
 10
306.1283257831326
 20
130.70606017444584
 11
306.08772837920833
 21
130.23093403697055
  0
LINE
  8
_0-0_
  6
CONTINUOUS
 62
    7
 10
306.08772837920833
 20
130.23093403697055
 11
306.09085592035603
 21
130.09891147863897
  0
LINE
  8
_0-0_
  6
CONTINUOUS
 62
    7
 10
306.09085592035603
 20
130.09891147863897
 11
306.14487219238924
 21
129.66549353779578
  0
LINE
  8
_0-0_
  6
CONTINUOUS
 62
    7
 10
306.14487219238924
 20
129.66549353779578
 11
306.26166887882704
 21
129.23511112244523
  0
LINE
  8
_0-0_
  6
CONTINUOUS
 62
    7
 10
306.26166887882704
 20
129.23511112244523
 11
306.43786634359742
 21
128.8018126167741
  0
LINE
  8
_0-0_
  6
CONTINUOUS
 62
    7
 10
306.43786634359742
 20
128.8018126167741
 11
306.6622561059794
 21
128.37403123368944
  0
LINE
  8
_0-0_
  6
CONTINUOUS
 62
    7
 10
306.6622561059794
 20
128.37403123368944
 11
306.08772837920833
 21
129.36914244681395
  0
LINE
  8
_0-0_
  6
CONTINUOUS
 62
    7
 10
306.08772837920503
 20
127.87320384409816
 11
306.52031181242495
 21
128.11656889897006
  0
LINE
  8
_0-0_
  6
CONTINUOUS
 62
    7
 10
306.52031181242495
 20
128.11656889897006
 11
306.8875881888946
 21
128.36973555396969
  0
LINE
  8
_0-0_
  6
CONTINUOUS
 62
    7
 10
306.6622561059794
 20
128.37403123368944
 11
312.13320065243727
 21
128.37403123368944
  0
LINE
  8
_0-0_
  6
CONTINUOUS
 62
    7
 10
312.70772837920833
 20
129.8016424468139
 11
313.20772837920828
 21
129.8016424468139
  0
LINE
  8
_0-0_
  6
CONTINUOUS
 62
    7
 10
314.70772837920833
 20
131.3016424468139
 11
314.70772837920833
 21
140.3016424468139
  0
LINE
  8
_0-0_
  6
CONTINUOUS
 62
    7
 10
313.20772837920828
 20
141.8016424468139
 11
312.70772837920833
 21
141.8016424468139
  0
LINE
  8
_0-0_
  6
CONTINUOUS
 62
    7
 10
312.13320065243727
 20
139.51544805337608
 11
312.37680266348241
 21
138.57697993232728
  0
LINE
  8
_0-0_
  6
CONTINUOUS
 62
    7
 10
312.37680266348241
 20
138.57697993232728
 11
312.62229367619881
 21
137.18931118957056
  0
LINE
  8
_0-0_
  6
CONTINUOUS
 62
    7
 10
312.62229367619881
 20
137.18931118957056
 11
312.70772837920833
 21
135.80164244681384
  0
LINE
  8
_0-0_
  6
CONTINUOUS
 62
    7
 10
312.13320065243727
 20
132.08783684025184
 11
306.6622561059794
 21
132.08783684025155
  0
LINE
  8
_0-0_
  6
CONTINUOUS
 62
    7
 10
303.58772837920787
 20
129.80164244681436
 11
301.08772837920787
 21
129.80164244681436
  0
LINE
  8
_0-0_
  6
CENTER1
 62
  152
 10
287.08772837920611
 20
145.48113439100592
 11
287.08772837920611
 21
188.30164246669597
  0
LINE
  8
_0-0_
  6
CONTINUOUS
 62
    7
 10
252.08772837920799
 20
185.80164246669273
 11
322.08772837920799
 21
185.80164246669273
  0
LINE
  8
_0-0_
  6
CONTINUOUS
 62
    7
 10
322.08772837920799
 20
185.80164246669273
 11
322.08772837920799
 21
183.30164246669273
  0
LINE
  8
_0-0_
  6
CONTINUOUS
 62
    7
 10
322.08772837920799
 20
183.30164246669273
 11
252.08772837920799
 21
183.30164246669273
  0
LINE
  8
_0-0_
  6
CONTINUOUS
 62
    7
 10
252.08772837920799
 20
183.30164246669273
 11
252.08772837920799
 21
185.80164246669273
  0
LINE
  8
_0-0_
  6
CONTINUOUS
 62
    7
 10
192.32617273897586
 20
235.41091733972192
 11
191.9246137569105
 21
235.03782884637386
  0
LINE
  8
_0-0_
  6
CONTINUOUS
 62
    7
 10
191.9246137569105
 20
235.03782884637386
 11
191.46647841911147
 21
234.76059908574771
  0
LINE
  8
_0-0_
  6
CONTINUOUS
 62
    7
 10
191.46647841911147
 20
234.76059908574771
 11
190.96937260968514
 21
234.58988184207183
  0
LINE
  8
_0-0_
  6
CONTINUOUS
 62
    7
 10
190.96937260968514
 20
234.58988184207183
 11
190.45239982610758
 21
234.53223768328158
  0
LINE
  8
_0-0_
  6
CONTINUOUS
 62
    7
 10
190.45239982610758
 20
234.53223768328158
 11
183.33166723567081
 21
234.53223768328158
  0
LINE
  8
_0-0_
  6
CONTINUOUS
 62
    7
 10
183.33166723567081
 20
234.53223768328158
 11
182.81469445209325
 21
234.58988184207183
  0
LINE
  8
_0-0_
  6
CONTINUOUS
 62
    7
 10
182.81469445209325
 20
234.58988184207183
 11
182.31758864266692
 21
234.76059908574771
  0
LINE
  8
_0-0_
  6
CONTINUOUS
 62
    7
 10
182.31758864266692
 20
234.76059908574771
 11
181.859453304868
 21
235.03782884637386
  0
LINE
  8
_0-0_
  6
CONTINUOUS
 62
    7
 10
181.859453304868
 20
235.03782884637386
 11
181.45789432280264
 21
235.41091733972192
  0
LINE
  8
_0-0_
  6
CONTINUOUS
 62
    7
 10
181.45789432280264
 20
235.41091733972192
 11
181.12834338295488
 21
235.86552698422273
  0
LINE
  8
_0-0_
  6
CONTINUOUS
 62
    7
 10
181.12834338295488
 20
235.86552698422273
 11
180.88346494312862
 21
236.38418738618626
  0
LINE
  8
_0-0_
  6
CONTINUOUS
 62
    7
 10
180.88346494312862
 20
236.38418738618626
 11
180.73266954443727
 21
236.94696671723321
  0
LINE
  8
_0-0_
  6
CONTINUOUS
 62
    7
 10
180.73266954443727
 20
236.94696671723321
 11
180.68175216948521
 21
237.53223768328158
  0
LINE
  8
_0-0_
  6
CONTINUOUS
 62
    7
 10
180.68175216948521
 20
237.53223768328158
 11
180.68175216948521
 21
242.53223768338572
  0
LINE
  8
_0-0_
  6
CONTINUOUS
 62
    7
 10
180.68175216948509
 20
242.53223768328158
 11
180.71224473867142
 21
242.79348294018396
  0
LINE
  8
_0-0_
  6
CONTINUOUS
 62
    7
 10
180.71224473867142
 20
242.79348294018396
 11
180.79924171938524
 21
243.04252915917155
  0
LINE
  8
_0-0_
  6
CONTINUOUS
 62
    7
 10
180.79924171938524
 20
243.04252915917155
 11
180.93056466889516
 21
243.26919502931221
  0
LINE
  8
_0-0_
  6
CONTINUOUS
 62
    7
 10
180.93056466889516
 20
243.26919502931221
 11
181.09607846101437
 21
243.47377227408529
  0
LINE
  8
_0-0_
  6
CONTINUOUS
 62
    7
 10
181.09607846101437
 20
243.47377227408529
 11
181.49041881047765
 21
243.81426570326758
  0
LINE
  8
_0-0_
  6
CONTINUOUS
 62
    7
 10
181.49041881047765
 20
243.81426570326758
 11
181.93816377368296
 21
244.07875081387422
  0
LINE
  8
_0-0_
  6
CONTINUOUS
 62
    7
 10
181.93816377368296
 20
244.07875081387422
 11
182.4140902779917
 21
244.27732520109558
  0
LINE
  8
_0-0_
  6
CONTINUOUS
 62
    7
 10
182.4140902779917
 20
244.27732520109558
 11
182.91137009147303
 21
244.41857538577116
  0
LINE
  8
_0-0_
  6
CONTINUOUS
 62
    7
 10
182.91137009147303
 20
244.41857538577116
 11
183.4162960151092
 21
244.5033588066382
  0
LINE
  8
_0-0_
  6
CONTINUOUS
 62
    7
 10
183.4162960151092
 20
244.5033588066382
 11
183.92682275926381
 21
244.53223768328158
  0
LINE
  8
_0-0_
  6
CONTINUOUS
 62
    7
 10
180.2734143568249
 20
244.53223768328158
 11
194.74008219592599
 21
244.53223768328158
  0
LINE
  8
_0-0_
  6
CONTINUOUS
 62
    7
 10
194.74008219592599
 20
244.53223768328158
 11
194.74008219592599
 21
242.53223768338572
  0
LINE
  8
_0-0_
  6
CONTINUOUS
 62
    7
 10
194.74008219592599
 20
242.53223768338572
 11
193.10231489229329
 21
242.53223768328158
  0
LINE
  8
_0-0_
  6
CONTINUOUS
 62
    7
 10
193.10231489229329
 20
242.53223768328158
 11
193.10231489229329
 21
237.53223768328158
  0
LINE
  8
_0-0_
  6
CONTINUOUS
 62
    7
 10
193.10231489229318
 20
237.53223768328158
 11
193.05139751734112
 21
236.94696671723321
  0
LINE
  8
_0-0_
  6
CONTINUOUS
 62
    7
 10
193.05139751734112
 20
236.94696671723321
 11
192.90060211864977
 21
236.38418738618626
  0
LINE
  8
_0-0_
  6
CONTINUOUS
 62
    7
 10
192.90060211864977
 20
236.38418738618626
 11
192.65572367882351
 21
235.86552698422273
  0
LINE
  8
_0-0_
  6
CONTINUOUS
 62
    7
 10
192.65572367882351
 20
235.86552698422273
 11
192.32617273897586
 21
235.41091733972192
  0
LINE
  8
_0-0_
  6
CONTINUOUS
 62
    7
 10
191.38857530297184
 20
235.41091733972192
 11
190.98701632090649
 21
235.03782884637386
  0
LINE
  8
_0-0_
  6
CONTINUOUS
 62
    7
 10
190.98701632090649
 20
235.03782884637386
 11
190.52888098310757
 21
234.76059908574771
  0
LINE
  8
_0-0_
  6
CONTINUOUS
 62
    7
 10
190.52888098310757
 20
234.76059908574771
 11
190.03177517368113
 21
234.58988184207183
  0
LINE
  8
_0-0_
  6
CONTINUOUS
 62
    7
 10
190.03177517368113
 20
234.58988184207183
 11
189.51480239010368
 21
234.53223768328158
  0
LINE
  8
_0-0_
  6
CONTINUOUS
 62
    7
 10
191.38857530297184
 20
235.41091733972192
 11
191.71812624281961
 21
235.86552698422273
  0
LINE
  8
_0-0_
  6
CONTINUOUS
 62
    7
 10
191.71812624281961
 20
235.86552698422273
 11
191.96300468264576
 21
236.38418738618626
  0
LINE
  8
_0-0_
  6
CONTINUOUS
 62
    7
 10
191.96300468264576
 20
236.38418738618626
 11
192.11380008133722
 21
236.94696671723321
  0
LINE
  8
_0-0_
  6
CONTINUOUS
 62
    7
 10
192.11380008133722
 20
236.94696671723321
 11
192.16471745628928
 21
237.53223768328158
  0
LINE
  8
_0-0_
  6
CONTINUOUS
 62
    7
 10
192.16471745628928
 20
237.53223768328158
 11
192.16471745628928
 21
242.53223768328158
  0
LINE
  8
_0-0_
  6
CONTINUOUS
 62
    7
 10
192.16471745628928
 20
242.53223768328158
 11
192.18273312811664
 21
242.92241832731375
  0
LINE
  8
_0-0_
  6
CONTINUOUS
 62
    7
 10
192.18273312811664
 20
242.92241832731375
 11
192.236087811434
 21
243.29760454801172
  0
LINE
  8
_0-0_
  6
CONTINUOUS
 62
    7
 10
192.236087811434
 20
243.29760454801172
 11
192.32273111568304
 21
243.64337814932074
  0
LINE
  8
_0-0_
  6
CONTINUOUS
 62
    7
 10
192.32273111568304
 20
243.64337814932074
 11
192.43933338727163
 21
243.94645124565457
  0
LINE
  8
_0-0_
  6
CONTINUOUS
 62
    7
 10
192.43933338727163
 20
243.94645124565457
 11
192.58141366629388
 21
244.19517690788658
  0
LINE
  8
_0-0_
  6
CONTINUOUS
 62
    7
 10
192.58141366629388
 20
244.19517690788658
 11
192.74351188730645
 21
244.37999674830408
  0
LINE
  8
_0-0_
  6
CONTINUOUS
 62
    7
 10
192.74351188730645
 20
244.37999674830408
 11
192.91939870658166
 21
244.49380824408789
  0
LINE
  8
_0-0_
  6
CONTINUOUS
 62
    7
 10
192.91939870658166
 20
244.49380824408789
 11
193.10231489229318
 21
244.53223768328147
  0
LINE
  8
_0-0_
  6
CONTINUOUS
 62
    7
 10
193.27341437391794
 20
251.53223768328431
 11
180.2734143568249
 21
251.53223768328431
  0
LINE
  8
_0-0_
  6
CONTINUOUS
 62
    7
 10
180.2734143568249
 20
242.53223768338572
 11
180.68175216948509
 21
242.53223768338572
  0
LINE
  8
_0-0_
  6
CENTER1
 62
  152
 10
180.77341435682479
 20
239.53223768328431
 11
161.77341435682479
 21
239.53223768328431
  0
LINE
  8
_0-0_
  6
CONTINUOUS
 62
    7
 10
154.10937290460811
 20
230.53223768328442
 11
153.69714208049083
 21
230.10957254056066
  0
LINE
  8
_0-0_
  6
CONTINUOUS
 62
    7
 10
153.69714208049083
 20
230.10957254056066
 11
153.2160661260549
 21
229.79362489575649
  0
LINE
  8
_0-0_
  6
CONTINUOUS
 62
    7
 10
153.2160661260549
 20
229.79362489575649
 11
152.68733625805623
 21
229.59831212504255
  0
LINE
  8
_0-0_
  6
CONTINUOUS
 62
    7
 10
152.68733625805623
 20
229.59831212504255
 11
152.13424283040865
 21
229.53223768328158
  0
LINE
  8
_0-0_
  6
CONTINUOUS
 62
    7
 10
152.13424283040865
 20
229.53223768328147
 11
145.01351023997165
 21
229.53223768328147
  0
LINE
  8
_0-0_
  6
CONTINUOUS
 62
    7
 10
145.01351023997165
 20
229.53223768328158
 11
144.46041681232407
 21
229.59831212504255
  0
LINE
  8
_0-0_
  6
CONTINUOUS
 62
    7
 10
144.46041681232407
 20
229.59831212504255
 11
143.93168694432541
 21
229.79362489575649
  0
LINE
  8
_0-0_
  6
CONTINUOUS
 62
    7
 10
143.93168694432541
 20
229.79362489575649
 11
143.45061098988947
 21
230.10957254056066
  0
LINE
  8
_0-0_
  6
CONTINUOUS
 62
    7
 10
143.45061098988947
 20
230.10957254056066
 11
143.0383801657722
 21
230.53223768328442
  0
LINE
  8
_0-0_
  6
CONTINUOUS
 62
    7
 10
151.19664539440464
 20
229.53223768328158
 11
151.74973882205222
 21
229.59831212504267
  0
LINE
  8
_0-0_
  6
CONTINUOUS
 62
    7
 10
151.74973882205222
 20
229.59831212504267
 11
152.27846869005089
 21
229.79362489575649
  0
LINE
  8
_0-0_
  6
CONTINUOUS
 62
    7
 10
152.27846869005089
 20
229.79362489575649
 11
152.75954464448682
 21
230.10957254056066
  0
LINE
  8
_0-0_
  6
CONTINUOUS
 62
    7
 10
152.75954464448682
 20
230.10957254056066
 11
153.1717754686041
 21
230.53223768328442
  0
LINE
  8
_0-0_
  6
CENTER1
 62
  152
 10
145.2734143568249
 20
237.53223768328442
 11
145.2734143568249
 21
293.53223768328439
  0
LINE
  8
_0-0_
  6
CENTER1
 62
  152
 10
128.77341435682524
 20
291.53223768328451
 11
109.77341435682524
 21
291.53223768328451
  0
LINE
  8
_0-0_
  6
CONTINUOUS
 62
    7
 10
110.2734143568249
 20
292.53223768328439
 11
110.2734143568249
 21
238.53223768328442
  0
LINE
  8
_0-0_
  6
CENTER1
 62
  152
 10
109.77341435682524
 20
239.53223768328431
 11
128.77341435682524
 21
239.53223768328431
  0
LINE
  8
_0-0_
  6
CENTER1
 62
  152
 10
119.27341435682524
 20
230.03223768328431
 11
119.27341435682524
 21
249.03223768328431
  0
LINE
  8
_0-0_
  6
CENTER1
 62
  152
 10
117.2734143568249
 20
265.53223768328439
 11
173.2734143568249
 21
265.53223768328439
  0
LINE
  8
_0-0_
  6
CENTER1
 62
  152
 10
171.27341435682479
 20
249.03223768328431
 11
171.27341435682479
 21
230.03223768328431
  0
LINE
  8
_0-0_
  6
CONTINUOUS
 62
    7
 10
172.2734143568249
 20
230.53223768328442
 11
118.2734143568249
 21
230.53223768328442
  0
LINE
  8
_0-0_
  6
CENTER1
 62
  152
 10
119.27341435682524
 20
282.03223768328451
 11
119.27341435682524
 21
301.03223768328451
  0
LINE
  8
_0-0_
  6
CONTINUOUS
 62
    7
 10
118.2734143568249
 20
300.53223768328439
 11
172.2734143568249
 21
300.53223768328439
  0
LINE
  8
_0-0_
  6
CENTER1
 62
  152
 10
171.27341435682479
 20
301.03223768328451
 11
171.27341435682479
 21
282.03223768328451
  0
LINE
  8
_0-0_
  6
CONTINUOUS
 62
    7
 10
180.2734143568249
 20
279.53223768328428
 11
193.27341437391794
 21
279.53223768328428
  0
LINE
  8
_0-0_
  6
CONTINUOUS
 62
    7
 10
195.27341437391794
 20
277.53223768328428
 11
195.27341437391794
 21
253.53223768328431
  0
LINE
  8
_0-0_
  6
CONTINUOUS
 62
    7
 10
180.2734143568249
 20
238.53223768328442
 11
180.2734143568249
 21
292.53223768328439
  0
LINE
  8
_0-0_
  6
CENTER1
 62
  152
 10
180.77341435682479
 20
291.53223768328451
 11
161.77341435682479
 21
291.53223768328451
  0
LINE
  8
_0-0_
  6
CONTINUOUS
 62
    7
 10
154.00801574327681
 20
79.375394873892219
 11
154.33756668312469
 21
78.920785229391299
  0
LINE
  8
_0-0_
  6
CONTINUOUS
 62
    7
 10
154.33756668312469
 20
78.920785229391299
 11
154.58244512295073
 21
78.40212482742777
  0
LINE
  8
_0-0_
  6
CONTINUOUS
 62
    7
 10
154.58244512295073
 20
78.40212482742777
 11
154.7332405216423
 21
77.839345496380929
  0
LINE
  8
_0-0_
  6
CONTINUOUS
 62
    7
 10
154.7332405216423
 20
77.839345496380929
 11
154.78415789659425
 21
77.254074530332559
  0
LINE
  8
_0-0_
  6
CONTINUOUS
 62
    7
 10
154.78415789659425
 20
77.254074530332559
 11
154.78415789659425
 21
72.254074530332559
  0
LINE
  8
_0-0_
  6
CONTINUOUS
 62
    7
 10
155.23781900763629
 20
70.262482911609141
 11
155.35106400226414
 21
70.127902378323597
  0
LINE
  8
_0-0_
  6
CONTINUOUS
 62
    7
 10
155.35106400226414
 20
70.127902378323597
 11
158.67298728827575
 21
65.949248593812968
  0
LINE
  8
_0-0_
  6
CONTINUOUS
 62
    7
 10
158.67298728820424
 20
65.949248593812968
 11
158.96119275208991
 21
65.655348038808256
  0
LINE
  8
_0-0_
  6
CONTINUOUS
 62
    7
 10
158.96119275208991
 20
65.655348038808256
 11
159.2970853301988
 21
65.435727936965122
  0
LINE
  8
_0-0_
  6
CONTINUOUS
 62
    7
 10
159.2970853301988
 20
65.435727936965122
 11
159.66597740033762
 21
65.299991647488582
  0
LINE
  8
_0-0_
  6
CONTINUOUS
 62
    7
 10
159.66597740033762
 20
65.299991647488582
 11
160.05173836686515
 21
65.254074530275716
  0
LINE
  8
_0-0_
  6
CONTINUOUS
 62
    7
 10
160.05175373794089
 20
65.254074530275716
 11
194.74008219592599
 21
65.254074530332559
  0
LINE
  8
_0-0_
  6
CONTINUOUS
 62
    7
 10
194.74008219592599
 20
65.254074530332559
 11
194.74008219592599
 21
67.254074530228422
  0
LINE
  8
_0-0_
  6
CONTINUOUS
 62
    7
 10
194.74008219592599
 20
67.254074530228422
 11
165.7477562590135
 21
67.254074530228422
  0
LINE
  8
_0-0_
  6
CONTINUOUS
 62
    7
 10
165.7477562590135
 20
67.254074530202843
 11
165.72594430014738
 21
67.256260930342592
  0
LINE
  8
_0-0_
  6
CONTINUOUS
 62
    7
 10
165.72594430014738
 20
67.256260930342592
 11
165.70508613467939
 21
67.262724523850238
  0
LINE
  8
_0-0_
  6
CONTINUOUS
 62
    7
 10
165.70508613467939
 20
67.262724523850238
 11
165.68609384852766
 21
67.273182670690971
  0
LINE
  8
_0-0_
  6
CONTINUOUS
 62
    7
 10
165.68609384852766
 20
67.273182670690971
 11
165.66979793643384
 21
67.287178056990342
  0
LINE
  8
_0-0_
  6
CONTINUOUS
 62
    7
 10
165.66979793643395
 20
67.287178057046049
 11
161.6375492780146
 21
71.55890046662978
  0
LINE
  8
_0-0_
  6
CONTINUOUS
 62
    7
 10
161.6375492780146
 20
71.558900466664227
 11
161.2728859538895
 21
71.868155877465483
  0
LINE
  8
_0-0_
  6
CONTINUOUS
 62
    7
 10
161.2728859538895
 20
71.868155877465483
 11
160.84574615905342
 21
72.093251761862007
  0
LINE
  8
_0-0_
  6
CONTINUOUS
 62
    7
 10
160.84574615905342
 20
72.093251761862007
 11
160.37710199200114
 21
72.223136157204976
  0
LINE
  8
_0-0_
  6
CONTINUOUS
 62
    7
 10
160.37710199200114
 20
72.223136157204976
 11
160.0063090875509
 21
72.254074530239336
  0
LINE
  8
_0-0_
  6
CONTINUOUS
 62
    7
 10
160.0063090875509
 20
72.254074530223875
 11
143.30119260979006
 21
72.254074530332559
  0
LINE
  8
_0-0_
  6
CONTINUOUS
 62
    7
 10
143.30119260979006
 20
72.254074530332559
 11
143.30119260979018
 21
77.254074530332559
  0
LINE
  8
_0-0_
  6
CONTINUOUS
 62
    7
 10
143.30119260979006
 20
77.254074530332559
 11
143.35210998474201
 21
77.839345496380929
  0
LINE
  8
_0-0_
  6
CONTINUOUS
 62
    7
 10
143.35210998474201
 20
77.839345496380929
 11
143.50290538343359
 21
78.40212482742777
  0
LINE
  8
_0-0_
  6
CONTINUOUS
 62
    7
 10
143.50290538343359
 20
78.40212482742777
 11
143.74778382325962
 21
78.920785229391413
  0
LINE
  8
_0-0_
  6
CONTINUOUS
 62
    7
 10
143.74778382325962
 20
78.920785229391413
 11
144.0773347631075
 21
79.375394873892219
  0
LINE
  8
_0-0_
  6
CONTINUOUS
 62
    7
 10
144.0773347631075
 20
79.375394873892219
 11
144.47889374517274
 21
79.748483367240169
  0
LINE
  8
_0-0_
  6
CONTINUOUS
 62
    7
 10
144.47889374517274
 20
79.748483367240169
 11
144.93702908297178
 21
80.025713127866425
  0
LINE
  8
_0-0_
  6
CONTINUOUS
 62
    7
 10
144.93702908297178
 20
80.025713127866425
 11
145.43413489239811
 21
80.196430371542192
  0
LINE
  8
_0-0_
  6
CONTINUOUS
 62
    7
 10
145.43413489239811
 20
80.196430371542192
 11
145.95110767597566
 21
80.254074530332559
  0
LINE
  8
_0-0_
  6
CONTINUOUS
 62
    7
 10
145.01351023997165
 20
80.254074530332559
 11
152.13424283040865
 21
80.254074530332559
  0
LINE
  8
_0-0_
  6
CONTINUOUS
 62
    7
 10
152.13424283040865
 20
80.254074530332559
 11
152.6512156139861
 21
80.196430371542192
  0
LINE
  8
_0-0_
  6
CONTINUOUS
 62
    7
 10
152.6512156139861
 20
80.196430371542192
 11
153.14832142341243
 21
80.025713127866425
  0
LINE
  8
_0-0_
  6
CONTINUOUS
 62
    7
 10
153.14832142341243
 20
80.025713127866425
 11
153.60645676121158
 21
79.748483367240169
  0
LINE
  8
_0-0_
  6
CONTINUOUS
 62
    7
 10
153.60645676121158
 20
79.748483367240169
 11
154.00801574327681
 21
79.375394873892219
  0
LINE
  8
_0-0_
  6
CONTINUOUS
 62
    7
 10
154.10937290460811
 20
79.254074530329717
 11
172.2734143568249
 21
79.254074530329717
  0
LINE
  8
_0-0_
  6
CENTER1
 62
  152
 10
171.27341435682445
 20
79.754074530329717
 11
171.27341435682445
 21
60.754074530329717
  0
LINE
  8
_0-0_
  6
CONTINUOUS
 62
    7
 10
176.27341437391794
 20
60.754074530329774
 11
176.27341437391794
 21
58.254074530329774
  0
LINE
  8
_0-0_
  6
CONTINUOUS
 62
    7
 10
177.9699921176973
 20
58.254074530329774
 11
177.9699921176973
 21
60.754074530331593
  0
LINE
  8
_0-0_
  6
CONTINUOUS
 62
    7
 10
180.27341435839264
 20
60.754074530331593
 11
158.4117101059777
 21
60.754074530331593
  0
LINE
  8
_0-0_
  6
CONTINUOUS
 62
    7
 10
158.4117101059777
 20
61.900184152782685
 11
158.4117101059777
 21
58.254074530329774
  0
LINE
  8
_0-0_
  6
CONTINUOUS
 62
    7
 10
158.4117101059777
 20
61.900184152782685
 11
157.7722653118974
 21
62.358734836526594
  0
LINE
  8
_0-0_
  6
CONTINUOUS
 62
    7
 10
157.7722653118974
 20
62.358734836526594
 11
157.23633901137111
 21
62.717238769146661
  0
LINE
  8
_0-0_
  6
CONTINUOUS
 62
    7
 10
157.23633901137111
 20
62.717238769146661
 11
156.73432058116703
 21
63.032988996206541
  0
LINE
  8
_0-0_
  6
CONTINUOUS
 62
    7
 10
156.73432058116703
 20
63.032988996206541
 11
156.27964773418148
 21
63.303033211660818
  0
LINE
  8
_0-0_
  6
CONTINUOUS
 62
    7
 10
156.27964773418148
 20
63.303033211660818
 11
155.86983624202765
 21
63.534008223958608
  0
LINE
  8
_0-0_
  6
CONTINUOUS
 62
    7
 10
155.86983624202765
 20
66.344023449028555
 11
156.2578639601187
 21
66.153660528987189
  0
LINE
  8
_0-0_
  6
CONTINUOUS
 62
    7
 10
156.2578639601187
 20
66.153660528987189
 11
156.68206146234729
 21
65.935697422114686
  0
LINE
  8
_0-0_
  6
CONTINUOUS
 62
    7
 10
156.68206146234729
 20
65.935697422114686
 11
157.31044110718358
 21
65.593183081480333
  0
LINE
  8
_0-0_
  6
CONTINUOUS
 62
    7
 10
157.31044110718358
 20
65.593183081480333
 11
157.98862693301089
 21
65.196217905406456
  0
LINE
  8
_0-0_
  6
CONTINUOUS
 62
    7
 10
157.98862693301089
 20
65.196217905406456
 11
158.67545957018967
 21
64.763389177129284
  0
LINE
  8
_0-0_
  6
CONTINUOUS
 62
    7
 10
158.67545957018967
 20
64.763389177129284
 11
159.38501617776797
 21
64.281872563238494
  0
LINE
  8
_0-0_
  6
CONTINUOUS
 62
    7
 10
159.38501617776797
 20
64.281872563238494
 11
160.06411672557874
 21
63.785718686385053
  0
LINE
  8
_0-0_
  6
CONTINUOUS
 62
    7
 10
160.06411672557874
 20
63.785718686385053
 11
160.74112265507699
 21
63.254074530332559
  0
LINE
  8
_0-0_
  6
CONTINUOUS
 62
    7
 10
160.74112265507699
 20
63.254074530332559
 11
180.27341435839264
 21
63.254074530332559
  0
LINE
  8
_0-0_
  6
CONTINUOUS
 62
    7
 10
180.27341435682501
 20
65.254074530332559
 11
180.2734143568249
 21
58.254074530329774
  0
LINE
  8
_0-0_
  6
CONTINUOUS
 62
    7
 10
180.2734143568249
 20
67.254074530228422
 11
180.2734143568249
 21
71.254074530329717
  0
LINE
  8
_0-0_
  6
CONTINUOUS
 62
    7
 10
180.68175216948521
 20
72.254074530332559
 11
180.68175216948521
 21
67.254074530228422
  0
LINE
  8
_0-0_
  6
CONTINUOUS
 62
    7
 10
181.61934960548911
 20
67.254074530332559
 11
181.61934960548911
 21
72.254074530332559
  0
LINE
  8
_0-0_
  6
CONTINUOUS
 62
    7
 10
181.61934960548911
 20
72.254074530332559
 11
181.67026698044128
 21
72.839345496380929
  0
LINE
  8
_0-0_
  6
CONTINUOUS
 62
    7
 10
181.67026698044128
 20
72.839345496380929
 11
181.82106237913263
 21
73.40212482742777
  0
LINE
  8
_0-0_
  6
CONTINUOUS
 62
    7
 10
181.82106237913263
 20
73.40212482742777
 11
182.06594081895878
 21
73.920785229391299
  0
LINE
  8
_0-0_
  6
CONTINUOUS
 62
    7
 10
182.06594081895878
 20
73.920785229391299
 11
182.39549175880654
 21
74.375394873892219
  0
LINE
  8
_0-0_
  6
CONTINUOUS
 62
    7
 10
182.39549175880654
 20
74.375394873892219
 11
182.7970507408719
 21
74.748483367240169
  0
LINE
  8
_0-0_
  6
CONTINUOUS
 62
    7
 10
182.7970507408719
 20
74.748483367240169
 11
183.25518607867082
 21
75.025713127866425
  0
LINE
  8
_0-0_
  6
CONTINUOUS
 62
    7
 10
183.25518607867082
 20
75.025713127866425
 11
183.75229188809726
 21
75.196430371542192
  0
LINE
  8
_0-0_
  6
CONTINUOUS
 62
    7
 10
183.75229188809726
 20
75.196430371542192
 11
184.2692646716747
 21
75.254074530332559
  0
LINE
  8
_0-0_
  6
CONTINUOUS
 62
    7
 10
183.33166723567081
 20
75.254074530332559
 11
190.45239982610758
 21
75.254074530332559
  0
LINE
  8
_0-0_
  6
CONTINUOUS
 62
    7
 10
190.45239982610758
 20
75.254074530332559
 11
190.96937260968514
 21
75.196430371542192
  0
LINE
  8
_0-0_
  6
CONTINUOUS
 62
    7
 10
190.96937260968514
 20
75.196430371542192
 11
191.46647841911147
 21
75.025713127866425
  0
LINE
  8
_0-0_
  6
CONTINUOUS
 62
    7
 10
191.46647841911147
 20
75.025713127866425
 11
191.9246137569105
 21
74.748483367240169
  0
LINE
  8
_0-0_
  6
CONTINUOUS
 62
    7
 10
191.9246137569105
 20
74.748483367240169
 11
192.32617273897586
 21
74.375394873892219
  0
LINE
  8
_0-0_
  6
CONTINUOUS
 62
    7
 10
192.32617273897586
 20
74.375394873892219
 11
192.65572367882351
 21
73.920785229391299
  0
LINE
  8
_0-0_
  6
CONTINUOUS
 62
    7
 10
192.65572367882351
 20
73.920785229391299
 11
192.90060211864977
 21
73.40212482742777
  0
LINE
  8
_0-0_
  6
CONTINUOUS
 62
    7
 10
192.90060211864977
 20
73.40212482742777
 11
193.05139751734112
 21
72.839345496380929
  0
LINE
  8
_0-0_
  6
CONTINUOUS
 62
    7
 10
193.05139751734112
 20
72.839345496380929
 11
193.10231489229318
 21
72.254074530332559
  0
LINE
  8
_0-0_
  6
CONTINUOUS
 62
    7
 10
193.10231489229329
 20
72.254074530332559
 11
193.10231489229329
 21
67.254074530332559
  0
LINE
  8
_0-0_
  6
CONTINUOUS
 62
    7
 10
193.27341437391794
 20
58.254074530329774
 11
147.27341437391794
 21
58.254074530329774
  0
LINE
  8
_0-0_
  6
CONTINUOUS
 62
    7
 10
145.27341437391794
 20
56.254074530329774
 11
145.27341437391794
 21
32.254074530329774
  0
LINE
  8
_0-0_
  6
CONTINUOUS
 62
    7
 10
147.27341437391794
 20
30.254074530329774
 11
193.27341437391794
 21
30.254074530329774
  0
LINE
  8
_0-0_
  6
CONTINUOUS
 62
    7
 10
195.27341437391794
 20
32.254074530329774
 11
195.27341437391794
 21
56.254074530329774
  0
LINE
  8
_0-0_
  6
CONTINUOUS
 62
    7
 10
174.2734143739184
 20
63.254074530332559
 11
174.2734143739184
 21
65.254074530314256
  0
LINE
  8
_0-0_
  6
CONTINUOUS
 62
    7
 10
176.66591437391844
 20
67.254074530332446
 11
176.66591437391844
 21
72.644074530332432
  0
LINE
  8
_0-0_
  6
CONTINUOUS
 62
    7
 10
176.66591437391844
 20
72.644074530332432
 11
163.88091437391847
 21
72.644074530332432
  0
LINE
  8
_0-0_
  6
CONTINUOUS
 62
    7
 10
163.88091437391847
 20
72.644074530332432
 11
163.88091437391847
 21
69.182302750355234
  0
LINE
  8
_0-0_
  6
CONTINUOUS
 62
    7
 10
163.88091437391836
 20
72.073119459460486
 11
164.61840498783272
 21
72.296439935135709
  0
LINE
  8
_0-0_
  6
CONTINUOUS
 62
    7
 10
164.61840498783272
 20
72.296439935135709
 11
165.36307461626279
 21
72.471215763263217
  0
LINE
  8
_0-0_
  6
CONTINUOUS
 62
    7
 10
165.36307461626279
 20
72.471215763263217
 11
166.10584790180064
 21
72.587698493993003
  0
LINE
  8
_0-0_
  6
CONTINUOUS
 62
    7
 10
166.10584790180064
 20
72.587698493993003
 11
166.8499175288174
 21
72.64096646403641
  0
LINE
  8
_0-0_
  6
CONTINUOUS
 62
    7
 10
166.8499175288174
 20
72.64096646403641
 11
167.07716437391844
 21
72.644074530332432
  0
LINE
  8
_0-0_
  6
CONTINUOUS
 62
    7
 10
167.07716437391844
 20
72.644074530332432
 11
167.89769539505789
 21
72.603756280560106
  0
LINE
  8
_0-0_
  6
CONTINUOUS
 62
    7
 10
167.89769539505789
 20
72.603756280560106
 11
168.7074811719491
 21
72.487364187019125
  0
LINE
  8
_0-0_
  6
CONTINUOUS
 62
    7
 10
168.7074811719491
 20
72.487364187019125
 11
169.49710597796093
 21
72.306874643348465
  0
LINE
  8
_0-0_
  6
CONTINUOUS
 62
    7
 10
169.49710597796093
 20
72.306874643348465
 11
170.2734143739184
 21
72.073119459460486
  0
LINE
  8
_0-0_
  6
CONTINUOUS
 62
    7
 10
170.2734143739184
 20
72.073119459460486
 11
170.2734143739184
 21
67.254074530332446
  0
LINE
  8
_0-0_
  6
CENTER1
 62
  152
 10
170.27341437391806
 20
65.754074530330058
 11
170.27341437391806
 21
11.254074530351261
  0
LINE
  8
_0-0_
  6
CENTER1
 62
  152
 10
171.27341435682445
 20
8.7540745303294329
 11
171.27341435682445
 21
27.754074530329433
  0
LINE
  8
_0-0_
  6
CONTINUOUS
 62
    7
 10
171.015519465946
 20
24.904264603177353
 11
171.76484849061944
 21
25.08013403071061
  0
LINE
  8
_0-0_
  6
CONTINUOUS
 62
    7
 10
171.76484849061944
 20
25.08013403071061
 11
172.51226931401379
 21
25.197345645418238
  0
LINE
  8
_0-0_
  6
CONTINUOUS
 62
    7
 10
172.51226931401379
 20
25.197345645418238
 11
173.26099459514319
 21
25.250946989181614
  0
LINE
  8
_0-0_
  6
CONTINUOUS
 62
    7
 10
173.26099459514319
 20
25.250946989181614
 11
173.48966437391834
 21
25.254074530329319
  0
LINE
  8
_0-0_
  6
CONTINUOUS
 62
    7
 10
173.48966437391834
 20
25.254074530329319
 11
174.31532973073968
 21
25.213503995849635
  0
LINE
  8
_0-0_
  6
CONTINUOUS
 62
    7
 10
174.31532973073968
 20
25.213503995849635
 11
175.13018260674312
 21
25.096383598242767
  0
LINE
  8
_0-0_
  6
CONTINUOUS
 62
    7
 10
175.13018260674312
 20
25.096383598242767
 11
175.9247483579627
 21
24.914764671428259
  0
LINE
  8
_0-0_
  6
CONTINUOUS
 62
    7
 10
175.9247483579627
 20
24.914764671428259
 11
176.7059143739184
 21
24.679546803558253
  0
LINE
  8
_0-0_
  6
CONTINUOUS
 62
    7
 10
176.7059143739184
 20
25.254074530329319
 11
176.7059143739184
 21
18.634074530329258
  0
LINE
  8
_0-0_
  6
CONTINUOUS
 62
    7
 10
176.7059143739184
 20
18.634074530329258
 11
163.84091437391862
 21
18.634074530329258
  0
LINE
  8
_0-0_
  6
CONTINUOUS
 62
    7
 10
163.84091437391862
 20
18.634074530329258
 11
163.84091437391862
 21
25.254074530329319
  0
LINE
  8
_0-0_
  6
CONTINUOUS
 62
    7
 10
163.84091437391839
 20
24.679546803558253
 11
164.58301946594599
 21
24.904264603177353
  0
LINE
  8
_0-0_
  6
CONTINUOUS
 62
    7
 10
164.58301946594599
 20
24.904264603177353
 11
165.33234849061944
 21
25.08013403071061
  0
LINE
  8
_0-0_
  6
CONTINUOUS
 62
    7
 10
165.33234849061944
 20
25.08013403071061
 11
166.0797693140139
 21
25.197345645418238
  0
LINE
  8
_0-0_
  6
CONTINUOUS
 62
    7
 10
166.0797693140139
 20
25.197345645418238
 11
166.82849459514318
 21
25.250946989181614
  0
LINE
  8
_0-0_
  6
CONTINUOUS
 62
    7
 10
166.82849459514318
 20
25.250946989181614
 11
167.05716437391857
 21
25.254074530329319
  0
LINE
  8
_0-0_
  6
CONTINUOUS
 62
    7
 10
167.05716437391857
 20
25.254074530329319
 11
167.88282973073967
 21
25.213503995849635
  0
LINE
  8
_0-0_
  6
CONTINUOUS
 62
    7
 10
167.88282973073967
 20
25.213503995849635
 11
167.97990640622822
 21
25.203471076246899
  0
LINE
  8
_0-0_
  6
CONTINUOUS
 62
    7
 10
167.97990640622822
 20
25.203471076246899
 11
168.697682606743
 21
25.096383598242767
  0
LINE
  8
_0-0_
  6
CONTINUOUS
 62
    7
 10
168.697682606743
 20
25.096383598242767
 11
169.49224835796258
 21
24.914764671428259
  0
LINE
  8
_0-0_
  6
CONTINUOUS
 62
    7
 10
169.49224835796258
 20
24.914764671428259
 11
170.27341437391829
 21
24.679546803558253
  0
LINE
  8
_0-0_
  6
CONTINUOUS
 62
    7
 10
170.27341437391829
 20
24.679546803558253
 11
171.015519465946
 21
24.904264603177353
  0
LINE
  8
_0-0_
  6
CONTINUOUS
 62
    7
 10
170.27341437391829
 20
24.679546803558253
 11
170.27341437391829
 21
19.208602257100324
  0
LINE
  8
_0-0_
  6
CONTINUOUS
 62
    7
 10
170.27341437391829
 20
19.208602257100324
 11
169.5313092818908
 21
18.983884457481167
  0
LINE
  8
_0-0_
  6
CONTINUOUS
 62
    7
 10
169.5313092818908
 20
18.983884457481167
 11
168.78198025721724
 21
18.808015029947967
  0
LINE
  8
_0-0_
  6
CONTINUOUS
 62
    7
 10
168.78198025721724
 20
18.808015029947967
 11
168.03455943382289
 21
18.690803415240339
  0
LINE
  8
_0-0_
  6
CONTINUOUS
 62
    7
 10
168.03455943382289
 20
18.690803415240339
 11
167.28583415269372
 21
18.637202071476963
  0
LINE
  8
_0-0_
  6
CONTINUOUS
 62
    7
 10
167.28583415269372
 20
18.637202071476963
 11
167.05716437391857
 21
18.634074530329258
  0
LINE
  8
_0-0_
  6
CONTINUOUS
 62
    7
 10
167.05716437391857
 20
18.634074530329258
 11
166.23149901709712
 21
18.674645064808942
  0
LINE
  8
_0-0_
  6
CONTINUOUS
 62
    7
 10
166.23149901709712
 20
18.674645064808942
 11
165.41664614109368
 21
18.79176546241581
  0
LINE
  8
_0-0_
  6
CONTINUOUS
 62
    7
 10
165.41664614109368
 20
18.79176546241581
 11
164.6220803898741
 21
18.973384389230318
  0
LINE
  8
_0-0_
  6
CONTINUOUS
 62
    7
 10
164.6220803898741
 20
18.973384389230318
 11
163.84091437391839
 21
19.208602257100324
  0
LINE
  8
_0-0_
  6
CONTINUOUS
 62
    7
 10
164.2734143739184
 20
18.634074530329258
 11
164.2734143739184
 21
18.134074530329372
  0
LINE
  8
_0-0_
  6
CENTER1
 62
  152
 10
161.77341435682445
 20
18.254074530329433
 11
180.77341435682445
 21
18.254074530329433
  0
LINE
  8
_0-0_
  6
CONTINUOUS
 62
    7
 10
180.2734143568249
 20
17.25407453032966
 11
180.2734143568249
 21
30.254074530329774
  0
LINE
  8
_0-0_
  6
CONTINUOUS
 62
    7
 10
177.9699921176973
 20
30.254074530329774
 11
177.9699921176973
 21
27.754074530331593
  0
LINE
  8
_0-0_
  6
CONTINUOUS
 62
    7
 10
176.27341437391794
 20
27.754074530329774
 11
176.27341437391794
 21
30.254074530329774
  0
LINE
  8
_0-0_
  6
CONTINUOUS
 62
    7
 10
180.27341435839264
 20
27.754074530331593
 11
158.4117101059777
 21
27.754074530331593
  0
LINE
  8
_0-0_
  6
CONTINUOUS
 62
    7
 10
158.4117101059777
 20
26.607964907880614
 11
157.79539276759363
 21
26.165402476252268
  0
LINE
  8
_0-0_
  6
CONTINUOUS
 62
    7
 10
157.79539276759363
 20
26.165402476252268
 11
157.20077505201778
 21
25.767915739313651
  0
LINE
  8
_0-0_
  6
CONTINUOUS
 62
    7
 10
157.20077505201778
 20
25.767915739313651
 11
156.49874700798614
 21
25.33340047070584
  0
LINE
  8
_0-0_
  6
CONTINUOUS
 62
    7
 10
156.49874700798614
 20
25.33340047070584
 11
155.86983624202765
 21
24.974140836704635
  0
LINE
  8
_0-0_
  6
CONTINUOUS
 62
    7
 10
155.86983624202765
 20
22.164125611634688
 11
156.28909989471219
 21
22.37019016685764
  0
LINE
  8
_0-0_
  6
CONTINUOUS
 62
    7
 10
156.28909989471219
 20
22.37019016685764
 11
156.7530493286871
 21
22.609953367470212
  0
LINE
  8
_0-0_
  6
CONTINUOUS
 62
    7
 10
156.7530493286871
 20
22.609953367470212
 11
157.27214572066384
 21
22.893378208282797
  0
LINE
  8
_0-0_
  6
CONTINUOUS
 62
    7
 10
157.27214572066384
 20
22.893378208282797
 11
157.825583928637
 21
23.213802691777687
  0
LINE
  8
_0-0_
  6
CONTINUOUS
 62
    7
 10
157.825583928637
 20
23.213802691777687
 11
158.38805189384789
 21
23.559755868846651
  0
LINE
  8
_0-0_
  6
CONTINUOUS
 62
    7
 10
158.38805189384789
 20
23.559755868846651
 11
158.96941590801998
 21
23.939805124087968
  0
LINE
  8
_0-0_
  6
CONTINUOUS
 62
    7
 10
158.96941590801998
 20
23.939805124087968
 11
159.57840218496517
 21
24.363987919735109
  0
LINE
  8
_0-0_
  6
CONTINUOUS
 62
    7
 10
159.57840218496517
 20
24.363987919735109
 11
160.19402765222787
 21
24.821491097112698
  0
LINE
  8
_0-0_
  6
CONTINUOUS
 62
    7
 10
160.19402765222787
 20
24.821491097112698
 11
160.74112265507699
 21
25.254074530332616
  0
LINE
  8
_0-0_
  6
CONTINUOUS
 62
    7
 10
160.74112265507699
 20
25.254074530332616
 11
180.27341435839264
 21
25.254074530332616
  0
LINE
  8
_0-0_
  6
CONTINUOUS
 62
    7
 10
176.7059143739184
 20
19.208602257100324
 11
175.96380928189092
 21
18.983884457481224
  0
LINE
  8
_0-0_
  6
CONTINUOUS
 62
    7
 10
175.96380928189092
 20
18.983884457481224
 11
175.21448025721747
 21
18.808015029947967
  0
LINE
  8
_0-0_
  6
CONTINUOUS
 62
    7
 10
175.21448025721747
 20
18.808015029947967
 11
174.46705943382301
 21
18.690803415240339
  0
LINE
  8
_0-0_
  6
CONTINUOUS
 62
    7
 10
174.46705943382301
 20
18.690803415240339
 11
173.71833415269373
 21
18.637202071476963
  0
LINE
  8
_0-0_
  6
CONTINUOUS
 62
    7
 10
173.71833415269373
 20
18.637202071476963
 11
173.48966437391834
 21
18.634074530329258
  0
LINE
  8
_0-0_
  6
CONTINUOUS
 62
    7
 10
173.48966437391834
 20
18.634074530329258
 11
172.66399901709713
 21
18.674645064808942
  0
LINE
  8
_0-0_
  6
CONTINUOUS
 62
    7
 10
172.66399901709713
 20
18.674645064808942
 11
171.84914614109368
 21
18.79176546241581
  0
LINE
  8
_0-0_
  6
CONTINUOUS
 62
    7
 10
171.84914614109368
 20
18.79176546241581
 11
171.0545803898741
 21
18.973384389230318
  0
LINE
  8
_0-0_
  6
CONTINUOUS
 62
    7
 10
171.0545803898741
 20
18.973384389230318
 11
170.27341437391829
 21
19.208602257100324
  0
LINE
  8
_0-0_
  6
CONTINUOUS
 62
    7
 10
176.2734143739184
 20
18.634074530329258
 11
176.2734143739184
 21
18.134074530329372
  0
LINE
  8
_0-0_
  6
CONTINUOUS
 62
    7
 10
174.7734143739184
 20
16.634074530329258
 11
165.77341437507664
 21
16.634074530329258
  0
LINE
  8
_0-0_
  6
CONTINUOUS
 62
    7
 10
164.27341437391794
 20
27.754074530329774
 11
164.27341437391794
 21
30.254074530329774
  0
LINE
  8
_0-0_
  6
CONTINUOUS
 62
    7
 10
158.4117101059777
 20
30.254074530329774
 11
158.4117101059777
 21
26.607964907880614
  0
LINE
  8
_0-0_
  6
CONTINUOUS
 62
    7
 10
138.16016570276713
 20
23.435772640272603
 11
137.5831598664804
 21
23.642067283316464
  0
LINE
  8
_0-0_
  6
CONTINUOUS
 62
    7
 10
137.5831598664804
 20
23.642067283316464
 11
136.92195344232346
 21
23.9010113458977
  0
LINE
  8
_0-0_
  6
CONTINUOUS
 62
    7
 10
136.92195344232346
 20
23.9010113458977
 11
136.19374720461769
 21
24.215121353949712
  0
LINE
  8
_0-0_
  6
CONTINUOUS
 62
    7
 10
136.19374720461769
 20
24.215121353949712
 11
135.41093851814878
 21
24.589071901306511
  0
LINE
  8
_0-0_
  6
CONTINUOUS
 62
    7
 10
135.41093851814878
 20
24.589071901306511
 11
134.58678564212528
 21
25.024509242970453
  0
LINE
  8
_0-0_
  6
CONTINUOUS
 62
    7
 10
134.58678564212528
 20
25.024509242970453
 11
133.74182722918704
 21
25.518480109074574
  0
LINE
  8
_0-0_
  6
CONTINUOUS
 62
    7
 10
133.74182722918704
 20
25.518480109074574
 11
132.86395864471956
 21
26.08861925012144
  0
LINE
  8
_0-0_
  6
CONTINUOUS
 62
    7
 10
132.86395864471956
 20
26.08861925012144
 11
131.98942417130331
 21
26.718002895384132
  0
LINE
  8
_0-0_
  6
CONTINUOUS
 62
    7
 10
131.98942417130331
 20
26.718002895384132
 11
131.13437154653695
 21
27.399180036179644
  0
LINE
  8
_0-0_
  6
CONTINUOUS
 62
    7
 10
131.13437154653695
 20
27.399180036179644
 11
130.29955676348231
 21
28.136379617234184
  0
LINE
  8
_0-0_
  6
CONTINUOUS
 62
    7
 10
130.29955676348231
 20
28.136379617234184
 11
129.49991166492759
 21
28.917953350948665
  0
LINE
  8
_0-0_
  6
CONTINUOUS
 62
    7
 10
129.49991166492759
 20
25.507165109610639
 11
130.2704750151529
 21
24.885045370091689
  0
LINE
  8
_0-0_
  6
CONTINUOUS
 62
    7
 10
130.2704750151529
 20
24.885045370091689
 11
131.06218680475126
 21
24.296844976522777
  0
LINE
  8
_0-0_
  6
CONTINUOUS
 62
    7
 10
131.06218680475126
 20
24.296844976522777
 11
131.8909821586285
 21
23.731971703829288
  0
LINE
  8
_0-0_
  6
CONTINUOUS
 62
    7
 10
131.8909821586285
 20
23.731971703829288
 11
132.72810851385759
 21
23.209709457787596
  0
LINE
  8
_0-0_
  6
CONTINUOUS
 62
    7
 10
132.72810851385759
 20
23.209709457787596
 11
133.54471745204057
 21
22.743988814240936
  0
LINE
  8
_0-0_
  6
CONTINUOUS
 62
    7
 10
133.54471745204057
 20
22.743988814240936
 11
134.35013994219514
 21
22.323910918017475
  0
LINE
  8
_0-0_
  6
CONTINUOUS
 62
    7
 10
134.35013994219514
 20
22.323910918017475
 11
135.16420390265262
 21
21.937040429019532
  0
LINE
  8
_0-0_
  6
CONTINUOUS
 62
    7
 10
135.16420390265262
 20
21.937040429019532
 11
135.94104842718741
 21
21.60110681845066
  0
LINE
  8
_0-0_
  6
CONTINUOUS
 62
    7
 10
135.94104842718741
 20
21.60110681845066
 11
136.56063210688615
 21
21.355683752803031
  0
LINE
  8
_0-0_
  6
CONTINUOUS
 62
    7
 10
136.56063210688615
 20
21.355683752803031
 11
137.13647775739003
 21
21.144763359790147
  0
LINE
  8
_0-0_
  6
CONTINUOUS
 62
    7
 10
137.13647775739003
 20
21.144763359790147
 11
137.67893723089139
 21
20.960862208350193
  0
LINE
  8
_0-0_
  6
CONTINUOUS
 62
    7
 10
137.67893723089139
 20
20.960862208350193
 11
138.16016570276713
 21
20.809422824971591
  0
LINE
  8
_0-0_
  6
CENTER1
 62
  152
 10
128.7734143568249
 20
18.254074530329433
 11
109.7734143568249
 21
18.254074530329433
  0
LINE
  8
_0-0_
  6
CONTINUOUS
 62
    7
 10
110.2734143568249
 20
17.25407453032966
 11
110.2734143568249
 21
71.254074530329717
  0
LINE
  8
_0-0_
  6
CENTER1
 62
  152
 10
109.7734143568249
 20
70.254074530329717
 11
128.7734143568249
 21
70.254074530329717
  0
LINE
  8
_0-0_
  6
CONTINUOUS
 62
    7
 10
129.49991166492759
 20
63.000983951053627
 11
130.18466363378604
 21
63.556355530875521
  0
LINE
  8
_0-0_
  6
CONTINUOUS
 62
    7
 10
130.18466363378604
 20
63.556355530875521
 11
130.88664845073697
 21
64.085135186879597
  0
LINE
  8
_0-0_
  6
CONTINUOUS
 62
    7
 10
130.88664845073697
 20
64.085135186879597
 11
131.79210913399515
 21
64.71089727343815
  0
LINE
  8
_0-0_
  6
CONTINUOUS
 62
    7
 10
131.79210913399515
 20
64.71089727343815
 11
132.71072657741013
 21
65.287529938749913
  0
LINE
  8
_0-0_
  6
CONTINUOUS
 62
    7
 10
132.71072657741013
 20
65.287529938749913
 11
133.62580300333707
 21
65.808265532508585
  0
LINE
  8
_0-0_
  6
CONTINUOUS
 62
    7
 10
133.62580300333707
 20
65.808265532508585
 11
134.50360746033584
 21
66.259561582744482
  0
LINE
  8
_0-0_
  6
CONTINUOUS
 62
    7
 10
134.50360746033584
 20
66.259561582744482
 11
135.35458474066525
 21
66.656029900312888
  0
LINE
  8
_0-0_
  6
CONTINUOUS
 62
    7
 10
135.35458474066525
 20
66.656029900312888
 11
136.15846478753735
 21
66.995395827684547
  0
LINE
  8
_0-0_
  6
CONTINUOUS
 62
    7
 10
136.15846478753735
 20
66.995395827684547
 11
136.90252299969438
 21
67.279551512075273
  0
LINE
  8
_0-0_
  6
CONTINUOUS
 62
    7
 10
136.90252299969438
 20
67.279551512075273
 11
137.57528842474983
 21
67.513138691119025
  0
LINE
  8
_0-0_
  6
CONTINUOUS
 62
    7
 10
137.57528842474983
 20
67.513138691119025
 11
138.16016570276713
 21
67.698726235691538
  0
LINE
  8
_0-0_
  6
CONTINUOUS
 62
    7
 10
138.16016570276713
 20
65.072376420390583
 11
137.68143878635726
 21
64.90260733383866
  0
LINE
  8
_0-0_
  6
CONTINUOUS
 62
    7
 10
137.68143878635726
 20
64.90260733383866
 11
136.98664444523524
 21
64.633375149282074
  0
LINE
  8
_0-0_
  6
CONTINUOUS
 62
    7
 10
136.98664444523524
 20
64.633375149282074
 11
136.20864630075414
 21
64.299407377586931
  0
LINE
  8
_0-0_
  6
CONTINUOUS
 62
    7
 10
136.20864630075414
 20
64.299407377586931
 11
135.37086808693743
 21
63.899419459165642
  0
LINE
  8
_0-0_
  6
CONTINUOUS
 62
    7
 10
135.37086808693743
 20
63.899419459165642
 11
134.49228670423349
 21
63.430623708006124
  0
LINE
  8
_0-0_
  6
CONTINUOUS
 62
    7
 10
134.49228670423349
 20
63.430623708006124
 11
133.58641098420605
 21
62.892373684630002
  0
LINE
  8
_0-0_
  6
CONTINUOUS
 62
    7
 10
133.58641098420605
 20
62.892373684630002
 11
132.67653386487768
 21
62.290665169131557
  0
LINE
  8
_0-0_
  6
CONTINUOUS
 62
    7
 10
132.67653386487768
 20
62.290665169131557
 11
131.57783925956414
 21
61.47001047088645
  0
LINE
  8
_0-0_
  6
CONTINUOUS
 62
    7
 10
131.57783925956414
 20
61.47001047088645
 11
130.51133740141461
 21
60.564751767870064
  0
LINE
  8
_0-0_
  6
CONTINUOUS
 62
    7
 10
130.51133740141461
 20
60.564751767870064
 11
129.49991166492759
 21
59.590195709715658
  0
LINE
  8
_0-0_
  6
CENTER1
 62
  152
 10
119.2734143568249
 20
60.754074530329717
 11
119.2734143568249
 21
79.754074530329717
  0
LINE
  8
_0-0_
  6
CONTINUOUS
 62
    7
 10
118.2734143568249
 20
79.254074530329717
 11
143.0383801657722
 21
79.254074530329717
  0
LINE
  8
_0-0_
  6
CONTINUOUS
 62
    7
 10
143.13973732710349
 20
79.375394873892219
 11
143.54129630916884
 21
79.748483367240169
  0
LINE
  8
_0-0_
  6
CONTINUOUS
 62
    7
 10
143.54129630916884
 20
79.748483367240169
 11
143.99943164696788
 21
80.025713127866425
  0
LINE
  8
_0-0_
  6
CONTINUOUS
 62
    7
 10
143.99943164696788
 20
80.025713127866425
 11
144.49653745639409
 21
80.196430371542192
  0
LINE
  8
_0-0_
  6
CONTINUOUS
 62
    7
 10
144.49653745639409
 20
80.196430371542192
 11
145.01351023997165
 21
80.254074530332559
  0
LINE
  8
_0-0_
  6
CONTINUOUS
 62
    7
 10
143.13973732710349
 20
79.375394873892219
 11
142.81018638725561
 21
78.920785229391413
  0
LINE
  8
_0-0_
  6
CONTINUOUS
 62
    7
 10
142.81018638725561
 20
78.920785229391413
 11
142.56530794742957
 21
78.40212482742777
  0
LINE
  8
_0-0_
  6
CONTINUOUS
 62
    7
 10
142.56530794742957
 20
78.40212482742777
 11
142.41451254873812
 21
77.839345496380929
  0
LINE
  8
_0-0_
  6
CONTINUOUS
 62
    7
 10
142.41451254873812
 20
77.839345496380929
 11
142.36359517378605
 21
77.254074530332559
  0
LINE
  8
_0-0_
  6
CONTINUOUS
 62
    7
 10
142.36359517378605
 20
77.254074530332559
 11
142.36359517378605
 21
72.254074530214325
  0
LINE
  8
_0-0_
  6
CONTINUOUS
 62
    7
 10
142.36359517378605
 20
72.254074530214325
 11
142.38161084561352
 21
71.863893886182041
  0
LINE
  8
_0-0_
  6
CONTINUOUS
 62
    7
 10
142.38161084561352
 20
71.863893886182041
 11
142.434965528931
 21
71.488707665484185
  0
LINE
  8
_0-0_
  6
CONTINUOUS
 62
    7
 10
142.434965528931
 20
71.488707665484185
 11
142.52160883317993
 21
71.142934064175165
  0
LINE
  8
_0-0_
  6
CONTINUOUS
 62
    7
 10
142.52160883317993
 20
71.142934064175165
 11
142.63821110476852
 21
70.839860967841219
  0
LINE
  8
_0-0_
  6
CONTINUOUS
 62
    7
 10
142.63821110476852
 20
70.839860967841219
 11
142.78029138379077
 21
70.591135305609214
  0
LINE
  8
_0-0_
  6
CONTINUOUS
 62
    7
 10
142.78029138379077
 20
70.591135305609214
 11
142.94238960480334
 21
70.40631546519171
  0
LINE
  8
_0-0_
  6
CONTINUOUS
 62
    7
 10
142.94238960480334
 20
70.40631546519171
 11
143.11827642407854
 21
70.292503969407903
  0
LINE
  8
_0-0_
  6
CONTINUOUS
 62
    7
 10
143.11827642407854
 20
70.292503969407903
 11
143.30119260979006
 21
70.254074530214325
  0
LINE
  8
_0-0_
  6
CONTINUOUS
 62
    7
 10
143.30119260966035
 20
70.254074530214325
 11
159.17659213647016
 21
70.254074530214325
  0
LINE
  8
_0-0_
  6
CONTINUOUS
 62
    7
 10
159.17659213647016
 20
70.254074530214325
 11
159.49295411607329
 21
70.226685684015706
  0
LINE
  8
_0-0_
  6
CONTINUOUS
 62
    7
 10
159.49295411607329
 20
70.226685684015706
 11
159.81582326725811
 21
70.142997475649395
  0
LINE
  8
_0-0_
  6
CONTINUOUS
 62
    7
 10
159.81582326725811
 20
70.142997475649395
 11
160.37710199200114
 21
69.850061634725762
  0
LINE
  8
_0-0_
  6
CONTINUOUS
 62
    7
 10
160.37710199200114
 20
69.850061634725762
 11
160.67208979865052
 21
69.59200399346139
  0
LINE
  8
_0-0_
  6
CONTINUOUS
 62
    7
 10
160.67208979865052
 20
69.59200399346139
 11
164.110631483921
 21
65.949248593812968
  0
LINE
  8
_0-0_
  6
CONTINUOUS
 62
    7
 10
164.110631483921
 20
65.949248593723041
 11
164.45284563797554
 21
65.655345481035511
  0
LINE
  8
_0-0_
  6
CONTINUOUS
 62
    7
 10
164.45284563797554
 20
65.655345481035511
 11
164.85168364736944
 21
65.435724397067133
  0
LINE
  8
_0-0_
  6
CONTINUOUS
 62
    7
 10
164.85168364736944
 20
65.435724397067133
 11
165.28970512248759
 21
65.299988933205896
  0
LINE
  8
_0-0_
  6
CONTINUOUS
 62
    7
 10
165.28970512248759
 20
65.299988933205896
 11
165.7477562590135
 21
65.254074530203638
  0
LINE
  8
_0-0_
  6
CONTINUOUS
 62
    7
 10
166.2734143739184
 20
65.254074530224784
 11
166.2734143739184
 21
63.254074530332559
  0
LINE
  8
_0-0_
  6
CONTINUOUS
 62
    7
 10
164.27341437391794
 20
60.754074530329774
 11
164.27341437391794
 21
58.254074530329774
  0
LINE
  8
_0-0_
  6
CENTER1
 62
  152
 10
161.77341435682445
 20
70.254074530329717
 11
180.77341435682445
 21
70.254074530329717
  0
LINE
  8
_0-0_
  6
CONTINUOUS
 62
    7
 10
180.68175216948521
 20
72.254074530332559
 11
180.73266954443727
 21
72.839345496380929
  0
LINE
  8
_0-0_
  6
CONTINUOUS
 62
    7
 10
180.73266954443727
 20
72.839345496380929
 11
180.88346494312862
 21
73.40212482742777
  0
LINE
  8
_0-0_
  6
CONTINUOUS
 62
    7
 10
180.88346494312862
 20
73.40212482742777
 11
181.12834338295488
 21
73.920785229391299
  0
LINE
  8
_0-0_
  6
CONTINUOUS
 62
    7
 10
181.12834338295488
 20
73.920785229391299
 11
181.45789432280264
 21
74.375394873892219
  0
LINE
  8
_0-0_
  6
CONTINUOUS
 62
    7
 10
181.45789432280264
 20
74.375394873892219
 11
181.859453304868
 21
74.748483367240169
  0
LINE
  8
_0-0_
  6
CONTINUOUS
 62
    7
 10
181.859453304868
 20
74.748483367240169
 11
182.31758864266692
 21
75.025713127866425
  0
LINE
  8
_0-0_
  6
CONTINUOUS
 62
    7
 10
182.31758864266692
 20
75.025713127866425
 11
182.81469445209325
 21
75.196430371542192
  0
LINE
  8
_0-0_
  6
CONTINUOUS
 62
    7
 10
182.81469445209325
 20
75.196430371542192
 11
183.33166723567081
 21
75.254074530332559
  0
LINE
  8
_0-0_
  6
CONTINUOUS
 62
    7
 10
176.66591437391844
 20
72.073119459460486
 11
175.88960597796097
 21
72.306874643348465
  0
LINE
  8
_0-0_
  6
CONTINUOUS
 62
    7
 10
175.88960597796097
 20
72.306874643348465
 11
175.09998117194914
 21
72.487364187019125
  0
LINE
  8
_0-0_
  6
CONTINUOUS
 62
    7
 10
175.09998117194914
 20
72.487364187019125
 11
174.29019539505794
 21
72.603756280560106
  0
LINE
  8
_0-0_
  6
CONTINUOUS
 62
    7
 10
174.29019539505794
 20
72.603756280560106
 11
173.46966437391848
 21
72.644074530332432
  0
LINE
  8
_0-0_
  6
CONTINUOUS
 62
    7
 10
173.46966437391848
 20
72.644074530332432
 11
173.24241752881733
 21
72.64096646403641
  0
LINE
  8
_0-0_
  6
CONTINUOUS
 62
    7
 10
173.24241752881733
 20
72.64096646403641
 11
172.49834790180068
 21
72.587698493993003
  0
LINE
  8
_0-0_
  6
CONTINUOUS
 62
    7
 10
172.49834790180068
 20
72.587698493993003
 11
171.75557461626272
 21
72.471215763263217
  0
LINE
  8
_0-0_
  6
CONTINUOUS
 62
    7
 10
171.75557461626272
 20
72.471215763263217
 11
171.01090498783287
 21
72.296439935135709
  0
LINE
  8
_0-0_
  6
CONTINUOUS
 62
    7
 10
171.01090498783287
 20
72.296439935135709
 11
170.2734143739184
 21
72.073119459460486
  0
LINE
  8
_0-0_
  6
CENTER1
 62
  152
 10
145.27341435682365
 20
73.754074530329603
 11
145.27341435682365
 21
14.754074530329433
  0
LINE
  8
_0-0_
  6
CENTER1
 62
  152
 10
119.2734143568249
 20
8.7540745303294329
 11
119.2734143568249
 21
27.754074530329433
  0
LINE
  8
_0-0_
  6
CONTINUOUS
 62
    7
 10
118.2734143568249
 20
9.2540745303296603
 11
172.2734143568249
 21
9.2540745303296603
  0
LINE
  8
_0-0_
  6
CENTER1
 62
  152
 10
174.77341435682376
 20
44.254074530329547
 11
115.77341435682365
 21
44.254074530329547
  0
ARC
  8
_0-0_
  6
CONTINUOUS
 62
    7
 10
149.53862017816527
 20
127.34872346779684
 40
5.9999999999999956
 50
207.9563469413217
 51
297.9563469413211
  0
ARC
  8
_0-0_
  6
CONTINUOUS
 62
    7
 10
161.2649886375707
 20
119.98694770857742
 40
5.9999999999999254
 50
102.1094556037787
 51
117.9563469413211
  0
ARC
  8
_0-0_
  6
CONTINUOUS
 62
    7
 10
188.74008219592599
 20
148.154214978342
 40
6.0000000000000142
 50
297.95634694132099
 51
27.956346941321996
  0
ARC
  8
_0-0_
  6
CONTINUOUS
 62
    7
 10
188.91216578301612
 20
134.66020426032287
 40
5.9999999999997424
 50
117.9563469413211
 51
147.98641519209329
  0
ARC
  8
_0-0_
  6
CONTINUOUS
 62
    7
 10
175.22111493193904
 20
132.83503616822657
 40
4.6413903932999876
 50
278.50994686825038
 51
327.98641519209309
  0
ARC
  8
_0-0_
  6
CONTINUOUS
 62
    7
 10
185.91490956193547
 20
124.92057258494754
 40
27.19259568082099
 50
128.31784419548239
 51
133.57062499036911
  0
ARC
  8
_0-0_
  6
CONTINUOUS
 62
    7
 10
174.97130280646309
 20
138.77184223857614
 40
9.5398285010000716
 50
99.541568475091296
 51
128.32949744285659
  0
ARC
  8
_0-0_
  6
CONTINUOUS
 62
    7
 10
177.86512072924666
 20
121.55460557276967
 40
26.998563293721968
 50
84.01170817820875
 51
99.541145801816882
  0
ARC
  8
_0-0_
  6
CONTINUOUS
 62
    7
 10
166.7734143085537
 20
172.80164241843192
 40
3.0000000482631952
 50
359.99999879258178
 51
89.999999253439881
  0
ARC
  8
_0-0_
  6
CONTINUOUS
 62
    7
 10
123.77341440507996
 20
172.80164241843192
 40
3.0000000482631952
 50
89.999998617365577
 51
179.99999907822419
  0
ARC
  8
_0-0_
  6
CONTINUOUS
 62
    7
 10
168.47341435681699
 20
183.30164246669594
 40
0.800000000000031
 50
270
 51
0.0000000000001144
  0
ARC
  8
_0-0_
  6
CONTINUOUS
 62
    7
 10
122.07341435681678
 20
183.30164246669594
 40
0.800000000000031
 50
180
 51
270
  0
ARC
  8
_0-0_
  6
CONTINUOUS
 62
    7
 10
170.27341437391738
 20
135.801642446816
 40
9.9999999844754814
 50
256.999999878903
 51
314.62211884185967
  0
ARC
  8
_0-0_
  6
CONTINUOUS
 62
    7
 10
170.2734143739184
 20
135.80164244681384
 40
6.3925000000000001
 50
239.99999999999977
 51
300.00000000000011
  0
ARC
  8
_0-0_
  6
CONTINUOUS
 62
    7
 10
170.2734143739184
 20
135.80164244681384
 40
6.3925000000000001
 50
180
 51
239.99999999999989
  0
ARC
  8
_0-0_
  6
CONTINUOUS
 62
    7
 10
170.2734143739184
 20
135.80164244681384
 40
6.3925000000000001
 50
120.0000000000004
 51
180.00000000000011
  0
ARC
  8
_0-0_
  6
CONTINUOUS
 62
    7
 10
170.2734143739184
 20
135.80164244681384
 40
6.3925000000000001
 50
59.999999999999623
 51
119.99999999999979
  0
ARC
  8
_0-0_
  6
CONTINUOUS
 62
    7
 10
170.2734143739184
 20
135.80164244681384
 40
6.3925000000000001
 50
0
 51
60.000000000000057
  0
ARC
  8
_0-0_
  6
CONTINUOUS
 62
    7
 10
170.2734143739184
 20
135.80164244681384
 40
6.3925000000000001
 50
299.9999999999996
 51
359.99999999999977
  0
ARC
  8
_0-0_
  6
CONTINUOUS
 62
    7
 10
170.27341437391794
 20
135.80164244681436
 40
25
 50
270
 51
20.828479897515489
  0
ARC
  8
_0-0_
  6
CONTINUOUS
 62
    7
 10
170.27341437391794
 20
135.80164244681436
 40
25
 50
42.443183268074101
 51
70.804765892025799
  0
ARC
  8
_0-0_
  6
CONTINUOUS
 62
    7
 10
170.27341437391794
 20
135.80164244681436
 40
25
 50
154.92024037007499
 51
193.46951061456846
  0
ARC
  8
_0-0_
  6
CONTINUOUS
 62
    7
 10
170.27341437391794
 20
135.80164244681436
 40
25
 50
215.29276201673309
 51
270
  0
ARC
  8
_0-0_
  6
CONTINUOUS
 62
    7
 10
170.27341437391794
 20
135.80164244681436
 40
18
 50
270
 51
15.944467462950362
  0
ARC
  8
_0-0_
  6
CONTINUOUS
 62
    7
 10
170.27341437391794
 20
135.80164244681436
 40
18
 50
48.287225742983949
 51
60.633955794962233
  0
ARC
  8
_0-0_
  6
CONTINUOUS
 62
    7
 10
170.27341437391794
 20
135.80164244681436
 40
18
 50
172.65992151979049
 51
187.62546813965841
  0
ARC
  8
_0-0_
  6
CONTINUOUS
 62
    7
 10
170.27341437391794
 20
135.80164244681436
 40
18
 50
219.968226419692
 51
270
  0
ARC
  8
_0-0_
  6
CONTINUOUS
 62
    7
 10
64.239594112335681
 20
172.80164241843192
 40
3.0000000482631952
 50
359.99999879258178
 51
89.999999253448351
  0
ARC
  8
_0-0_
  6
CONTINUOUS
 62
    7
 10
21.239594208862059
 20
172.80164241843192
 40
3.0000000482631952
 50
89.999998617357775
 51
179.99999907822442
  0
ARC
  8
_0-0_
  6
CONTINUOUS
 62
    7
 10
65.939594160598858
 20
183.30164246669594
 40
0.800000000000031
 50
270
 51
0.0000000000002162
  0
ARC
  8
_0-0_
  6
CONTINUOUS
 62
    7
 10
19.539594160598881
 20
183.30164246669594
 40
0.800000000000031
 50
179.99999999999986
 51
270
  0
ARC
  8
_0-0_
  6
CONTINUOUS
 62
    7
 10
16.619594160596762
 20
140.3016424468139
 40
1.5
 50
90
 51
180
  0
ARC
  8
_0-0_
  6
CONTINUOUS
 62
    7
 10
16.619594160596762
 20
131.3016424468139
 40
1.5
 50
180.00000000000034
 51
270
  0
ARC
  8
_0-0_
  6
CONTINUOUS
 62
    7
 10
30.739594160597107
 20
158.80164244681436
 40
1.9999999999999749
 50
90
 51
180.0000000000002
  0
ARC
  8
_0-0_
  6
CONTINUOUS
 62
    7
 10
30.739594160597107
 20
112.80164244681436
 40
1.9999999999999749
 50
180.0000000000002
 51
270
  0
ARC
  8
_0-0_
  6
CONTINUOUS
 62
    7
 10
54.739594160597107
 20
158.80164244681436
 40
1.99999999999997
 50
0
 51
90
  0
ARC
  8
_0-0_
  6
CONTINUOUS
 62
    7
 10
54.739594160597107
 20
112.80164244681436
 40
1.99999999999997
 50
270
 51
0
  0
CIRCLE
  8
_0-0_
  6
CONTINUOUS
 62
    7
 10
171.2734143568249
 20
291.53223768328439
 40
4.5
  0
CIRCLE
  8
_0-0_
  6
CONTINUOUS
 62
    7
 10
145.2734143568249
 20
265.53223768328439
 40
23
  0
CIRCLE
  8
_0-0_
  6
CONTINUOUS
 62
    7
 10
119.2734143568249
 20
291.53223768328439
 40
4.5
  0
ARC
  8
_0-0_
  6
CONTINUOUS
 62
    7
 10
172.2734143568249
 20
292.53223768328439
 40
8
 50
0
 51
90
  0
ARC
  8
_0-0_
  6
CONTINUOUS
 62
    7
 10
172.2734143568249
 20
238.53223768328442
 40
8
 50
270
 51
0.0000000000001781
  0
ARC
  8
_0-0_
  6
CONTINUOUS
 62
    7
 10
118.2734143568249
 20
238.53223768328442
 40
8
 50
180
 51
270
  0
CIRCLE
  8
_0-0_
  6
CONTINUOUS
 62
    7
 10
171.2734143568249
 20
239.53223768328442
 40
4.5
  0
CIRCLE
  8
_0-0_
  6
CONTINUOUS
 62
    7
 10
119.2734143568249
 20
239.53223768328442
 40
4.5
  0
ARC
  8
_0-0_
  6
CONTINUOUS
 62
    7
 10
118.2734143568249
 20
292.53223768328439
 40
8
 50
90
 51
180.00000000000011
  0
CIRCLE
  8
_0-0_
  6
CONTINUOUS
 62
    7
 10
145.2734143568249
 20
265.53223768328439
 40
7.5
  0
ARC
  8
_0-0_
  6
CONTINUOUS
 62
    7
 10
193.27341437391794
 20
253.53223768328431
 40
1.99999999999997
 50
270
 51
0.0000000000001144
  0
ARC
  8
_0-0_
  6
CONTINUOUS
 62
    7
 10
193.27341437391794
 20
277.53223768328428
 40
1.9999999999999749
 50
0
 51
90
  0
ARC
  8
_0-0_
  6
CONTINUOUS
 62
    7
 10
171.2734143568249
 20
18.25407453032966
 40
4.5
 50
201.10019602409844
 51
341.81924695438761
  0
CIRCLE
  8
_0-0_
  6
CONTINUOUS
 62
    7
 10
119.2734143568249
 20
18.25407453032966
 40
4.5
  0
ARC
  8
_0-0_
  6
CONTINUOUS
 62
    7
 10
172.2734143568249
 20
17.25407453032966
 40
8
 50
270
 51
0
  0
ARC
  8
_0-0_
  6
CONTINUOUS
 62
    7
 10
172.2734143568249
 20
71.254074530329717
 40
8
 50
0
 51
90
  0
ARC
  8
_0-0_
  6
CONTINUOUS
 62
    7
 10
118.2734143568249
 20
71.254074530329717
 40
8
 50
90
 51
180
  0
ARC
  8
_0-0_
  6
CONTINUOUS
 62
    7
 10
118.2734143568249
 20
17.25407453032966
 40
8
 50
179.99999999999986
 51
270
  0
CIRCLE
  8
_0-0_
  6
CONTINUOUS
 62
    7
 10
119.2734143568249
 20
70.254074530329717
 40
4.5
  0
ARC
  8
_0-0_
  6
CONTINUOUS
 62
    7
 10
171.2734143568249
 20
70.254074530329717
 40
4.5
 50
32.080558909382447
 51
147.91944109061791
  0
ARC
  8
_0-0_
  6
CONTINUOUS
 62
    7
 10
145.27341435681683
 20
44.254074530331536
 40
22
 50
251.13560202196652
 51
298.79358388637633
  0
ARC
  8
_0-0_
  6
CONTINUOUS
 62
    7
 10
145.27341435681683
 20
44.254074530331536
 40
24.5
 50
253.12188638008428
 51
295.62676718614387
  0
ARC
  8
_0-0_
  6
CONTINUOUS
 62
    7
 10
145.27341435681683
 20
44.254074530331536
 40
22
 50
61.206416113624066
 51
108.8643979780334
  0
ARC
  8
_0-0_
  6
CONTINUOUS
 62
    7
 10
145.27341435681683
 20
44.254074530331536
 40
24.5
 50
64.373232813856418
 51
106.8781136199156
  0
ARC
  8
_0-0_
  6
CONTINUOUS
 62
    7
 10
145.27341435681683
 20
44.254074530331536
 40
22
 50
135.80548912542341
 51
224.19451087457429
  0
ARC
  8
_0-0_
  6
CONTINUOUS
 62
    7
 10
145.27341435681683
 20
44.254074530331536
 40
24.5
 50
130.0769938346416
 51
229.92300616535692
  0
ARC
  8
_0-0_
  6
CONTINUOUS
 62
    7
 10
145.27341435681683
 20
44.254074530331536
 40
19.5
 50
47.642165468087462
 51
312.35783453191249
  0
ARC
  8
_0-0_
  6
CONTINUOUS
 62
    7
 10
165.7734143739184
 20
18.134074530329372
 40
1.5
 50
180
 51
270
  0
ARC
  8
_0-0_
  6
CONTINUOUS
 62
    7
 10
174.7734143739184
 20
18.134074530329372
 40
1.5
 50
270
 51
359.99999999999937
  0
ARC
  8
_0-0_
  6
CONTINUOUS
 62
    7
 10
147.27341437391794
 20
56.254074530329774
 40
1.99999999999997
 50
90
 51
180.00000000000031
  0
ARC
  8
_0-0_
  6
CONTINUOUS
 62
    7
 10
193.27341437391794
 20
56.254074530329774
 40
1.99999999999997
 50
0
 51
90
  0
ARC
  8
_0-0_
  6
CONTINUOUS
 62
    7
 10
147.27341437391794
 20
32.254074530329774
 40
1.9999999999999749
 50
179.99999999999986
 51
270
  0
ARC
  8
_0-0_
  6
CONTINUOUS
 62
    7
 10
193.27341437391794
 20
32.254074530329774
 40
1.9999999999999749
 50
270
 51
359.99999999999989
  0
ARC
  8
_0-0_
  6
CONTINUOUS
 62
    7
 10
308.58772833094292
 20
172.80164241843195
 40
3.0000000482631952
 50
359.99999879258178
 51
89.999999253448351
  0
ARC
  8
_0-0_
  6
CONTINUOUS
 62
    7
 10
265.5877284274693
 20
172.80164241843195
 40
3.0000000482631952
 50
89.999998617358045
 51
179.9999990782245
  0
ARC
  8
_0-0_
  6
CONTINUOUS
 62
    7
 10
310.2877283792061
 20
183.30164246669597
 40
0.800000000000031
 50
270
 51
359.99999999999989
  0
ARC
  8
_0-0_
  6
CONTINUOUS
 62
    7
 10
263.88772837920612
 20
183.30164246669597
 40
0.800000000000031
 50
180
 51
270
  0
ARC
  8
_0-0_
  6
CONTINUOUS
 62
    7
 10
313.20772837920828
 20
131.3016424468139
 40
1.5
 50
270
 51
0
  0
ARC
  8
_0-0_
  6
CONTINUOUS
 62
    7
 10
313.20772837920828
 20
140.3016424468139
 40
1.5
 50
0.0000000000001357
 51
90
  0
ARC
  8
_0-0_
  6
CONTINUOUS
 62
    7
 10
275.08772837920787
 20
112.80164244681436
 40
1.99999999999997
 50
179.9999999999998
 51
270
  0
ARC
  8
_0-0_
  6
CONTINUOUS
 62
    7
 10
275.08772837920787
 20
158.80164244681436
 40
1.99999999999997
 50
90
 51
180.0000000000002
  0
ARC
  8
_0-0_
  6
CONTINUOUS
 62
    7
 10
299.08772837920787
 20
112.80164244681436
 40
1.9999999999999749
 50
270
 51
359.9999999999996
  0
ARC
  8
_0-0_
  6
CONTINUOUS
 62
    7
 10
299.08772837920787
 20
158.80164244681436
 40
1.9999999999999749
 50
0.0000000000000509
 51
89.999999999999986
  0
TEXT
  8
_0-f_
 62
    7
 10
12.21284430891285
 20
12.82441491074178
 40
4.2999999999999998
 41
0.744186046511628
 50
0
  1
CA50EL
  0
ENDSEC
  0
EOF
