  0
SECTION
  2
HEADER
  9
$ACADVER
  1
AC1009
  9
$INSBASE
 10
0
 20
0
 30
0
  9
$EXTMIN
 10
0
 20
0
  9
$EXTMAX
 10
1189
 20
841
  9
$LIMMIN
 10
0
 20
0
  9
$LIMMAX
 10
1189
 20
841
  9
$LTSCALE
 40
1
  0
ENDSEC
  0
SECTION
  2
TABLES
  0
TABLE
  2
LTYPE
 70
     9
  0
LTYPE
  2
CONTINUOUS
 70
    64
  3
実線
 72
    65
 73
     0
 40
0.0
  0
LTYPE
  2
DASHED1
 70
    64
  3
--  --  --  --  --  --  --  --  
 72
    65
 73
     2
 40
2.5
 49
1.25
 49
-1.25
  0
LTYPE
  2
DASHED2
 70
    64
  3
----    ----    ----    ----    
 72
    65
 73
     2
 40
5.0
 49
2.5
 49
-2.5
  0
LTYPE
  2
DASHED3
 70
    64
  3
------  ------  ------  ------  
 72
    65
 73
     2
 40
5.0
 49
3.75
 49
-1.25
  0
LTYPE
  2
CENTER1
 70
    64
  3
----- - ----- - ----- - ----- - 
 72
    65
 73
     4
 40
10.0
 49
6.25
 49
-1.25
 49
1.25
 49
-1.25
  0
LTYPE
  2
CENTER2
 70
    64
  3
----------  --  ----------  --  
 72
    65
 73
     4
 40
20.0
 49
12.5
 49
-2.5
 49
2.5
 49
-2.5
  0
LTYPE
  2
PHANTOM1
 70
    64
  3
--- - - --- - - --- - - --- - - 
 72
    65
 73
     6
 40
10.0
 49
3.25
 49
-1.25
 49
1.25
 49
-1.25
 49
1.25
 49
-1.25
  0
LTYPE
  2
PHANTOM2
 70
    64
  3
--------  -  -  --------  -  -  
 72
    65
 73
     6
 40
20.0
 49
10.0
 49
-2.5
 49
1.25
 49
-2.5
 49
1.25
 49
-2.5
  0
LTYPE
  2
DOT
 70
    64
  3
-   -   -   -   -   -   -   -   
 72
    65
 73
     2
 40
2.5
 49
0.625
 49
-1.875
  0
LTYPE
  2
DUMMY
 70
    64
  3
ダミー
 72
    65
 73
     0
 40
0.0
  0
LTYPE
  2
RAND1
 70
    64
  3
ランダム線1
 72
    65
 73
     4
 40
10.0
 49
1.0
 49
-2.0
 49
3.0
 49
-4.0
  0
LTYPE
  2
RAND2
 70
    64
  3
ランダム線2
 72
    65
 73
     4
 40
14.0
 49
2.0
 49
-3.0
 49
4.0
 49
-5.0
  0
LTYPE
  2
RAND3
 70
    64
  3
ランダム線3
 72
    65
 73
     4
 40
18.0
 49
3.0
 49
-4.0
 49
5.0
 49
-6.0
  0
LTYPE
  2
RAND4
 70
    64
  3
ランダム線4
 72
    65
 73
     4
 40
22.0
 49
4.0
 49
-5.0
 49
6.0
 49
-7.0
  0
LTYPE
  2
RAND5
 70
    64
  3
ランダム線5
 72
    65
 73
     4
 40
26.0
 49
5.0
 49
-6.0
 49
7.0
 49
-8.0
  0
LTYPE
  2
LONG1
 70
    64
  3
----------  --  ----------  --  
 72
    65
 73
     4
 40
40.0
 49
32.5
 49
-2.5
 49
2.5
 49
-2.5
  0
LTYPE
  2
LONG2
 70
    64
  3
--------  -  -  --------  -  -  
 72
    65
 73
     6
 40
40.0
 49
30.0
 49
-2.5
 49
1.25
 49
-2.5
 49
1.25
 49
-2.5
  0
LTYPE
  2
LONG3
 70
    64
  3
+++++++++++++++..+++++++++++++++
 72
    65
 73
     2
 40
40.0
 49
37.5
 49
-2.5
  0
LTYPE
  2
LONG4
 70
    64
  3
+++++++++++++++..+++++++++++++++
 72
    65
 73
     2
 40
80.0
 49
75.0
 49
-5.0
  0
LTYPE
  2
LONG5
 70
    64
  3
----------  --  ----------  --  
 72
    65
 73
     4
 40
60.0
 49
37.5
 49
-7.5
 49
7.5
 49
-7.5
  0
LTYPE
  2
dashed
 70
   64
  3
-------   -------------   ------
 72
   65
 73
    2
 40
7.5
 49
6
 49
-1.5
  0
LTYPE
  2
dashed_spaced
 70
   64
  3
----        --------        ----
 72
   65
 73
    2
 40
12
 49
6
 49
-6
  0
LTYPE
  2
long_dashed_dotted
 70
   64
  3
------------- --- --------------
 72
   65
 73
    4
 40
15.25
 49
12
 49
-1.5
 49
0.25
 49
-1.5
  0
LTYPE
  2
long_dashed_double-dotted
 70
   64
  3
----------- --- --- ------------
 72
   65
 73
    6
 40
17
 49
12
 49
-1.5
 49
0.25
 49
-1.5
 49
0.25
 49
-1.5
  0
LTYPE
  2
long_dashed_triplicate-dotted
 70
   64
  3
--------- --- --- --- ----------
 72
   65
 73
    8
 40
18.75
 49
12
 49
-1.5
 49
0.25
 49
-1.5
 49
0.25
 49
-1.5
 49
0.25
 49
-1.5
  0
LTYPE
  2
dotted
 70
   64
  3
   -       -       -       -    
 72
   65
 73
    2
 40
1.75
 49
0.25
 49
-1.5
  0
LTYPE
  2
chain
 70
   64
  3
-------------- -- --------------
 72
   65
 73
    4
 40
18.5
 49
12
 49
-1.5
 49
3.5
 49
-1.5
  0
LTYPE
  2
chain_double_dash
 70
   64
  3
------------ -- -- -------------
 72
   65
 73
    6
 40
23.5
 49
12
 49
-1.5
 49
3.5
 49
-1.5
 49
3.5
 49
-1.5
  0
LTYPE
  2
dashed_dotted
 70
   64
  3
-----------     -     ----------
 72
   65
 73
    4
 40
9.25
 49
6
 49
-1.5
 49
0.25
 49
-1.5
  0
LTYPE
  2
double-dashed_dotted
 70
   64
  3
------   -----------   -   -----
 72
   65
 73
    6
 40
16.75
 49
6
 49
-1.5
 49
6
 49
-1.5
 49
0.25
 49
-1.5
  0
LTYPE
  2
dashed_double-dotted
 70
   64
  3
---------    -    -    ---------
 72
   65
 73
    6
 40
11
 49
6
 49
-1.5
 49
0.25
 49
-1.5
 49
0.25
 49
-1.5
  0
LTYPE
  2
double-dashed_double-dotted
 70
   64
  3
-----   ---------   -   -   ----
 72
   65
 73
    8
 40
18.5
 49
6
 49
-1.5
 49
6
 49
-1.5
 49
0.25
 49
-1.5
 49
0.25
 49
-1.5
  0
LTYPE
  2
dashed_triplicate-dotted
 70
   64
  3
-------    -    -    -    ------
 72
   65
 73
    8
 40
12.75
 49
6
 49
-1.5
 49
0.25
 49
-1.5
 49
0.25
 49
-1.5
 49
0.25
 49
-1.5
  0
LTYPE
  2
double-dashed_triplicate-dotted
 70
   64
  3
-----  ---------  -  -  -  -----
 72
   65
 73
   10
 40
20.25
 49
6
 49
-1.5
 49
6
 49
-1.5
 49
0.25
 49
-1.5
 49
0.25
 49
-1.5
 49
0.25
 49
-1.5
  0
LTYPE
  2
undefined
 70
   64
  3
--------------------------------
 72
   65
 73
    0
 40
0
  0
ENDTAB
  0
TABLE
  2
STYLE
  5
3
100
AcDbSymbolTable
 70
     1
  0
STYLE
  5
10
100
AcDbSymbolTableRecord
100
AcDbTextStyleTableRecord
  2
STANDARD
 70
     0
 40
0.0
 41
1.0
 50
0.0
 71
     0
 42
0.2
  3
txt
  4
bigfont.shx
  0
STYLE
  5
26
100
AcDbSymbolTableRecord
100
AcDbTextStyleTableRecord
  2
TATEGAKI
 70
    68
 40
0.0
 41
1.0
 50
0.0
 71
     0
 42
1.0
  3
txt
  4
bigfont.shx
  0
ENDTAB
  0
TABLE
  2
LAYER
 70
    3
  0
LAYER
  2
_0-0_
 70
   64
 62
    7
  6
CONTINUOUS
  0
LAYER
  2
_0-f_
 70
   64
 62
    7
  6
CONTINUOUS
  0
LAYER
  2
ADD_LINE
 70
   64
 62
    7
  6
CONTINUOUS
  0
ENDTAB
  0
ENDSEC
  0
SECTION
  2
BLOCKS
  0
ENDSEC
  0
SECTION
  2
ENTITIES
  0
LINE
  8
_0-0_
  6
CONTINUOUS
 62
    7
 10
100.71991426860097
 20
53.477442901947768
 11
100.71991426860097
 21
29.477442901947711
  0
LINE
  8
_0-0_
  6
CONTINUOUS
 62
    7
 10
102.71991426860103
 20
27.477442901947711
 11
148.71991426860103
 21
27.477442901947711
  0
LINE
  8
_0-0_
  6
CONTINUOUS
 62
    7
 10
150.71991426860103
 20
29.477442901947711
 11
150.71991426860103
 21
53.477442901947768
  0
LINE
  8
_0-0_
  6
CONTINUOUS
 62
    7
 10
148.71991426860103
 20
55.477442901947711
 11
102.71991426860097
 21
55.477442901947711
  0
LINE
  8
_0-0_
  6
CONTINUOUS
 62
    7
 10
115.71991428569464
 20
55.477442901947711
 11
115.71991428569464
 21
68.477442901947427
  0
LINE
  8
_0-0_
  6
CENTER1
 62
  152
 10
115.21991428569464
 20
67.477442901947427
 11
134.21991428569464
 21
67.477442901947427
  0
LINE
  8
_0-0_
  6
CONTINUOUS
 62
    7
 10
132.11241426860101
 20
65.867442901968957
 11
132.11241426860101
 21
60.477442901968971
  0
LINE
  8
_0-0_
  6
CONTINUOUS
 62
    7
 10
131.71991426860103
 20
57.977442901947768
 11
131.71991426860103
 21
55.477442901947711
  0
LINE
  8
_0-0_
  6
CONTINUOUS
 62
    7
 10
137.58161853653371
 20
55.477442901947711
 11
137.58161853653371
 21
59.123552524398292
  0
LINE
  8
_0-0_
  6
CONTINUOUS
 62
    7
 10
137.58161853653371
 20
59.123552524398292
 11
138.22106333061578
 21
59.582103208141859
  0
LINE
  8
_0-0_
  6
CONTINUOUS
 62
    7
 10
138.22106333061578
 20
59.582103208141859
 11
138.75698963114559
 21
59.940607140764996
  0
LINE
  8
_0-0_
  6
CONTINUOUS
 62
    7
 10
138.75698963114559
 20
59.940607140764996
 11
139.25900806134962
 21
60.25635736782499
  0
LINE
  8
_0-0_
  6
CONTINUOUS
 62
    7
 10
139.25900806134962
 20
60.25635736782499
 11
139.71368090833613
 21
60.526401583279494
  0
LINE
  8
_0-0_
  6
CONTINUOUS
 62
    7
 10
139.71368090833613
 20
60.526401583279494
 11
140.12349240048638
 21
60.757376595574442
  0
LINE
  8
_0-0_
  6
CONTINUOUS
 62
    7
 10
140.12349240048547
 20
63.567391820644445
 11
139.73546468239806
 21
63.377028900605296
  0
LINE
  8
_0-0_
  6
CONTINUOUS
 62
    7
 10
139.73546468239806
 20
63.377028900605296
 11
139.31126718016594
 21
63.159065793730235
  0
LINE
  8
_0-0_
  6
CONTINUOUS
 62
    7
 10
139.31126718016594
 20
63.159065793730235
 11
138.68288753533051
 21
62.816551453096736
  0
LINE
  8
_0-0_
  6
CONTINUOUS
 62
    7
 10
138.68288753533051
 20
62.816551453096736
 11
138.00470170950319
 21
62.419586277023257
  0
LINE
  8
_0-0_
  6
CONTINUOUS
 62
    7
 10
138.00470170950319
 20
62.419586277023257
 11
137.31786907232265
 21
61.986757548745288
  0
LINE
  8
_0-0_
  6
CONTINUOUS
 62
    7
 10
137.31786907232265
 20
61.986757548745288
 11
136.60831246474345
 21
61.505240934853987
  0
LINE
  8
_0-0_
  6
CONTINUOUS
 62
    7
 10
136.60831246474345
 20
61.505240934853987
 11
135.92921191693438
 21
61.009087058001569
  0
LINE
  8
_0-0_
  6
CONTINUOUS
 62
    7
 10
135.92921191693438
 20
61.009087058001569
 11
135.25220598743789
 21
60.477442901947597
  0
LINE
  8
_0-0_
  6
CONTINUOUS
 62
    7
 10
135.25220598743789
 20
60.477442901947597
 11
115.71991428412673
 21
60.477442901947597
  0
LINE
  8
_0-0_
  6
CONTINUOUS
 62
    7
 10
115.71991428412673
 20
57.977442901947541
 11
137.58161853653371
 21
57.977442901947541
  0
LINE
  8
_0-0_
  6
CONTINUOUS
 62
    7
 10
132.11241426860107
 20
65.296487831096954
 11
131.37492365468665
 21
65.519808306772234
  0
LINE
  8
_0-0_
  6
CONTINUOUS
 62
    7
 10
131.37492365468665
 20
65.519808306772234
 11
130.63025402625669
 21
65.694584134899799
  0
LINE
  8
_0-0_
  6
CONTINUOUS
 62
    7
 10
130.63025402625669
 20
65.694584134899799
 11
129.88748074071879
 21
65.811066865629584
  0
LINE
  8
_0-0_
  6
CONTINUOUS
 62
    7
 10
129.88748074071879
 20
65.811066865629584
 11
129.14341111370209
 21
65.864334835672935
  0
LINE
  8
_0-0_
  6
CONTINUOUS
 62
    7
 10
129.14341111370209
 20
65.864334835672935
 11
128.91616426860099
 21
65.867442901968957
  0
LINE
  8
_0-0_
  6
CONTINUOUS
 62
    7
 10
128.91616426860099
 20
65.867442901968957
 11
128.09563324746148
 21
65.82712465219663
  0
LINE
  8
_0-0_
  6
CONTINUOUS
 62
    7
 10
128.09563324746148
 20
65.82712465219663
 11
127.28584747057033
 21
65.710732558655707
  0
LINE
  8
_0-0_
  6
CONTINUOUS
 62
    7
 10
127.28584747057033
 20
65.710732558655707
 11
126.4962226645585
 21
65.53024301498499
  0
LINE
  8
_0-0_
  6
CONTINUOUS
 62
    7
 10
126.4962226645585
 20
65.53024301498499
 11
125.71991426860109
 21
65.296487831096954
  0
LINE
  8
_0-0_
  6
CONTINUOUS
 62
    7
 10
125.71991426860109
 20
65.296487831096954
 11
125.71991426860103
 21
60.477442901968971
  0
LINE
  8
_0-0_
  6
CENTER1
 62
  152
 10
125.71991426860103
 20
62.977442901947768
 11
125.71991426860103
 21
8.4774429019689705
  0
LINE
  8
_0-0_
  6
CENTER1
 62
  152
 10
124.71991428569464
 20
5.9774429019471427
 11
124.71991428569464
 21
24.977442901947143
  0
LINE
  8
_0-0_
  6
CONTINUOUS
 62
    7
 10
124.97780917657354
 20
22.127632974795461
 11
124.22848015189999
 21
22.303502402328718
  0
LINE
  8
_0-0_
  6
CONTINUOUS
 62
    7
 10
124.22848015189999
 20
22.303502402328718
 11
123.48105932850564
 21
22.420714017036346
  0
LINE
  8
_0-0_
  6
CONTINUOUS
 62
    7
 10
123.48105932850564
 20
22.420714017036346
 11
122.7323340473763
 21
22.474315360799665
  0
LINE
  8
_0-0_
  6
CONTINUOUS
 62
    7
 10
122.7323340473763
 20
22.474315360799665
 11
122.50366426860109
 21
22.477442901947427
  0
LINE
  8
_0-0_
  6
CONTINUOUS
 62
    7
 10
122.50366426860109
 20
22.477442901947427
 11
121.67799891177975
 21
22.436872367467743
  0
LINE
  8
_0-0_
  6
CONTINUOUS
 62
    7
 10
121.67799891177975
 20
22.436872367467743
 11
120.86314603577625
 21
22.319751969860874
  0
LINE
  8
_0-0_
  6
CONTINUOUS
 62
    7
 10
120.86314603577625
 20
22.319751969860874
 11
120.06858028455667
 21
22.138133043046366
  0
LINE
  8
_0-0_
  6
CONTINUOUS
 62
    7
 10
120.06858028455667
 20
22.138133043046366
 11
119.28741426860103
 21
21.902915175176361
  0
LINE
  8
_0-0_
  6
CONTINUOUS
 62
    7
 10
119.28741426860114
 20
22.477442901947427
 11
119.28741426860114
 21
15.857442901947365
  0
LINE
  8
_0-0_
  6
CONTINUOUS
 62
    7
 10
119.28741426860114
 20
15.857442901947365
 11
132.15241426860086
 21
15.857442901947365
  0
LINE
  8
_0-0_
  6
CONTINUOUS
 62
    7
 10
132.15241426860086
 20
15.857442901947365
 11
132.15241426860086
 21
22.477442901947427
  0
LINE
  8
_0-0_
  6
CONTINUOUS
 62
    7
 10
132.15241426860098
 20
21.902915175176361
 11
131.41030917657355
 21
22.127632974795461
  0
LINE
  8
_0-0_
  6
CONTINUOUS
 62
    7
 10
131.41030917657355
 20
22.127632974795461
 11
130.66098015189999
 21
22.303502402328718
  0
LINE
  8
_0-0_
  6
CONTINUOUS
 62
    7
 10
130.66098015189999
 20
22.303502402328718
 11
129.91355932850564
 21
22.420714017036346
  0
LINE
  8
_0-0_
  6
CONTINUOUS
 62
    7
 10
129.91355932850564
 20
22.420714017036346
 11
129.1648340473763
 21
22.474315360799665
  0
LINE
  8
_0-0_
  6
CONTINUOUS
 62
    7
 10
129.1648340473763
 20
22.474315360799665
 11
128.93616426860092
 21
22.477442901947427
  0
LINE
  8
_0-0_
  6
CONTINUOUS
 62
    7
 10
128.93616426860092
 20
22.477442901947427
 11
128.11049891177981
 21
22.436872367467743
  0
LINE
  8
_0-0_
  6
CONTINUOUS
 62
    7
 10
128.11049891177981
 20
22.436872367467743
 11
128.01581679080022
 21
22.427099989335886
  0
LINE
  8
_0-0_
  6
CONTINUOUS
 62
    7
 10
128.01581679080022
 20
22.427099989335886
 11
127.29564603577637
 21
22.319751969860874
  0
LINE
  8
_0-0_
  6
CONTINUOUS
 62
    7
 10
127.29564603577637
 20
22.319751969860874
 11
126.50108028455685
 21
22.138133043046423
  0
LINE
  8
_0-0_
  6
CONTINUOUS
 62
    7
 10
126.50108028455685
 20
22.138133043046423
 11
125.71991426860126
 21
21.902915175176361
  0
LINE
  8
_0-0_
  6
CONTINUOUS
 62
    7
 10
125.71991426860126
 20
21.902915175176361
 11
125.71991426860126
 21
16.431970628718432
  0
LINE
  8
_0-0_
  6
CONTINUOUS
 62
    7
 10
125.71991426860126
 20
16.431970628718432
 11
124.93874825264538
 21
16.196752760848426
  0
LINE
  8
_0-0_
  6
CONTINUOUS
 62
    7
 10
124.93874825264538
 20
16.196752760848426
 11
124.1441825014258
 21
16.015133834033918
  0
LINE
  8
_0-0_
  6
CONTINUOUS
 62
    7
 10
124.1441825014258
 20
16.015133834033918
 11
123.3293296254223
 21
15.89801343642705
  0
LINE
  8
_0-0_
  6
CONTINUOUS
 62
    7
 10
123.3293296254223
 20
15.89801343642705
 11
122.50366426860109
 21
15.857442901947365
  0
LINE
  8
_0-0_
  6
CONTINUOUS
 62
    7
 10
122.50366426860109
 20
15.857442901947365
 11
122.2749944898257
 21
15.860570443095071
  0
LINE
  8
_0-0_
  6
CONTINUOUS
 62
    7
 10
122.2749944898257
 20
15.860570443095071
 11
121.52626920869636
 21
15.914171786858446
  0
LINE
  8
_0-0_
  6
CONTINUOUS
 62
    7
 10
121.52626920869636
 20
15.914171786858446
 11
120.77884838530201
 21
16.031383401566075
  0
LINE
  8
_0-0_
  6
CONTINUOUS
 62
    7
 10
120.77884838530201
 20
16.031383401566075
 11
120.02951936062846
 21
16.207252829099332
  0
LINE
  8
_0-0_
  6
CONTINUOUS
 62
    7
 10
120.02951936062846
 20
16.207252829099332
 11
119.28741426860103
 21
16.431970628718432
  0
LINE
  8
_0-0_
  6
CONTINUOUS
 62
    7
 10
119.71991426860103
 20
15.857442901947365
 11
119.71991426860103
 21
15.357442901947479
  0
LINE
  8
_0-0_
  6
CONTINUOUS
 62
    7
 10
121.21991426860103
 20
13.857442901947479
 11
130.21991426204562
 21
13.857442901947479
  0
LINE
  8
_0-0_
  6
CONTINUOUS
 62
    7
 10
129.71794881405572
 20
13.857442901947479
 11
129.71791426860119
 21
13.477442901968971
  0
LINE
  8
_0-0_
  6
CONTINUOUS
 62
    7
 10
129.71791426860119
 20
13.477442901968971
 11
121.72191426860081
 21
13.477442901968971
  0
LINE
  8
_0-0_
  6
CONTINUOUS
 62
    7
 10
121.72191426860081
 20
13.477442901968971
 11
121.72187972314629
 21
13.857442901947479
  0
LINE
  8
_0-0_
  6
CONTINUOUS
 62
    7
 10
125.71991426860126
 20
16.431970628718432
 11
126.46201936062869
 21
16.207252829099275
  0
LINE
  8
_0-0_
  6
CONTINUOUS
 62
    7
 10
126.46201936062869
 20
16.207252829099275
 11
127.21134838530219
 21
16.031383401566018
  0
LINE
  8
_0-0_
  6
CONTINUOUS
 62
    7
 10
127.21134838530219
 20
16.031383401566018
 11
127.95876920869648
 21
15.914171786858446
  0
LINE
  8
_0-0_
  6
CONTINUOUS
 62
    7
 10
127.95876920869648
 20
15.914171786858446
 11
128.70749448982571
 21
15.860570443095071
  0
LINE
  8
_0-0_
  6
CONTINUOUS
 62
    7
 10
128.70749448982571
 20
15.860570443095071
 11
128.93616426860092
 21
15.857442901947365
  0
LINE
  8
_0-0_
  6
CONTINUOUS
 62
    7
 10
128.93616426860092
 20
15.857442901947365
 11
129.76182962542231
 21
15.89801343642705
  0
LINE
  8
_0-0_
  6
CONTINUOUS
 62
    7
 10
129.76182962542231
 20
15.89801343642705
 11
130.57668250142581
 21
16.015133834033918
  0
LINE
  8
_0-0_
  6
CONTINUOUS
 62
    7
 10
130.57668250142581
 20
16.015133834033918
 11
131.37124825264539
 21
16.196752760848426
  0
LINE
  8
_0-0_
  6
CONTINUOUS
 62
    7
 10
131.37124825264539
 20
16.196752760848426
 11
132.15241426860098
 21
16.431970628718432
  0
LINE
  8
_0-0_
  6
CONTINUOUS
 62
    7
 10
131.71991426860103
 20
15.857442901947365
 11
131.71991426860103
 21
15.357442901947479
  0
LINE
  8
_0-0_
  6
CENTER1
 62
  152
 10
134.21991428569464
 20
15.477442901947143
 11
115.21991428569464
 21
15.477442901947143
  0
LINE
  8
_0-0_
  6
CONTINUOUS
 62
    7
 10
115.71991428569464
 20
14.477442901947143
 11
115.71991428569464
 21
27.477442901947711
  0
LINE
  8
_0-0_
  6
CONTINUOUS
 62
    7
 10
118.02333652481843
 20
27.477442901947711
 11
118.02333652481843
 21
24.977442901947484
  0
LINE
  8
_0-0_
  6
CONTINUOUS
 62
    7
 10
119.71991426860097
 20
24.977442901947711
 11
119.71991426860097
 21
27.477442901947711
  0
LINE
  8
_0-0_
  6
CONTINUOUS
 62
    7
 10
115.71991428412673
 20
24.977442901947484
 11
137.58161853653371
 21
24.977442901947484
  0
LINE
  8
_0-0_
  6
CONTINUOUS
 62
    7
 10
137.58161853653371
 20
23.831333279496164
 11
138.19793587492211
 21
23.38877084786543
  0
LINE
  8
_0-0_
  6
CONTINUOUS
 62
    7
 10
138.19793587492211
 20
23.38877084786543
 11
138.79255359050165
 21
22.991284110928746
  0
LINE
  8
_0-0_
  6
CONTINUOUS
 62
    7
 10
138.79255359050165
 20
22.991284110928746
 11
139.49458163453141
 21
22.55676884231832
  0
LINE
  8
_0-0_
  6
CONTINUOUS
 62
    7
 10
139.49458163453141
 20
22.55676884231832
 11
140.12349240048638
 21
22.197509208320071
  0
LINE
  8
_0-0_
  6
CONTINUOUS
 62
    7
 10
140.12349240048638
 20
19.387493983249669
 11
139.7042287478036
 21
19.593558538471711
  0
LINE
  8
_0-0_
  6
CONTINUOUS
 62
    7
 10
139.7042287478036
 20
19.593558538471711
 11
139.24027931383051
 21
19.83332173908326
  0
LINE
  8
_0-0_
  6
CONTINUOUS
 62
    7
 10
139.24027931383051
 20
19.83332173908326
 11
138.7211829218511
 21
20.116746579896926
  0
LINE
  8
_0-0_
  6
CONTINUOUS
 62
    7
 10
138.7211829218511
 20
20.116746579896926
 11
138.16774471387447
 21
20.43717106339318
  0
LINE
  8
_0-0_
  6
CONTINUOUS
 62
    7
 10
138.16774471387447
 20
20.43717106339318
 11
137.60527674866438
 21
20.783124240461234
  0
LINE
  8
_0-0_
  6
CONTINUOUS
 62
    7
 10
137.60527674866438
 20
20.783124240461234
 11
137.02391273449587
 21
21.163173495701528
  0
LINE
  8
_0-0_
  6
CONTINUOUS
 62
    7
 10
137.02391273449587
 20
21.163173495701528
 11
136.41492645755159
 21
21.587356291350034
  0
LINE
  8
_0-0_
  6
CONTINUOUS
 62
    7
 10
136.41492645755159
 20
21.587356291350034
 11
135.7993009902907
 21
22.044859468728475
  0
LINE
  8
_0-0_
  6
CONTINUOUS
 62
    7
 10
135.7993009902907
 20
22.044859468728475
 11
135.25220598743704
 21
22.477442901947541
  0
LINE
  8
_0-0_
  6
CONTINUOUS
 62
    7
 10
135.25220598743704
 20
22.477442901947541
 11
115.71991428412673
 21
22.477442901947541
  0
LINE
  8
_0-0_
  6
CONTINUOUS
 62
    7
 10
124.97780917657354
 20
22.127632974795461
 11
125.71991426860126
 21
21.902915175176361
  0
LINE
  8
_0-0_
  6
CONTINUOUS
 62
    7
 10
131.71991426860103
 20
24.977442901947711
 11
131.71991426860103
 21
27.477442901947711
  0
LINE
  8
_0-0_
  6
CONTINUOUS
 62
    7
 10
137.58161853653371
 20
27.477442901947768
 11
137.58161853653371
 21
23.831333279496164
  0
LINE
  8
_0-0_
  6
CONTINUOUS
 62
    7
 10
157.8331629397469
 20
20.659141011888153
 11
158.41016877603374
 21
20.865435654931957
  0
LINE
  8
_0-0_
  6
CONTINUOUS
 62
    7
 10
158.41016877603374
 20
20.865435654931957
 11
159.07137520019063
 21
21.124379717512909
  0
LINE
  8
_0-0_
  6
CONTINUOUS
 62
    7
 10
159.07137520019063
 20
21.124379717512909
 11
159.79958143789628
 21
21.43848972556475
  0
LINE
  8
_0-0_
  6
CONTINUOUS
 62
    7
 10
159.79958143789628
 20
21.43848972556475
 11
160.58239012436525
 21
21.812440272921663
  0
LINE
  8
_0-0_
  6
CONTINUOUS
 62
    7
 10
160.58239012436525
 20
21.812440272921663
 11
161.40654300038881
 21
22.247877614585946
  0
LINE
  8
_0-0_
  6
CONTINUOUS
 62
    7
 10
161.40654300038881
 20
22.247877614585946
 11
162.25150141332699
 21
22.74184848069018
  0
LINE
  8
_0-0_
  6
CONTINUOUS
 62
    7
 10
162.25150141332699
 20
22.74184848069018
 11
163.12936999779447
 21
23.311987621737046
  0
LINE
  8
_0-0_
  6
CONTINUOUS
 62
    7
 10
163.12936999779447
 20
23.311987621737046
 11
164.00390447121072
 21
23.941371266999454
  0
LINE
  8
_0-0_
  6
CONTINUOUS
 62
    7
 10
164.00390447121072
 20
23.941371266999454
 11
164.85895709597798
 21
24.622548407794966
  0
LINE
  8
_0-0_
  6
CONTINUOUS
 62
    7
 10
164.85895709597798
 20
24.622548407794966
 11
165.69377187903518
 21
25.359747988849108
  0
LINE
  8
_0-0_
  6
CONTINUOUS
 62
    7
 10
165.69377187903518
 20
25.359747988849108
 11
166.49341697759178
 21
26.141321722563589
  0
LINE
  8
_0-0_
  6
CONTINUOUS
 62
    7
 10
166.49341697759178
 20
22.730533481225564
 11
165.7228536273638
 21
22.108413741708034
  0
LINE
  8
_0-0_
  6
CONTINUOUS
 62
    7
 10
165.7228536273638
 20
22.108413741708034
 11
164.93114183776368
 21
21.520213348140601
  0
LINE
  8
_0-0_
  6
CONTINUOUS
 62
    7
 10
164.93114183776368
 20
21.520213348140601
 11
164.10234648388644
 21
20.955340075446088
  0
LINE
  8
_0-0_
  6
CONTINUOUS
 62
    7
 10
164.10234648388644
 20
20.955340075446088
 11
163.26522012865905
 21
20.433077829403203
  0
LINE
  8
_0-0_
  6
CONTINUOUS
 62
    7
 10
163.26522012865905
 20
20.433077829403203
 11
162.44861119047437
 21
19.96735718585677
  0
LINE
  8
_0-0_
  6
CONTINUOUS
 62
    7
 10
162.44861119047437
 20
19.96735718585677
 11
161.64318870031798
 21
19.54727928963365
  0
LINE
  8
_0-0_
  6
CONTINUOUS
 62
    7
 10
161.64318870031798
 20
19.54727928963365
 11
160.82912473985874
 21
19.160408800635082
  0
LINE
  8
_0-0_
  6
CONTINUOUS
 62
    7
 10
160.82912473985874
 20
19.160408800635082
 11
160.05228021532213
 21
18.824475190065698
  0
LINE
  8
_0-0_
  6
CONTINUOUS
 62
    7
 10
160.05228021532213
 20
18.824475190065698
 11
159.43269653562521
 21
18.57905212441915
  0
LINE
  8
_0-0_
  6
CONTINUOUS
 62
    7
 10
159.43269653562521
 20
18.57905212441915
 11
158.85685088512491
 21
18.368131731406834
  0
LINE
  8
_0-0_
  6
CONTINUOUS
 62
    7
 10
158.85685088512491
 20
18.368131731406834
 11
158.3143914116236
 21
18.184230579966538
  0
LINE
  8
_0-0_
  6
CONTINUOUS
 62
    7
 10
158.3143914116236
 20
18.184230579966538
 11
157.8331629397469
 21
18.032791196587311
  0
LINE
  8
_0-0_
  6
CENTER1
 62
  152
 10
167.21991428569419
 20
15.477442901947143
 11
186.21991428569419
 21
15.477442901947143
  0
LINE
  8
_0-0_
  6
CONTINUOUS
 62
    7
 10
185.71991428569424
 20
14.477442901947143
 11
185.71991428569424
 21
68.477442901947427
  0
LINE
  8
_0-0_
  6
CENTER1
 62
  152
 10
186.21991428569419
 20
67.477442901947427
 11
167.21991428569419
 21
67.477442901947427
  0
LINE
  8
_0-0_
  6
CONTINUOUS
 62
    7
 10
166.49341697759178
 20
60.224352322668892
 11
165.8086650087298
 21
60.779723902490787
  0
LINE
  8
_0-0_
  6
CONTINUOUS
 62
    7
 10
165.8086650087298
 20
60.779723902490787
 11
165.1066801917753
 21
61.308503558494863
  0
LINE
  8
_0-0_
  6
CONTINUOUS
 62
    7
 10
165.1066801917753
 20
61.308503558494863
 11
164.20121950851626
 21
61.934265645053699
  0
LINE
  8
_0-0_
  6
CONTINUOUS
 62
    7
 10
164.20121950851626
 20
61.934265645053699
 11
163.28260206510123
 21
62.510898310365747
  0
LINE
  8
_0-0_
  6
CONTINUOUS
 62
    7
 10
163.28260206510123
 20
62.510898310365747
 11
162.36752563917344
 21
63.031633904124476
  0
LINE
  8
_0-0_
  6
CONTINUOUS
 62
    7
 10
162.36752563917344
 20
63.031633904124476
 11
161.48972118217551
 21
63.482929954360259
  0
LINE
  8
_0-0_
  6
CONTINUOUS
 62
    7
 10
161.48972118217551
 20
63.482929954360259
 11
160.63874390184884
 21
63.879398271928835
  0
LINE
  8
_0-0_
  6
CONTINUOUS
 62
    7
 10
160.63874390184884
 20
63.879398271928835
 11
159.83486385497667
 21
64.218764199300495
  0
LINE
  8
_0-0_
  6
CONTINUOUS
 62
    7
 10
159.83486385497667
 20
64.218764199300495
 11
159.0908056428197
 21
64.50291988369105
  0
LINE
  8
_0-0_
  6
CONTINUOUS
 62
    7
 10
159.0908056428197
 20
64.50291988369105
 11
158.41804021776414
 21
64.736507062734631
  0
LINE
  8
_0-0_
  6
CONTINUOUS
 62
    7
 10
158.41804021776414
 20
64.736507062734631
 11
157.8331629397469
 21
64.922094607307145
  0
LINE
  8
_0-0_
  6
CONTINUOUS
 62
    7
 10
157.83316293974781
 20
62.295744792006076
 11
158.31188985615682
 21
62.12597570545455
  0
LINE
  8
_0-0_
  6
CONTINUOUS
 62
    7
 10
158.31188985615682
 20
62.12597570545455
 11
159.00668419727879
 21
61.856743520897908
  0
LINE
  8
_0-0_
  6
CONTINUOUS
 62
    7
 10
159.00668419727879
 20
61.856743520897908
 11
159.78468234175989
 21
61.52277574920231
  0
LINE
  8
_0-0_
  6
CONTINUOUS
 62
    7
 10
159.78468234175989
 20
61.52277574920231
 11
160.6224605555775
 21
61.122787830780624
  0
LINE
  8
_0-0_
  6
CONTINUOUS
 62
    7
 10
160.6224605555775
 20
61.122787830780624
 11
161.5010419382823
 21
60.653992079621446
  0
LINE
  8
_0-0_
  6
CONTINUOUS
 62
    7
 10
161.5010419382823
 20
60.653992079621446
 11
162.40691765831161
 21
60.115742056245836
  0
LINE
  8
_0-0_
  6
CONTINUOUS
 62
    7
 10
162.40691765831161
 20
60.115742056245836
 11
163.31679477764084
 21
59.514033540747278
  0
LINE
  8
_0-0_
  6
CONTINUOUS
 62
    7
 10
163.31679477764084
 20
59.514033540747278
 11
164.41548938295438
 21
58.693378842501943
  0
LINE
  8
_0-0_
  6
CONTINUOUS
 62
    7
 10
164.41548938295438
 20
58.693378842501943
 11
165.48199124110562
 21
57.788120139485557
  0
LINE
  8
_0-0_
  6
CONTINUOUS
 62
    7
 10
165.48199124110562
 20
57.788120139485557
 11
166.49341697759178
 21
56.813564081330867
  0
LINE
  8
_0-0_
  6
CENTER1
 62
  152
 10
176.71991428569419
 20
57.977442901947427
 11
176.71991428569419
 21
76.977442901947427
  0
LINE
  8
_0-0_
  6
CONTINUOUS
 62
    7
 10
177.71991428569419
 20
76.477442901947427
 11
123.71991428569464
 21
76.477442901947427
  0
LINE
  8
_0-0_
  6
CENTER1
 62
  152
 10
124.71991428569464
 20
76.977442901947427
 11
124.71991428569464
 21
57.977442901947427
  0
LINE
  8
_0-0_
  6
CONTINUOUS
 62
    7
 10
119.71991426860097
 20
57.977442901947768
 11
119.71991426860097
 21
55.477442901947711
  0
LINE
  8
_0-0_
  6
CONTINUOUS
 62
    7
 10
118.02333652481843
 20
55.477442901947711
 11
118.02333652481843
 21
57.977442901947541
  0
LINE
  8
_0-0_
  6
CONTINUOUS
 62
    7
 10
119.32741426860099
 20
60.477442901968971
 11
119.32741426860099
 21
65.867442901968957
  0
LINE
  8
_0-0_
  6
CONTINUOUS
 62
    7
 10
119.32741426860099
 20
65.867442901968957
 11
132.11241426860101
 21
65.867442901968957
  0
LINE
  8
_0-0_
  6
CONTINUOUS
 62
    7
 10
125.71991426860109
 20
65.296487831096954
 11
124.98242365468667
 21
65.519808306772234
  0
LINE
  8
_0-0_
  6
CONTINUOUS
 62
    7
 10
124.98242365468667
 20
65.519808306772234
 11
124.23775402625671
 21
65.694584134899799
  0
LINE
  8
_0-0_
  6
CONTINUOUS
 62
    7
 10
124.23775402625671
 20
65.694584134899799
 11
123.4949807407188
 21
65.811066865629584
  0
LINE
  8
_0-0_
  6
CONTINUOUS
 62
    7
 10
123.4949807407188
 20
65.811066865629584
 11
122.7509111137021
 21
65.864334835672935
  0
LINE
  8
_0-0_
  6
CONTINUOUS
 62
    7
 10
122.7509111137021
 20
65.864334835672935
 11
122.52366426860101
 21
65.867442901968957
  0
LINE
  8
_0-0_
  6
CONTINUOUS
 62
    7
 10
122.52366426860101
 20
65.867442901968957
 11
121.70313324746149
 21
65.82712465219663
  0
LINE
  8
_0-0_
  6
CONTINUOUS
 62
    7
 10
121.70313324746149
 20
65.82712465219663
 11
120.89334747057035
 21
65.710732558655707
  0
LINE
  8
_0-0_
  6
CONTINUOUS
 62
    7
 10
120.89334747057035
 20
65.710732558655707
 11
120.10372266455852
 21
65.53024301498499
  0
LINE
  8
_0-0_
  6
CONTINUOUS
 62
    7
 10
120.10372266455852
 20
65.53024301498499
 11
119.32741426860099
 21
65.296487831096954
  0
LINE
  8
_0-0_
  6
CENTER1
 62
  152
 10
121.21991428569538
 20
41.477442901947256
 11
180.21991428569549
 21
41.477442901947256
  0
LINE
  8
_0-0_
  6
CENTER1
 62
  152
 10
176.71991428569419
 20
24.977442901947143
 11
176.71991428569419
 21
5.9774429019471427
  0
LINE
  8
_0-0_
  6
CONTINUOUS
 62
    7
 10
177.71991428569419
 20
6.4774429019471427
 11
123.71991428569464
 21
6.4774429019471427
  0
LINE
  8
_0-0_
  6
CENTER1
 62
  152
 10
150.71991428569544
 20
11.977442901947143
 11
150.71991428569544
 21
70.977442901947313
  0
ARC
  8
_0-0_
  6
CONTINUOUS
 62
    7
 10
124.71991428569464
 20
67.477442901947427
 40
4.5
 50
339.03621568241471
 51
200.96378431758552
  0
ARC
  8
_0-0_
  6
CONTINUOUS
 62
    7
 10
177.71991428569419
 20
14.477442901947143
 40
8
 50
270
 51
0
  0
CIRCLE
  8
_0-0_
  6
CONTINUOUS
 62
    7
 10
176.71991428569419
 20
15.477442901947143
 40
4.5
  0
ARC
  8
_0-0_
  6
CONTINUOUS
 62
    7
 10
124.71991428569464
 20
15.477442901947143
 40
4.5
 50
198.18075304928902
 51
333.61220003906436
  0
ARC
  8
_0-0_
  6
CONTINUOUS
 62
    7
 10
177.71991428569419
 20
68.477442901947427
 40
8.0000000000000249
 50
0.0000000000001144
 51
90
  0
CIRCLE
  8
_0-0_
  6
CONTINUOUS
 62
    7
 10
176.71991428569419
 20
67.477442901947427
 40
4.5
  0
ARC
  8
_0-0_
  6
CONTINUOUS
 62
    7
 10
123.71991428569464
 20
68.477442901947427
 40
7.9999999999999956
 50
90
 51
180
  0
ARC
  8
_0-0_
  6
CONTINUOUS
 62
    7
 10
123.71991428569464
 20
14.477442901947143
 40
7.9999999999999929
 50
179.99999999999989
 51
270
  0
ARC
  8
_0-0_
  6
CONTINUOUS
 62
    7
 10
150.71991428569544
 20
41.477442901947256
 40
22.000000000000039
 50
71.135602021959798
 51
118.79358388637439
  0
ARC
  8
_0-0_
  6
CONTINUOUS
 62
    7
 10
150.71991428569544
 20
41.477442901947256
 40
24.50000000000005
 50
73.121886380078195
 51
115.62676718614173
  0
ARC
  8
_0-0_
  6
CONTINUOUS
 62
    7
 10
150.71991428569544
 20
41.477442901947256
 40
22.000000000000039
 50
241.20641611362572
 51
288.86439797804019
  0
ARC
  8
_0-0_
  6
CONTINUOUS
 62
    7
 10
150.71991428569544
 20
41.477442901947256
 40
24.50000000000005
 50
244.37323281385812
 51
286.87811361992169
  0
ARC
  8
_0-0_
  6
CONTINUOUS
 62
    7
 10
150.71991428569544
 20
41.477442901947256
 40
22.000000000000039
 50
315.80548912543702
 51
44.19451087456283
  0
ARC
  8
_0-0_
  6
CONTINUOUS
 62
    7
 10
150.71991428569544
 20
41.477442901947256
 40
24.50000000000005
 50
310.07699383465473
 51
49.923006165345072
  0
ARC
  8
_0-0_
  6
CONTINUOUS
 62
    7
 10
150.71991428569544
 20
41.477442901947256
 40
19.499999999999961
 50
227.64216546808385
 51
132.35783453191624
  0
ARC
  8
_0-0_
  6
CONTINUOUS
 62
    7
 10
130.21991426860103
 20
15.357442901947479
 40
1.4999999999999969
 50
270
 51
0
  0
ARC
  8
_0-0_
  6
CONTINUOUS
 62
    7
 10
121.21991426860103
 20
15.357442901947479
 40
1.4999999999999969
 50
180
 51
270
  0
ARC
  8
_0-0_
  6
CONTINUOUS
 62
    7
 10
148.71991426860103
 20
53.477442901947768
 40
1.999999999999972
 50
359.99999999999898
 51
90
  0
ARC
  8
_0-0_
  6
CONTINUOUS
 62
    7
 10
102.71991426860097
 20
53.477442901947768
 40
1.999999999999972
 50
90.000000000000043
 51
180.00000000000026
  0
ARC
  8
_0-0_
  6
CONTINUOUS
 62
    7
 10
148.71991426860103
 20
29.477442901947711
 40
1.999999999999974
 50
270
 51
359.9999999999996
  0
ARC
  8
_0-0_
  6
CONTINUOUS
 62
    7
 10
102.71991426860097
 20
29.477442901947711
 40
1.999999999999974
 50
179.99999999999918
 51
270
  0
LINE
  8
_0-0_
  6
CONTINUOUS
 62
    7
 10
7.3413078936569036
 20
175.7516158166128
 11
77.341307893657358
 21
175.7516158166128
  0
LINE
  8
_0-0_
  6
CONTINUOUS
 62
    7
 10
77.341307893657358
 20
175.7516158166128
 11
77.341307893657358
 21
173.2516158166128
  0
LINE
  8
_0-0_
  6
CONTINUOUS
 62
    7
 10
77.341307893657358
 20
173.2516158166128
 11
7.3413078936569036
 21
173.2516158166128
  0
LINE
  8
_0-0_
  6
CONTINUOUS
 62
    7
 10
7.3413078936569036
 20
173.2516158166128
 11
7.3413078936569036
 21
175.7516158166128
  0
LINE
  8
_0-0_
  6
CONTINUOUS
 62
    7
 10
19.141307893656858
 20
172.45161581661307
 11
65.541307893598969
 21
172.45161581661307
  0
LINE
  8
_0-0_
  6
CONTINUOUS
 62
    7
 10
63.44130789365704
 20
172.45161581661307
 11
65.841307893657131
 21
170.05161581661287
  0
LINE
  8
_0-0_
  6
CONTINUOUS
 62
    7
 10
65.841307893657131
 20
170.05161581661287
 11
65.841307893657131
 21
165.75161581661291
  0
LINE
  8
_0-0_
  6
CONTINUOUS
 62
    7
 10
65.841307893657131
 20
165.75161581661291
 11
18.841307893657131
 21
165.75161581661291
  0
LINE
  8
_0-0_
  6
CONTINUOUS
 62
    7
 10
18.841307893657131
 20
165.75161581661291
 11
18.841307893657131
 21
170.05161581661287
  0
LINE
  8
_0-0_
  6
CONTINUOUS
 62
    7
 10
18.841307893656904
 20
170.05161581661287
 11
21.241307893656995
 21
172.45161581661307
  0
LINE
  8
_0-0_
  6
CONTINUOUS
 62
    7
 10
18.841307893657131
 20
170.05161581661287
 11
65.841307893657131
 21
170.05161581661287
  0
LINE
  8
_0-0_
  6
CONTINUOUS
 62
    7
 10
66.841307893657131
 20
162.75161581661303
 11
66.841307893657131
 21
140.43110774092429
  0
LINE
  8
_0-0_
  6
CONTINUOUS
 62
    7
 10
66.841307893657131
 20
140.43110774092429
 11
66.428003628217311
 21
132.66945419466549
  0
LINE
  8
_0-0_
  6
CONTINUOUS
 62
    7
 10
66.394108006694751
 20
132.68483712694314
 11
66.160352822806772
 21
133.13303898832339
  0
LINE
  8
_0-0_
  6
CONTINUOUS
 62
    7
 10
66.160352822806772
 20
133.13303898832339
 11
66.731307893678832
 21
132.14411579673401
  0
LINE
  8
_0-0_
  6
CONTINUOUS
 62
    7
 10
66.731307893678832
 20
132.14411579673401
 11
66.731307893678832
 21
119.35911579673399
  0
LINE
  8
_0-0_
  6
CONTINUOUS
 62
    7
 10
66.731307893678832
 20
119.35911579673399
 11
66.160352822806772
 21
118.37019260514455
  0
LINE
  8
_0-0_
  6
CONTINUOUS
 62
    7
 10
66.160352822806772
 20
118.37019260514455
 11
61.341307893678731
 21
118.37019260514461
  0
LINE
  8
_0-0_
  6
CONTINUOUS
 62
    7
 10
61.341307893657358
 20
117.82317719401601
 11
61.872952049711444
 21
118.13021619963592
  0
LINE
  8
_0-0_
  6
CONTINUOUS
 62
    7
 10
61.872952049711444
 20
118.13021619963592
 11
62.197266381040663
 21
118.36275650610838
  0
LINE
  8
_0-0_
  6
CONTINUOUS
 62
    7
 10
61.341307893657358
 20
115.75161581225836
 11
58.841307893657358
 21
115.75161581225836
  0
LINE
  8
_0-0_
  6
CONTINUOUS
 62
    7
 10
58.841307893657358
 20
115.75161581225836
 11
58.841307893657358
 21
156.1868791907267
  0
LINE
  8
_0-0_
  6
CONTINUOUS
 62
    7
 10
58.841307893657358
 20
156.1868791907267
 11
25.841307893657358
 21
156.1868791907267
  0
LINE
  8
_0-0_
  6
CONTINUOUS
 62
    7
 10
25.841307893657358
 20
156.1868791907267
 11
25.841307893657358
 21
115.75161581225836
  0
LINE
  8
_0-0_
  6
CONTINUOUS
 62
    7
 10
25.841307893657358
 20
115.75161581225836
 11
23.341307893657358
 21
115.75161581225836
  0
LINE
  8
_0-0_
  6
CONTINUOUS
 62
    7
 10
23.341307893657358
 20
115.75161581225836
 11
23.341307893657358
 21
157.97345338250443
  0
LINE
  8
_0-0_
  6
CONTINUOUS
 62
    7
 10
23.341307893657358
 20
157.97345338250443
 11
23.365309821492019
 21
158.38322850567863
  0
LINE
  8
_0-0_
  6
CONTINUOUS
 62
    7
 10
23.365309821492019
 20
158.38322850567863
 11
23.434087802815611
 21
158.76607876730719
  0
LINE
  8
_0-0_
  6
CONTINUOUS
 62
    7
 10
23.434087802815611
 20
158.76607876730719
 11
23.552462957513399
 21
159.14487594335236
  0
LINE
  8
_0-0_
  6
CONTINUOUS
 62
    7
 10
23.552462957513399
 20
159.14487594335236
 11
23.706490479005424
 21
159.47925885224436
  0
LINE
  8
_0-0_
  6
CONTINUOUS
 62
    7
 10
23.706490479005424
 20
159.47925885224436
 11
23.941972351193499
 21
159.84438925128075
  0
LINE
  8
_0-0_
  6
CONTINUOUS
 62
    7
 10
23.941972351193499
 20
159.84438925128075
 11
24.209120718017289
 21
160.14664754797082
  0
LINE
  8
_0-0_
  6
CONTINUOUS
 62
    7
 10
24.209120718017289
 20
160.14664754797082
 11
24.510793103517926
 21
160.40208431238023
  0
LINE
  8
_0-0_
  6
CONTINUOUS
 62
    7
 10
24.510793103517926
 20
160.40208431238023
 11
24.836035138462307
 21
160.60776654710827
  0
LINE
  8
_0-0_
  6
CONTINUOUS
 62
    7
 10
24.836035138462307
 20
160.60776654710827
 11
25.513256930289913
 21
160.87415055135301
  0
LINE
  8
_0-0_
  6
CONTINUOUS
 62
    7
 10
25.513256930289913
 20
160.87415055135301
 11
26.17216295901062
 21
160.97636031579265
  0
LINE
  8
_0-0_
  6
CONTINUOUS
 62
    7
 10
26.17216295901062
 20
160.97636031579265
 11
26.841307893657358
 21
160.94964509794897
  0
LINE
  8
_0-0_
  6
CONTINUOUS
 62
    7
 10
26.841307893657358
 20
160.9496450979488
 11
30.826815328520411
 21
160.51870624639986
  0
LINE
  8
_0-0_
  6
CONTINUOUS
 62
    7
 10
30.826815328520411
 20
160.51870624639986
 11
35.25193581965982
 21
160.22193487293691
  0
LINE
  8
_0-0_
  6
CONTINUOUS
 62
    7
 10
35.25193581965982
 20
160.22193487293691
 11
39.947722213521274
 21
160.0706614439062
  0
LINE
  8
_0-0_
  6
CONTINUOUS
 62
    7
 10
39.947722213521274
 20
160.0706614439062
 11
44.734893573793897
 21
160.0706614439062
  0
LINE
  8
_0-0_
  6
CONTINUOUS
 62
    7
 10
44.734893573793897
 20
160.0706614439062
 11
49.430679967655351
 21
160.22193487293697
  0
LINE
  8
_0-0_
  6
CONTINUOUS
 62
    7
 10
49.430679967655351
 20
160.22193487293697
 11
53.855800458794647
 21
160.51870624639992
  0
LINE
  8
_0-0_
  6
CONTINUOUS
 62
    7
 10
53.855800458794647
 20
160.51870624639992
 11
57.841307893657586
 21
160.94964509794892
  0
LINE
  8
_0-0_
  6
CONTINUOUS
 62
    7
 10
57.841307893657245
 20
160.94964509794897
 11
58.131599636036754
 21
160.97657319918756
  0
LINE
  8
_0-0_
  6
CONTINUOUS
 62
    7
 10
58.131599636036754
 20
160.97657319918756
 11
58.768709781805455
 21
160.95241621670721
  0
LINE
  8
_0-0_
  6
CONTINUOUS
 62
    7
 10
58.768709781805455
 20
160.95241621670721
 11
59.366150964625717
 21
160.81567851892578
  0
LINE
  8
_0-0_
  6
CONTINUOUS
 62
    7
 10
59.366150964625717
 20
160.81567851892578
 11
59.920745070839303
 21
160.56613087027847
  0
LINE
  8
_0-0_
  6
CONTINUOUS
 62
    7
 10
59.920745070839303
 20
160.56613087027847
 11
60.410703025299654
 21
160.20611475535361
  0
LINE
  8
_0-0_
  6
CONTINUOUS
 62
    7
 10
60.410703025299654
 20
160.20611475535361
 11
60.719467851691661
 21
159.8718429742475
  0
LINE
  8
_0-0_
  6
CONTINUOUS
 62
    7
 10
60.719467851691661
 20
159.8718429742475
 11
60.976161605539119
 21
159.47919170173628
  0
LINE
  8
_0-0_
  6
CONTINUOUS
 62
    7
 10
60.976161605539119
 20
159.47919170173628
 11
61.131647251137565
 21
159.14099916538146
  0
LINE
  8
_0-0_
  6
CONTINUOUS
 62
    7
 10
61.131647251137565
 20
159.14099916538146
 11
61.245497954249458
 21
158.77843765872677
  0
LINE
  8
_0-0_
  6
CONTINUOUS
 62
    7
 10
61.245497954249458
 20
158.77843765872677
 11
61.318164162353241
 21
158.37594552061563
  0
LINE
  8
_0-0_
  6
CONTINUOUS
 62
    7
 10
61.318164162353241
 20
158.37594552061563
 11
61.341307893657358
 21
157.97345338250443
  0
LINE
  8
_0-0_
  6
CONTINUOUS
 62
    7
 10
61.341307893657358
 20
157.97345338250443
 11
61.341307893657358
 21
115.75161581225836
  0
LINE
  8
_0-0_
  6
CONTINUOUS
 62
    7
 10
61.341307893678731
 20
122.06090420093932
 11
66.160352822806772
 21
122.06090420093932
  0
LINE
  8
_0-0_
  6
CONTINUOUS
 62
    7
 10
66.160352822806772
 20
122.06090420093932
 11
66.394108006694751
 21
121.61270233955906
  0
LINE
  8
_0-0_
  6
CONTINUOUS
 62
    7
 10
66.394108006694751
 20
121.61270233955906
 11
66.574597550365525
 21
121.1568122452494
  0
LINE
  8
_0-0_
  6
CONTINUOUS
 62
    7
 10
66.574597550365525
 20
121.1568122452494
 11
66.690989643906505
 21
120.68928220897533
  0
LINE
  8
_0-0_
  6
CONTINUOUS
 62
    7
 10
66.690989643906505
 20
120.68928220897533
 11
66.731307893678832
 21
120.21554840304196
  0
LINE
  8
_0-0_
  6
CONTINUOUS
 62
    7
 10
66.731307893678832
 20
120.21554840304196
 11
66.728199827382696
 21
120.08434737585037
  0
LINE
  8
_0-0_
  6
CONTINUOUS
 62
    7
 10
66.728199827382696
 20
120.08434737585037
 11
66.674931857339516
 21
119.65475857639643
  0
LINE
  8
_0-0_
  6
CONTINUOUS
 62
    7
 10
66.674931857339516
 20
119.65475857639643
 11
66.55844912660973
 21
119.22591822004426
  0
LINE
  8
_0-0_
  6
CONTINUOUS
 62
    7
 10
66.55844912660973
 20
119.22591822004426
 11
66.383673298482108
 21
118.79598300961288
  0
LINE
  8
_0-0_
  6
CONTINUOUS
 62
    7
 10
66.383673298482108
 20
118.79598300961288
 11
66.160352822806772
 21
118.37019260514455
  0
LINE
  8
_0-0_
  6
CONTINUOUS
 62
    7
 10
66.160352822806772
 20
122.06090420093932
 11
66.402440013728892
 21
122.99353653110711
  0
LINE
  8
_0-0_
  6
CONTINUOUS
 62
    7
 10
66.402440013728892
 20
122.99353653110711
 11
66.646404459712585
 21
124.37257616392054
  0
LINE
  8
_0-0_
  6
CONTINUOUS
 62
    7
 10
66.646404459712585
 20
124.37257616392054
 11
66.731307893678832
 21
125.75161579673403
  0
LINE
  8
_0-0_
  6
CONTINUOUS
 62
    7
 10
66.731307893678832
 20
125.75161579673403
 11
66.686029840745277
 21
126.75600601782071
  0
LINE
  8
_0-0_
  6
CONTINUOUS
 62
    7
 10
66.686029840745277
 20
126.75600601782071
 11
66.486650106821799
 21
128.11748567560232
  0
LINE
  8
_0-0_
  6
CONTINUOUS
 62
    7
 10
66.486650106821799
 20
128.11748567560232
 11
66.160352822806772
 21
129.4423273925288
  0
LINE
  8
_0-0_
  6
CONTINUOUS
 62
    7
 10
66.160352822806772
 20
129.4423273925288
 11
66.383673298482108
 21
129.86811779699701
  0
LINE
  8
_0-0_
  6
CONTINUOUS
 62
    7
 10
66.383673298482108
 20
129.86811779699701
 11
66.558449126609617
 21
130.29805300742839
  0
LINE
  8
_0-0_
  6
CONTINUOUS
 62
    7
 10
66.558449126609617
 20
130.29805300742839
 11
66.674931857339516
 21
130.7268933637805
  0
LINE
  8
_0-0_
  6
CONTINUOUS
 62
    7
 10
66.674931857339516
 20
130.7268933637805
 11
66.728199827382696
 21
131.15648216323444
  0
LINE
  8
_0-0_
  6
CONTINUOUS
 62
    7
 10
66.728199827382696
 20
131.15648216323444
 11
66.731307893678832
 21
131.28768319042604
  0
LINE
  8
_0-0_
  6
CONTINUOUS
 62
    7
 10
66.731307893678832
 20
131.28768319042604
 11
66.690989643906505
 21
131.76141699635934
  0
LINE
  8
_0-0_
  6
CONTINUOUS
 62
    7
 10
66.690989643906505
 20
131.76141699635934
 11
66.574597550365525
 21
132.22894703263341
  0
LINE
  8
_0-0_
  6
CONTINUOUS
 62
    7
 10
66.574597550365525
 20
132.22894703263341
 11
66.394108006694751
 21
132.68483712694314
  0
LINE
  8
_0-0_
  6
CONTINUOUS
 62
    7
 10
66.160352822806772
 20
133.13303898832339
 11
61.341307893678731
 21
133.13303898832334
  0
LINE
  8
_0-0_
  6
CONTINUOUS
 62
    7
 10
61.341307893678731
 20
129.44232739252868
 11
66.160352822806772
 21
129.4423273925288
  0
LINE
  8
_0-0_
  6
CENTER1
 62
  152
 10
63.841307893657586
 20
125.75161579673403
 11
9.3413078936787315
 21
125.75161579673386
  0
LINE
  8
_0-0_
  6
CONTINUOUS
 62
    7
 10
16.72130789365724
 20
125.75161579673397
 11
16.806742596666709
 21
127.13928453949069
  0
LINE
  8
_0-0_
  6
CONTINUOUS
 62
    7
 10
16.806742596666709
 20
127.13928453949069
 11
17.052233609383165
 21
128.5269532822474
  0
LINE
  8
_0-0_
  6
CONTINUOUS
 62
    7
 10
17.052233609383165
 20
128.5269532822474
 11
17.295835620428306
 21
129.4654214032962
  0
LINE
  8
_0-0_
  6
CONTINUOUS
 62
    7
 10
17.295835620428306
 20
129.4654214032962
 11
17.060617752558301
 21
129.91642781288999
  0
LINE
  8
_0-0_
  6
CONTINUOUS
 62
    7
 10
17.060617752558301
 20
129.91642781288999
 11
16.878998825743793
 21
130.37517056324543
  0
LINE
  8
_0-0_
  6
CONTINUOUS
 62
    7
 10
16.878998825743793
 20
130.37517056324543
 11
16.761878428136924
 21
130.84562609055604
  0
LINE
  8
_0-0_
  6
CONTINUOUS
 62
    7
 10
16.761878428136924
 20
130.84562609055604
 11
16.72130789365724
 21
131.32232420657721
  0
LINE
  8
_0-0_
  6
CONTINUOUS
 62
    7
 10
16.72130789365724
 20
131.32232420657721
 11
16.724435434804946
 21
131.45434676490879
  0
LINE
  8
_0-0_
  6
CONTINUOUS
 62
    7
 10
16.724435434804946
 20
131.45434676490879
 11
16.778036778568321
 21
131.88662350751787
  0
LINE
  8
_0-0_
  6
CONTINUOUS
 62
    7
 10
16.778036778568321
 20
131.88662350751787
 11
16.895248393275779
 21
132.31814712110247
  0
LINE
  8
_0-0_
  6
CONTINUOUS
 62
    7
 10
16.895248393275779
 20
132.31814712110247
 11
17.07111782080915
 21
132.75077243520929
  0
LINE
  8
_0-0_
  6
CONTINUOUS
 62
    7
 10
17.07111782080915
 20
132.75077243520929
 11
17.295835620428306
 21
133.17922700985832
  0
LINE
  8
_0-0_
  6
CONTINUOUS
 62
    7
 10
17.295835620428306
 20
133.17922700985832
 11
16.72130789365724
 21
132.18411579673375
  0
LINE
  8
_0-0_
  6
CONTINUOUS
 62
    7
 10
16.72130789365724
 20
132.18411579673375
 11
16.72130789365724
 21
119.31911579673408
  0
LINE
  8
_0-0_
  6
CONTINUOUS
 62
    7
 10
16.72130789365724
 20
119.31911579673408
 11
17.295835620428306
 21
118.32400458360951
  0
LINE
  8
_0-0_
  6
CONTINUOUS
 62
    7
 10
17.295835620428306
 20
118.32400458360951
 11
17.060617752558301
 21
118.77501099320318
  0
LINE
  8
_0-0_
  6
CONTINUOUS
 62
    7
 10
17.060617752558301
 20
118.77501099320318
 11
16.878998825743793
 21
119.23375374355862
  0
LINE
  8
_0-0_
  6
CONTINUOUS
 62
    7
 10
16.878998825743793
 20
119.23375374355862
 11
16.761878428136924
 21
119.70420927086923
  0
LINE
  8
_0-0_
  6
CONTINUOUS
 62
    7
 10
16.761878428136924
 20
119.70420927086923
 11
16.72130789365724
 21
120.18090738689068
  0
LINE
  8
_0-0_
  6
CONTINUOUS
 62
    7
 10
16.72130789365724
 20
120.18090738689068
 11
16.724435434804946
 21
120.31292994522198
  0
LINE
  8
_0-0_
  6
CONTINUOUS
 62
    7
 10
16.724435434804946
 20
120.31292994522198
 11
16.778036778568321
 21
120.74520668783111
  0
LINE
  8
_0-0_
  6
CONTINUOUS
 62
    7
 10
16.778036778568321
 20
120.74520668783111
 11
16.895248393276006
 21
121.17673030141577
  0
LINE
  8
_0-0_
  6
CONTINUOUS
 62
    7
 10
16.895248393276006
 20
121.17673030141577
 11
17.07111782080915
 21
121.60935561552265
  0
LINE
  8
_0-0_
  6
CONTINUOUS
 62
    7
 10
17.07111782080915
 20
121.60935561552265
 11
17.295835620428306
 21
122.03781019017191
  0
LINE
  8
_0-0_
  6
CONTINUOUS
 62
    7
 10
17.295835620428306
 20
122.03781019017191
 11
22.766780166886178
 21
122.03781019017168
  0
LINE
  8
_0-0_
  6
CONTINUOUS
 62
    7
 10
22.766780166886178
 20
122.03781019017168
 11
23.001998034756184
 21
121.58680378057784
  0
LINE
  8
_0-0_
  6
CONTINUOUS
 62
    7
 10
23.001998034756184
 20
121.58680378057784
 11
23.183616961570692
 21
121.1280610302224
  0
LINE
  8
_0-0_
  6
CONTINUOUS
 62
    7
 10
23.183616961570692
 20
121.1280610302224
 11
23.30073735917756
 21
120.65760550291179
  0
LINE
  8
_0-0_
  6
CONTINUOUS
 62
    7
 10
23.30073735917756
 20
120.65760550291179
 11
23.341307893657245
 21
120.18090738689068
  0
LINE
  8
_0-0_
  6
CONTINUOUS
 62
    7
 10
23.341307893657245
 20
120.18090738689068
 11
23.338180352509539
 21
120.04888482855904
  0
LINE
  8
_0-0_
  6
CONTINUOUS
 62
    7
 10
23.338180352509539
 20
120.04888482855904
 11
23.284579008746277
 21
119.61660808595002
  0
LINE
  8
_0-0_
  6
CONTINUOUS
 62
    7
 10
23.284579008746277
 20
119.61660808595002
 11
23.167367394038592
 21
119.1850844723653
  0
LINE
  8
_0-0_
  6
CONTINUOUS
 62
    7
 10
23.167367394038592
 20
119.1850844723653
 11
22.991497966505221
 21
118.75245915825843
  0
LINE
  8
_0-0_
  6
CONTINUOUS
 62
    7
 10
22.991497966505221
 20
118.75245915825843
 11
22.766780166886178
 21
118.32400458360951
  0
LINE
  8
_0-0_
  6
CONTINUOUS
 62
    7
 10
22.766780166886178
 20
118.32400458360951
 11
23.341307893657245
 21
119.31911579673402
  0
LINE
  8
_0-0_
  6
CONTINUOUS
 62
    7
 10
23.341307893657358
 20
117.82317719401556
 11
22.908724460438407
 21
118.06654224888769
  0
LINE
  8
_0-0_
  6
CONTINUOUS
 62
    7
 10
22.908724460438407
 20
118.06654224888769
 11
22.541448083961086
 21
118.31970890388908
  0
LINE
  8
_0-0_
  6
CONTINUOUS
 62
    7
 10
22.766780166886178
 20
118.32400458360951
 11
17.295835620428306
 21
118.32400458360951
  0
LINE
  8
_0-0_
  6
CONTINUOUS
 62
    7
 10
16.72130789365724
 20
119.75161579673403
 11
16.22130789365724
 21
119.75161579673403
  0
LINE
  8
_0-0_
  6
CONTINUOUS
 62
    7
 10
14.72130789365724
 20
121.25161579673403
 11
14.72130789365724
 21
130.25161579673403
  0
LINE
  8
_0-0_
  6
CONTINUOUS
 62
    7
 10
14.72130789365724
 20
129.7496503421886
 11
14.341307893678731
 21
129.74961579673402
  0
LINE
  8
_0-0_
  6
CONTINUOUS
 62
    7
 10
14.341307893678731
 20
129.74961579673402
 11
14.341307893678731
 21
121.7536157967337
  0
LINE
  8
_0-0_
  6
CONTINUOUS
 62
    7
 10
14.341307893678731
 20
121.7536157967337
 11
14.72130789365724
 21
121.75358125127917
  0
LINE
  8
_0-0_
  6
CONTINUOUS
 62
    7
 10
17.295835620428306
 20
122.03781019017191
 11
16.967496585711615
 21
123.3709418826441
  0
LINE
  8
_0-0_
  6
CONTINUOUS
 62
    7
 10
16.967496585711615
 20
123.3709418826441
 11
16.766869266437197
 21
124.74094077176085
  0
LINE
  8
_0-0_
  6
CONTINUOUS
 62
    7
 10
16.766869266437197
 20
124.74094077176085
 11
16.72130789365724
 21
125.75161579673397
  0
LINE
  8
_0-0_
  6
CONTINUOUS
 62
    7
 10
17.295835620428306
 20
129.4654214032962
 11
22.766780166886178
 21
129.46542140329598
  0
LINE
  8
_0-0_
  6
CONTINUOUS
 62
    7
 10
22.766780166886178
 20
129.46542140329598
 11
22.991497966505221
 21
129.8938759779453
  0
LINE
  8
_0-0_
  6
CONTINUOUS
 62
    7
 10
22.991497966505221
 20
129.8938759779453
 11
23.167367394038592
 21
130.32650129205211
  0
LINE
  8
_0-0_
  6
CONTINUOUS
 62
    7
 10
23.167367394038592
 20
130.32650129205211
 11
23.284579008746277
 21
130.75802490563677
  0
LINE
  8
_0-0_
  6
CONTINUOUS
 62
    7
 10
23.284579008746277
 20
130.75802490563677
 11
23.338180352509539
 21
131.19030164824585
  0
LINE
  8
_0-0_
  6
CONTINUOUS
 62
    7
 10
23.338180352509539
 20
131.19030164824585
 11
23.341307893657245
 21
131.32232420657721
  0
LINE
  8
_0-0_
  6
CONTINUOUS
 62
    7
 10
23.341307893657245
 20
131.32232420657721
 11
23.30073735917756
 21
131.7990223225986
  0
LINE
  8
_0-0_
  6
CONTINUOUS
 62
    7
 10
23.30073735917756
 20
131.7990223225986
 11
23.183616961570806
 21
132.26947784990909
  0
LINE
  8
_0-0_
  6
CONTINUOUS
 62
    7
 10
23.183616961570806
 20
132.26947784990909
 11
23.001998034756298
 21
132.72822060026454
  0
LINE
  8
_0-0_
  6
CONTINUOUS
 62
    7
 10
23.001998034756298
 20
132.72822060026454
 11
22.766780166886178
 21
133.17922700985832
  0
LINE
  8
_0-0_
  6
CONTINUOUS
 62
    7
 10
22.766780166886178
 20
133.17922700985832
 11
23.341307893657245
 21
132.18411579673381
  0
LINE
  8
_0-0_
  6
CONTINUOUS
 62
    7
 10
22.766780166886178
 20
133.17922700985832
 11
17.295835620428306
 21
133.17922700985832
  0
LINE
  8
_0-0_
  6
CONTINUOUS
 62
    7
 10
18.201712302854958
 20
133.17922700985849
 11
17.841307893656904
 21
140.43110774092429
  0
LINE
  8
_0-0_
  6
CONTINUOUS
 62
    7
 10
17.841307893656904
 20
140.43110774092429
 11
17.841307893656904
 21
162.75161581661303
  0
LINE
  8
_0-0_
  6
CONTINUOUS
 62
    7
 10
24.366434159504479
 20
157.69994426454264
 11
23.931164250598385
 21
157.15583239520078
  0
LINE
  8
_0-0_
  6
CONTINUOUS
 62
    7
 10
23.931164250598385
 20
157.15583239520078
 11
23.607729529867811
 21
156.5350596415214
  0
LINE
  8
_0-0_
  6
CONTINUOUS
 62
    7
 10
23.607729529867811
 20
156.5350596415214
 11
23.40855941224595
 21
155.86148195229504
  0
LINE
  8
_0-0_
  6
CONTINUOUS
 62
    7
 10
23.40855941224595
 20
155.86148195229504
 11
23.341307893657358
 21
155.16098454037194
  0
LINE
  8
_0-0_
  6
CONTINUOUS
 62
    7
 10
24.366434159504479
 20
157.69994426454264
 11
24.896812078088715
 21
158.14648533554964
  0
LINE
  8
_0-0_
  6
CONTINUOUS
 62
    7
 10
24.896812078088715
 20
158.14648533554964
 11
25.501915880379556
 21
158.47829528528609
  0
LINE
  8
_0-0_
  6
CONTINUOUS
 62
    7
 10
25.501915880379556
 20
158.47829528528609
 11
26.158491766600946
 21
158.6826228434648
  0
LINE
  8
_0-0_
  6
CONTINUOUS
 62
    7
 10
26.158491766600946
 20
158.6826228434648
 11
26.841307893657358
 21
158.75161581661314
  0
LINE
  8
_0-0_
  6
CONTINUOUS
 62
    7
 10
26.841307893657358
 20
158.75161581661325
 11
57.841307893657586
 21
158.75161581661325
  0
LINE
  8
_0-0_
  6
CONTINUOUS
 62
    7
 10
57.841307893657586
 20
158.75161581661314
 11
58.524124020713998
 21
158.6826228434648
  0
LINE
  8
_0-0_
  6
CONTINUOUS
 62
    7
 10
58.524124020713998
 20
158.6826228434648
 11
59.180699906935388
 21
158.47829528528604
  0
LINE
  8
_0-0_
  6
CONTINUOUS
 62
    7
 10
59.180699906935388
 20
158.47829528528604
 11
59.785803709226229
 21
158.14648533554958
  0
LINE
  8
_0-0_
  6
CONTINUOUS
 62
    7
 10
59.785803709226229
 20
158.14648533554958
 11
60.316181627810465
 21
157.69994426454252
  0
LINE
  8
_0-0_
  6
CONTINUOUS
 62
    7
 10
60.316181627810465
 20
157.69994426454252
 11
60.751451536716559
 21
157.15583239520066
  0
LINE
  8
_0-0_
  6
CONTINUOUS
 62
    7
 10
60.751451536716559
 20
157.15583239520066
 11
61.074886257447133
 21
156.53505964152123
  0
LINE
  8
_0-0_
  6
CONTINUOUS
 62
    7
 10
61.074886257447133
 20
156.53505964152123
 11
61.274056375068767
 21
155.86148195229487
  0
LINE
  8
_0-0_
  6
CONTINUOUS
 62
    7
 10
61.274056375068767
 20
155.86148195229487
 11
61.341307893657586
 21
155.16098454037177
  0
LINE
  8
_0-0_
  6
CONTINUOUS
 62
    7
 10
54.341307893657586
 20
150.75161579673403
 11
30.341307893657586
 21
150.75161579673403
  0
LINE
  8
_0-0_
  6
CONTINUOUS
 62
    7
 10
28.341307893657586
 20
148.75161579609494
 11
28.341307893657586
 21
102.75161579673403
  0
LINE
  8
_0-0_
  6
CONTINUOUS
 62
    7
 10
30.341307893657586
 20
100.75161579673403
 11
54.341307893657586
 21
100.75161579673403
  0
LINE
  8
_0-0_
  6
CONTINUOUS
 62
    7
 10
56.341307893657586
 20
102.75161579673403
 11
56.341307893657586
 21
148.751615796095
  0
LINE
  8
_0-0_
  6
CONTINUOUS
 62
    7
 10
56.341307893657586
 20
131.75161579673403
 11
58.841307893657586
 21
131.75161579673403
  0
LINE
  8
_0-0_
  6
CONTINUOUS
 62
    7
 10
58.841307893657586
 20
119.75161579673403
 11
56.341307893657586
 21
119.75161579673403
  0
LINE
  8
_0-0_
  6
CONTINUOUS
 62
    7
 10
28.341307893657586
 20
119.75161579673403
 11
25.841307893657586
 21
119.75161579673403
  0
LINE
  8
_0-0_
  6
CONTINUOUS
 62
    7
 10
22.766780166886178
 20
122.03781019017168
 11
23.097615840096751
 21
123.38342937256226
  0
LINE
  8
_0-0_
  6
CONTINUOUS
 62
    7
 10
23.097615840096751
 20
123.38342937256226
 11
23.295746520877287
 21
124.74094077176085
  0
LINE
  8
_0-0_
  6
CONTINUOUS
 62
    7
 10
23.295746520877287
 20
124.74094077176085
 11
23.341307893657245
 21
125.75161579673397
  0
LINE
  8
_0-0_
  6
CONTINUOUS
 62
    7
 10
23.341307893657245
 20
125.75161579673397
 11
23.253692129994306
 21
127.15708975665314
  0
LINE
  8
_0-0_
  6
CONTINUOUS
 62
    7
 10
23.253692129994306
 20
127.15708975665314
 11
23.010382177931319
 21
128.5269532822474
  0
LINE
  8
_0-0_
  6
CONTINUOUS
 62
    7
 10
23.010382177931319
 20
128.5269532822474
 11
22.766780166886178
 21
129.46542140329598
  0
LINE
  8
_0-0_
  6
CONTINUOUS
 62
    7
 10
25.841307893657586
 20
131.75161579673403
 11
28.341307893657586
 21
131.75161579673403
  0
LINE
  8
_0-0_
  6
CONTINUOUS
 62
    7
 10
16.72130789365724
 20
131.75161579673403
 11
16.22130789365724
 21
131.75161579673403
  0
LINE
  8
_0-0_
  6
CENTER1
 62
  152
 10
42.341307893657131
 20
135.43110774092429
 11
42.341307893657131
 21
178.25161581661297
  0
ARC
  8
_0-0_
  6
CONTINUOUS
 62
    7
 10
20.841307941920263
 20
162.75161576834984
 40
3.0000000482631952
 50
90.00000074653704
 51
180.00000120741819
  0
ARC
  8
_0-0_
  6
CONTINUOUS
 62
    7
 10
63.841307845393885
 20
162.75161576834984
 40
3.0000000482631952
 50
0.0000009217585114
 51
90.000001382639979
  0
ARC
  8
_0-0_
  6
CONTINUOUS
 62
    7
 10
19.141307893656858
 20
173.25161581661297
 40
0.8000000000000304
 50
179.99999999999898
 51
270
  0
ARC
  8
_0-0_
  6
CONTINUOUS
 62
    7
 10
65.54130789365729
 20
173.25161581661297
 40
0.8000000000000304
 50
270
 51
0
  0
ARC
  8
_0-0_
  6
CONTINUOUS
 62
    7
 10
16.22130789365724
 20
121.25161579673403
 40
1.4999999999999969
 50
179.99999999999943
 51
270
  0
ARC
  8
_0-0_
  6
CONTINUOUS
 62
    7
 10
16.22130789365724
 20
130.25161579673403
 40
1.4999999999999969
 50
90
 51
179.99999999999974
  0
ARC
  8
_0-0_
  6
CONTINUOUS
 62
    7
 10
54.341307893657586
 20
102.75161579673397
 40
1.999999999999972
 50
270
 51
359.99999999999989
  0
ARC
  8
_0-0_
  6
CONTINUOUS
 62
    7
 10
54.341307893657586
 20
148.75161579673409
 40
1.999999999999972
 50
359.9999999999992
 51
90
  0
ARC
  8
_0-0_
  6
CONTINUOUS
 62
    7
 10
30.341307893657586
 20
102.75161579673397
 40
1.999999999999974
 50
179.9999999999996
 51
270
  0
ARC
  8
_0-0_
  6
CONTINUOUS
 62
    7
 10
30.341307893657586
 20
148.75161579673409
 40
1.999999999999974
 50
90
 51
180
  0
LINE
  8
_0-0_
  6
CONTINUOUS
 62
    7
 10
115.71991428569373
 20
175.7516158166128
 11
185.71991428569333
 21
175.7516158166128
  0
LINE
  8
_0-0_
  6
CONTINUOUS
 62
    7
 10
185.71991428569333
 20
175.7516158166128
 11
185.71991428569333
 21
173.2516158166128
  0
LINE
  8
_0-0_
  6
CONTINUOUS
 62
    7
 10
185.71991428569333
 20
173.2516158166128
 11
115.71991428569373
 21
173.2516158166128
  0
LINE
  8
_0-0_
  6
CONTINUOUS
 62
    7
 10
115.71991428569373
 20
173.2516158166128
 11
115.71991428569373
 21
175.7516158166128
  0
LINE
  8
_0-0_
  6
CONTINUOUS
 62
    7
 10
127.51991428569437
 20
172.45161581661307
 11
173.91991428569463
 21
172.45161581661307
  0
LINE
  8
_0-0_
  6
CONTINUOUS
 62
    7
 10
171.81991428569415
 20
172.45161581661307
 11
174.2199142856939
 21
170.05161581661287
  0
LINE
  8
_0-0_
  6
CONTINUOUS
 62
    7
 10
174.21991428569481
 20
170.05161581661287
 11
174.21991428569481
 21
165.75161581661291
  0
LINE
  8
_0-0_
  6
CONTINUOUS
 62
    7
 10
174.21991428569481
 20
165.75161581661291
 11
127.21991428569419
 21
165.75161581661291
  0
LINE
  8
_0-0_
  6
CONTINUOUS
 62
    7
 10
127.21991428569419
 20
165.75161581661291
 11
127.21991428569419
 21
170.05161581661287
  0
LINE
  8
_0-0_
  6
CONTINUOUS
 62
    7
 10
127.2199142856951
 20
170.05161581661287
 11
129.61991428569485
 21
172.45161581661307
  0
LINE
  8
_0-0_
  6
CONTINUOUS
 62
    7
 10
127.2199142856951
 20
170.05161581661287
 11
174.2199142856939
 21
170.05161581661287
  0
LINE
  8
_0-0_
  6
CONTINUOUS
 62
    7
 10
175.21991428569424
 20
162.75161581661303
 11
175.21991428569424
 21
157.75161581661337
  0
LINE
  8
_0-0_
  6
CONTINUOUS
 62
    7
 10
175.21991428569424
 20
157.75161581661337
 11
166.49341697759087
 21
157.75161581661337
  0
LINE
  8
_0-0_
  6
CONTINUOUS
 62
    7
 10
166.49341697759087
 20
157.75161581661314
 11
165.80866500872889
 21
157.72812363198841
  0
LINE
  8
_0-0_
  6
CONTINUOUS
 62
    7
 10
165.80866500872889
 20
157.72812363198841
 11
165.10668019177439
 21
157.65499711225482
  0
LINE
  8
_0-0_
  6
CONTINUOUS
 62
    7
 10
165.10668019177439
 20
157.65499711225482
 11
164.20121950851535
 21
157.48486307129428
  0
LINE
  8
_0-0_
  6
CONTINUOUS
 62
    7
 10
164.20121950851535
 20
157.48486307129428
 11
163.28260206510032
 21
157.22163018577305
  0
LINE
  8
_0-0_
  6
CONTINUOUS
 62
    7
 10
163.28260206510032
 20
157.22163018577305
 11
162.36752563917253
 21
156.86078815352522
  0
LINE
  8
_0-0_
  6
CONTINUOUS
 62
    7
 10
162.36752563917253
 20
156.86078815352522
 11
161.48972118217461
 21
156.40880807285748
  0
LINE
  8
_0-0_
  6
CONTINUOUS
 62
    7
 10
161.48972118217461
 20
156.40880807285748
 11
160.63874390184793
 21
155.85759585930748
  0
LINE
  8
_0-0_
  6
CONTINUOUS
 62
    7
 10
160.63874390184793
 20
155.85759585930748
 11
159.83486385497577
 21
155.21242477498498
  0
LINE
  8
_0-0_
  6
CONTINUOUS
 62
    7
 10
159.83486385497577
 20
155.21242477498498
 11
159.09080564281879
 21
154.47343491146285
  0
LINE
  8
_0-0_
  6
CONTINUOUS
 62
    7
 10
159.09080564281879
 20
154.47343491146285
 11
158.41804021776323
 21
153.64821629916423
  0
LINE
  8
_0-0_
  6
CONTINUOUS
 62
    7
 10
158.41804021776323
 20
153.64821629916423
 11
157.83316293974599
 21
152.75161581661348
  0
LINE
  8
_0-0_
  6
CONTINUOUS
 62
    7
 10
157.8331629397469
 20
152.75161581661325
 11
140.12349240048457
 21
122.07756665730562
  0
LINE
  8
_0-0_
  6
CONTINUOUS
 62
    7
 10
140.12349240048457
 20
122.07756665730494
 11
139.73546468239715
 21
121.45882376278416
  0
LINE
  8
_0-0_
  6
CONTINUOUS
 62
    7
 10
139.73546468239715
 20
121.45882376278416
 11
139.31126718016503
 21
120.88011204437646
  0
LINE
  8
_0-0_
  6
CONTINUOUS
 62
    7
 10
139.31126718016503
 20
120.88011204437646
 11
138.6828875353296
 21
120.15851385908803
  0
LINE
  8
_0-0_
  6
CONTINUOUS
 62
    7
 10
138.6828875353296
 20
120.15851385908803
 11
138.00470170950229
 21
119.51388651588809
  0
LINE
  8
_0-0_
  6
CONTINUOUS
 62
    7
 10
138.00470170950229
 20
119.51388651588809
 11
137.31786907232174
 21
118.9707090687927
  0
LINE
  8
_0-0_
  6
CONTINUOUS
 62
    7
 10
137.31786907232174
 20
118.9707090687927
 11
136.60831246474254
 21
118.50270732995307
  0
LINE
  8
_0-0_
  6
CONTINUOUS
 62
    7
 10
136.60831246474254
 20
118.50270732995307
 11
135.92921191693347
 21
118.13021619963592
  0
LINE
  8
_0-0_
  6
CONTINUOUS
 62
    7
 10
135.92921191693347
 20
118.13021619963592
 11
135.25220598743698
 21
117.82317719401601
  0
LINE
  8
_0-0_
  6
CONTINUOUS
 62
    7
 10
135.25220598743698
 20
117.82317719401601
 11
135.25220598743698
 21
157.97345338250443
  0
LINE
  8
_0-0_
  6
CONTINUOUS
 62
    7
 10
135.25220598743698
 20
157.97345338250443
 11
135.22235765522669
 21
158.38290425161017
  0
LINE
  8
_0-0_
  6
CONTINUOUS
 62
    7
 10
135.22235765522669
 20
158.38290425161017
 11
135.13525522131317
 21
158.77843765872677
  0
LINE
  8
_0-0_
  6
CONTINUOUS
 62
    7
 10
135.13525522131317
 20
158.77843765872677
 11
134.99585299637192
 21
159.14550446407316
  0
LINE
  8
_0-0_
  6
CONTINUOUS
 62
    7
 10
134.99585299637192
 20
159.14550446407316
 11
134.81418490484714
 21
159.47919170173628
  0
LINE
  8
_0-0_
  6
CONTINUOUS
 62
    7
 10
134.81418490484714
 20
159.47919170173628
 11
134.51405039453743
 21
159.87652518793959
  0
LINE
  8
_0-0_
  6
CONTINUOUS
 62
    7
 10
134.51405039453743
 20
159.87652518793959
 11
134.17461405944994
 21
160.20611475535361
  0
LINE
  8
_0-0_
  6
CONTINUOUS
 62
    7
 10
134.17461405944994
 20
160.20611475535361
 11
133.64798857900047
 21
160.5702587372121
  0
LINE
  8
_0-0_
  6
CONTINUOUS
 62
    7
 10
133.64798857900047
 20
160.5702587372121
 11
133.1016079423228
 21
160.81567851892578
  0
LINE
  8
_0-0_
  6
CONTINUOUS
 62
    7
 10
133.1016079423228
 20
160.81567851892578
 11
132.53774062715058
 21
160.95321679871387
  0
LINE
  8
_0-0_
  6
CONTINUOUS
 62
    7
 10
132.53774062715058
 20
160.95321679871387
 11
131.98714389019426
 21
160.97657319918756
  0
LINE
  8
_0-0_
  6
CONTINUOUS
 62
    7
 10
131.98714389019426
 20
160.97657319918756
 11
131.7462483246847
 21
160.94964509794897
  0
LINE
  8
_0-0_
  6
CONTINUOUS
 62
    7
 10
131.7462483246847
 20
160.94964509794897
 11
118.21991428569476
 21
158.75161581661325
  0
LINE
  8
_0-0_
  6
CONTINUOUS
 62
    7
 10
118.21991428569476
 20
158.75161581661325
 11
115.74915882661213
 21
126.51583801936374
  0
LINE
  8
_0-0_
  6
CONTINUOUS
 62
    7
 10
119.32741426860008
 20
129.4423273925288
 11
119.32741426860008
 21
122.06090420093932
  0
LINE
  8
_0-0_
  6
CONTINUOUS
 62
    7
 10
119.32741426860008
 20
122.06090420093932
 11
125.71991426860018
 21
118.37019260514455
  0
LINE
  8
_0-0_
  6
CONTINUOUS
 62
    7
 10
125.71991426860018
 20
118.37019260514455
 11
132.11241426860016
 21
122.06090420093938
  0
LINE
  8
_0-0_
  6
CONTINUOUS
 62
    7
 10
132.11241426860016
 20
122.06090420093938
 11
132.11241426860011
 21
129.4423273925288
  0
LINE
  8
_0-0_
  6
CONTINUOUS
 62
    7
 10
132.11241426860011
 20
129.4423273925288
 11
125.71991426860001
 21
133.13303898832339
  0
LINE
  8
_0-0_
  6
CONTINUOUS
 62
    7
 10
125.71991426860001
 20
133.13303898832339
 11
119.32741426860008
 21
129.4423273925288
  0
LINE
  8
_0-0_
  6
CONTINUOUS
 62
    7
 10
127.96942482913363
 20
116.00791516876086
 11
133.71274890607918
 21
117.33386600945329
  0
LINE
  8
_0-0_
  6
CENTER1
 62
  152
 10
125.71991426860012
 20
95.751615796734029
 11
125.71991426860012
 21
155.75161579673403
  0
LINE
  8
_0-0_
  6
CONTINUOUS
 62
    7
 10
126.21991428569476
 20
160.05161581661309
 11
126.21991428569476
 21
162.75161581661303
  0
LINE
  8
_0-0_
  6
CENTER1
 62
  152
 10
150.71991428569453
 20
152.75161581661337
 11
150.71991428569453
 21
178.25161581661297
  0
LINE
  8
_0-0_
  6
CENTER1
 62
  152
 10
155.71991426860012
 20
125.75161579673403
 11
95.719914268600064
 21
125.75161579673403
  0
ARC
  8
_0-0_
  6
CONTINUOUS
 62
    7
 10
129.2199143339576
 20
162.75161576834984
 40
3.0000000482631952
 50
90.000000746543307
 51
180.00000120741819
  0
ARC
  8
_0-0_
  6
CONTINUOUS
 62
    7
 10
172.2199142374314
 20
162.75161576834984
 40
3.0000000482631952
 50
0.0000009217586895
 51
90.00000138263367
  0
ARC
  8
_0-0_
  6
CONTINUOUS
 62
    7
 10
127.51991428569437
 20
173.25161581661297
 40
0.8000000000000304
 50
180
 51
270
  0
ARC
  8
_0-0_
  6
CONTINUOUS
 62
    7
 10
173.91991428569463
 20
173.25161581661297
 40
0.8000000000000304
 50
270
 51
0.0000000000010231
  0
ARC
  8
_0-0_
  6
CONTINUOUS
 62
    7
 10
125.71991426860114
 20
125.75161579673386
 40
9.9999999844754832
 50
175.61705578966664
 51
283.0000001210521
  0
ARC
  8
_0-0_
  6
CONTINUOUS
 62
    7
 10
131.4632383626406
 20
127.07756665730597
 40
10.00000000000035
 50
282.99999999999932
 51
292.26536231902219
  0
ARC
  8
_0-0_
  6
CONTINUOUS
 62
    7
 10
125.71991426860012
 20
125.75161579673403
 40
6.3925000000000223
 50
240.00000000000014
 51
300.00000000000011
  0
ARC
  8
_0-0_
  6
CONTINUOUS
 62
    7
 10
125.71991426860012
 20
125.75161579673403
 40
6.3925000000000223
 50
300.00000000000011
 51
0
  0
ARC
  8
_0-0_
  6
CONTINUOUS
 62
    7
 10
125.71991426860012
 20
125.75161579673403
 40
6.3925000000000232
 50
180.00000000000026
 51
240.00000000000023
  0
ARC
  8
_0-0_
  6
CONTINUOUS
 62
    7
 10
125.71991426860012
 20
125.75161579673403
 40
6.3925000000000223
 50
119.99999999999997
 51
180
  0
ARC
  8
_0-0_
  6
CONTINUOUS
 62
    7
 10
125.71991426860012
 20
125.75161579673403
 40
6.3925000000000223
 50
359.99999999999966
 51
59.999999999999503
  0
ARC
  8
_0-0_
  6
CONTINUOUS
 62
    7
 10
125.71991426860012
 20
125.75161579673403
 40
6.3925000000000223
 50
59.999999999999808
 51
119.99999999999982
  0
ARC
  8
_0-0_
  6
CONTINUOUS
 62
    7
 10
125.71991426860012
 20
125.75161579673403
 40
18.000000000000011
 50
119.36604420506963
 51
7.3400784802365706
  0
ARC
  8
_0-0_
  6
CONTINUOUS
 62
    7
 10
125.71991426860012
 20
125.75161579673403
 40
25.000000000000011
 50
109.19523410799481
 51
25.079759629939417
  0
LINE
  8
_0-0_
  6
CONTINUOUS
 62
    7
 10
185.71991428569447
 20
208.75161581661266
 11
185.71991428569447
 21
262.75161581661291
  0
LINE
  8
_0-0_
  6
CENTER1
 62
  152
 10
186.21991428569441
 20
261.75161581661291
 11
167.21991428569441
 21
261.75161581661291
  0
LINE
  8
_0-0_
  6
CENTER1
 62
  152
 10
150.71991428569453
 20
263.7516158166128
 11
150.71991428569453
 21
207.75161581661277
  0
LINE
  8
_0-0_
  6
CENTER1
 62
  152
 10
134.21991428569487
 20
209.75161581661266
 11
115.21991428569487
 21
209.75161581661266
  0
LINE
  8
_0-0_
  6
CONTINUOUS
 62
    7
 10
115.71991428569487
 20
208.75161581661266
 11
115.71991428569487
 21
262.75161581661291
  0
LINE
  8
_0-0_
  6
CENTER1
 62
  152
 10
115.21991428569487
 20
261.75161581661291
 11
134.21991428569487
 21
261.75161581661291
  0
LINE
  8
_0-0_
  6
CENTER1
 62
  152
 10
124.71991428569487
 20
252.25161581661291
 11
124.71991428569487
 21
271.25161581661291
  0
LINE
  8
_0-0_
  6
CONTINUOUS
 62
    7
 10
123.71991428569487
 20
270.75161581661291
 11
177.71991428569441
 21
270.75161581661291
  0
LINE
  8
_0-0_
  6
CENTER1
 62
  152
 10
176.71991428569441
 20
271.25161581661291
 11
176.71991428569441
 21
252.25161581661291
  0
LINE
  8
_0-0_
  6
CENTER1
 62
  152
 10
178.71991428569453
 20
235.7516158166128
 11
122.71991428569453
 21
235.7516158166128
  0
LINE
  8
_0-0_
  6
CENTER1
 62
  152
 10
124.71991428569487
 20
219.25161581661266
 11
124.71991428569487
 21
200.25161581661266
  0
LINE
  8
_0-0_
  6
CONTINUOUS
 62
    7
 10
123.71991428569487
 20
200.75161581661263
 11
177.71991428569441
 21
200.75161581661263
  0
LINE
  8
_0-0_
  6
CENTER1
 62
  152
 10
176.71991428569441
 20
200.25161581661266
 11
176.71991428569441
 21
219.25161581661266
  0
LINE
  8
_0-0_
  6
CENTER1
 62
  152
 10
167.21991428569441
 20
209.75161581661266
 11
186.21991428569441
 21
209.75161581661266
  0
LINE
  8
_0-0_
  6
CONTINUOUS
 62
    7
 10
115.71991428569487
 20
221.75161581661234
 11
102.7199142686012
 21
221.75161581661234
  0
LINE
  8
_0-0_
  6
CONTINUOUS
 62
    7
 10
100.7199142686012
 20
223.75161581661231
 11
100.7199142686012
 21
247.75161581661234
  0
LINE
  8
_0-0_
  6
CONTINUOUS
 62
    7
 10
102.71991426860126
 20
249.75161581661234
 11
115.71991428569487
 21
249.75161581661234
  0
CIRCLE
  8
_0-0_
  6
CONTINUOUS
 62
    7
 10
150.71991428569453
 20
235.7516158166128
 40
23.000000000000011
  0
CIRCLE
  8
_0-0_
  6
CONTINUOUS
 62
    7
 10
176.71991428569441
 20
261.75161581661291
 40
4.5
  0
CIRCLE
  8
_0-0_
  6
CONTINUOUS
 62
    7
 10
124.71991428569487
 20
261.75161581661291
 40
4.5
  0
CIRCLE
  8
_0-0_
  6
CONTINUOUS
 62
    7
 10
124.71991428569487
 20
209.75161581661266
 40
4.5
  0
CIRCLE
  8
_0-0_
  6
CONTINUOUS
 62
    7
 10
176.71991428569441
 20
209.75161581661266
 40
4.5
  0
ARC
  8
_0-0_
  6
CONTINUOUS
 62
    7
 10
177.71991428569441
 20
262.75161581661291
 40
8
 50
0
 51
90
  0
ARC
  8
_0-0_
  6
CONTINUOUS
 62
    7
 10
123.71991428569487
 20
262.75161581661291
 40
7.9999999999999929
 50
90
 51
179.99999999999989
  0
ARC
  8
_0-0_
  6
CONTINUOUS
 62
    7
 10
123.71991428569487
 20
208.75161581661263
 40
7.9999999999999956
 50
179.99999999999989
 51
270
  0
ARC
  8
_0-0_
  6
CONTINUOUS
 62
    7
 10
177.71991428569441
 20
208.75161581661266
 40
8.0000000000000249
 50
270
 51
0
  0
CIRCLE
  8
_0-0_
  6
CONTINUOUS
 62
    7
 10
150.71991428569453
 20
235.7516158166128
 40
7.5000000000000044
  0
ARC
  8
_0-0_
  6
CONTINUOUS
 62
    7
 10
102.7199142686012
 20
223.75161581661229
 40
1.999999999999972
 50
179.99999999999898
 51
270
  0
ARC
  8
_0-0_
  6
CONTINUOUS
 62
    7
 10
102.7199142686012
 20
247.75161581661234
 40
1.999999999999974
 50
90
 51
180
  0
LINE
  8
_0-0_
  6
CENTER1
 62
  152
 10
68.341307893657131
 20
180.85614799751895
 11
68.341307893657131
 21
167.6016168706474
  0
LINE
  8
_0-0_
  6
CENTER1
 62
  152
 10
16.341307893657131
 20
180.85614799751895
 11
16.341307893657131
 21
167.6016168706474
  0
LINE
  8
_0-0_
  6
CENTER1
 62
  152
 10
124.71991428569453
 20
180.85614799751895
 11
124.71991428569453
 21
167.6016168706474
  0
LINE
  8
_0-0_
  6
CENTER1
 62
  152
 10
176.71991428569453
 20
180.85614799751895
 11
176.71991428569453
 21
167.6016168706474
  0
TEXT
  8
_0-f_
 62
    7
 10
29.982507687304178
 20
28.372039648749308
 40
4.2999999999999998
 41
0.744186046511628
 50
0
  1
CA50E2
  0
ENDSEC
  0
EOF
