  0
SECTION
  2
HEADER
  9
$ACADVER
  1
AC1009
  9
$INSBASE
 10
0
 20
0
 30
0
  9
$EXTMIN
 10
0
 20
0
  9
$EXTMAX
 10
1189
 20
841
  9
$LIMMIN
 10
0
 20
0
  9
$LIMMAX
 10
1189
 20
841
  9
$LTSCALE
 40
1
  0
ENDSEC
  0
SECTION
  2
TABLES
  0
TABLE
  2
LTYPE
 70
     9
  0
LTYPE
  2
CONTINUOUS
 70
    64
  3
実線
 72
    65
 73
     0
 40
0.0
  0
LTYPE
  2
DASHED1
 70
    64
  3
--  --  --  --  --  --  --  --  
 72
    65
 73
     2
 40
2.5
 49
1.25
 49
-1.25
  0
LTYPE
  2
DASHED2
 70
    64
  3
----    ----    ----    ----    
 72
    65
 73
     2
 40
5.0
 49
2.5
 49
-2.5
  0
LTYPE
  2
DASHED3
 70
    64
  3
------  ------  ------  ------  
 72
    65
 73
     2
 40
5.0
 49
3.75
 49
-1.25
  0
LTYPE
  2
CENTER1
 70
    64
  3
----- - ----- - ----- - ----- - 
 72
    65
 73
     4
 40
10.0
 49
6.25
 49
-1.25
 49
1.25
 49
-1.25
  0
LTYPE
  2
CENTER2
 70
    64
  3
----------  --  ----------  --  
 72
    65
 73
     4
 40
20.0
 49
12.5
 49
-2.5
 49
2.5
 49
-2.5
  0
LTYPE
  2
PHANTOM1
 70
    64
  3
--- - - --- - - --- - - --- - - 
 72
    65
 73
     6
 40
10.0
 49
3.25
 49
-1.25
 49
1.25
 49
-1.25
 49
1.25
 49
-1.25
  0
LTYPE
  2
PHANTOM2
 70
    64
  3
--------  -  -  --------  -  -  
 72
    65
 73
     6
 40
20.0
 49
10.0
 49
-2.5
 49
1.25
 49
-2.5
 49
1.25
 49
-2.5
  0
LTYPE
  2
DOT
 70
    64
  3
-   -   -   -   -   -   -   -   
 72
    65
 73
     2
 40
2.5
 49
0.625
 49
-1.875
  0
LTYPE
  2
DUMMY
 70
    64
  3
ダミー
 72
    65
 73
     0
 40
0.0
  0
LTYPE
  2
RAND1
 70
    64
  3
ランダム線1
 72
    65
 73
     4
 40
10.0
 49
1.0
 49
-2.0
 49
3.0
 49
-4.0
  0
LTYPE
  2
RAND2
 70
    64
  3
ランダム線2
 72
    65
 73
     4
 40
14.0
 49
2.0
 49
-3.0
 49
4.0
 49
-5.0
  0
LTYPE
  2
RAND3
 70
    64
  3
ランダム線3
 72
    65
 73
     4
 40
18.0
 49
3.0
 49
-4.0
 49
5.0
 49
-6.0
  0
LTYPE
  2
RAND4
 70
    64
  3
ランダム線4
 72
    65
 73
     4
 40
22.0
 49
4.0
 49
-5.0
 49
6.0
 49
-7.0
  0
LTYPE
  2
RAND5
 70
    64
  3
ランダム線5
 72
    65
 73
     4
 40
26.0
 49
5.0
 49
-6.0
 49
7.0
 49
-8.0
  0
LTYPE
  2
LONG1
 70
    64
  3
----------  --  ----------  --  
 72
    65
 73
     4
 40
40.0
 49
32.5
 49
-2.5
 49
2.5
 49
-2.5
  0
LTYPE
  2
LONG2
 70
    64
  3
--------  -  -  --------  -  -  
 72
    65
 73
     6
 40
40.0
 49
30.0
 49
-2.5
 49
1.25
 49
-2.5
 49
1.25
 49
-2.5
  0
LTYPE
  2
LONG3
 70
    64
  3
+++++++++++++++..+++++++++++++++
 72
    65
 73
     2
 40
40.0
 49
37.5
 49
-2.5
  0
LTYPE
  2
LONG4
 70
    64
  3
+++++++++++++++..+++++++++++++++
 72
    65
 73
     2
 40
80.0
 49
75.0
 49
-5.0
  0
LTYPE
  2
LONG5
 70
    64
  3
----------  --  ----------  --  
 72
    65
 73
     4
 40
60.0
 49
37.5
 49
-7.5
 49
7.5
 49
-7.5
  0
LTYPE
  2
dashed
 70
   64
  3
-------   -------------   ------
 72
   65
 73
    2
 40
7.5
 49
6
 49
-1.5
  0
LTYPE
  2
dashed_spaced
 70
   64
  3
----        --------        ----
 72
   65
 73
    2
 40
12
 49
6
 49
-6
  0
LTYPE
  2
long_dashed_dotted
 70
   64
  3
------------- --- --------------
 72
   65
 73
    4
 40
15.25
 49
12
 49
-1.5
 49
0.25
 49
-1.5
  0
LTYPE
  2
long_dashed_double-dotted
 70
   64
  3
----------- --- --- ------------
 72
   65
 73
    6
 40
17
 49
12
 49
-1.5
 49
0.25
 49
-1.5
 49
0.25
 49
-1.5
  0
LTYPE
  2
long_dashed_triplicate-dotted
 70
   64
  3
--------- --- --- --- ----------
 72
   65
 73
    8
 40
18.75
 49
12
 49
-1.5
 49
0.25
 49
-1.5
 49
0.25
 49
-1.5
 49
0.25
 49
-1.5
  0
LTYPE
  2
dotted
 70
   64
  3
   -       -       -       -    
 72
   65
 73
    2
 40
1.75
 49
0.25
 49
-1.5
  0
LTYPE
  2
chain
 70
   64
  3
-------------- -- --------------
 72
   65
 73
    4
 40
18.5
 49
12
 49
-1.5
 49
3.5
 49
-1.5
  0
LTYPE
  2
chain_double_dash
 70
   64
  3
------------ -- -- -------------
 72
   65
 73
    6
 40
23.5
 49
12
 49
-1.5
 49
3.5
 49
-1.5
 49
3.5
 49
-1.5
  0
LTYPE
  2
dashed_dotted
 70
   64
  3
-----------     -     ----------
 72
   65
 73
    4
 40
9.25
 49
6
 49
-1.5
 49
0.25
 49
-1.5
  0
LTYPE
  2
double-dashed_dotted
 70
   64
  3
------   -----------   -   -----
 72
   65
 73
    6
 40
16.75
 49
6
 49
-1.5
 49
6
 49
-1.5
 49
0.25
 49
-1.5
  0
LTYPE
  2
dashed_double-dotted
 70
   64
  3
---------    -    -    ---------
 72
   65
 73
    6
 40
11
 49
6
 49
-1.5
 49
0.25
 49
-1.5
 49
0.25
 49
-1.5
  0
LTYPE
  2
double-dashed_double-dotted
 70
   64
  3
-----   ---------   -   -   ----
 72
   65
 73
    8
 40
18.5
 49
6
 49
-1.5
 49
6
 49
-1.5
 49
0.25
 49
-1.5
 49
0.25
 49
-1.5
  0
LTYPE
  2
dashed_triplicate-dotted
 70
   64
  3
-------    -    -    -    ------
 72
   65
 73
    8
 40
12.75
 49
6
 49
-1.5
 49
0.25
 49
-1.5
 49
0.25
 49
-1.5
 49
0.25
 49
-1.5
  0
LTYPE
  2
double-dashed_triplicate-dotted
 70
   64
  3
-----  ---------  -  -  -  -----
 72
   65
 73
   10
 40
20.25
 49
6
 49
-1.5
 49
6
 49
-1.5
 49
0.25
 49
-1.5
 49
0.25
 49
-1.5
 49
0.25
 49
-1.5
  0
LTYPE
  2
undefined
 70
   64
  3
--------------------------------
 72
   65
 73
    0
 40
0
  0
ENDTAB
  0
TABLE
  2
STYLE
  5
3
100
AcDbSymbolTable
 70
     1
  0
STYLE
  5
10
100
AcDbSymbolTableRecord
100
AcDbTextStyleTableRecord
  2
STANDARD
 70
     0
 40
0.0
 41
1.0
 50
0.0
 71
     0
 42
0.2
  3
txt
  4
bigfont.shx
  0
STYLE
  5
26
100
AcDbSymbolTableRecord
100
AcDbTextStyleTableRecord
  2
TATEGAKI
 70
    68
 40
0.0
 41
1.0
 50
0.0
 71
     0
 42
1.0
  3
txt
  4
bigfont.shx
  0
ENDTAB
  0
TABLE
  2
LAYER
 70
    4
  0
LAYER
  2
_0-0_
 70
   64
 62
    7
  6
CONTINUOUS
  0
LAYER
  2
_0-1_
 70
   64
 62
    7
  6
CONTINUOUS
  0
LAYER
  2
_0-f_
 70
   64
 62
    7
  6
CONTINUOUS
  0
LAYER
  2
ADD_LINE
 70
   64
 62
    7
  6
CONTINUOUS
  0
ENDTAB
  0
ENDSEC
  0
SECTION
  2
BLOCKS
  0
ENDSEC
  0
SECTION
  2
ENTITIES
  0
TEXT
  8
_0-f_
 62
    7
 10
0.555964012028312
 20
0.4945783699848789
 40
4.2999999999999998
 41
0.744186046511628
 50
0
  1
CA40M8
  0
LINE
  8
_0-0_
  6
CONTINUOUS
 62
    7
 10
8.3373340409692673
 20
89.429879757544143
 11
8.3373340409692673
 21
114.42987975754414
  0
LINE
  8
_0-0_
  6
CONTINUOUS
 62
    7
 10
13.293395040969131
 20
121.92987975754414
 11
18.587334040969267
 21
121.92987975754414
  0
LINE
  8
_0-0_
  6
CONTINUOUS
 62
    7
 10
19.087334040969267
 20
121.42987975754414
 11
19.087334040969267
 21
82.429879757544143
  0
LINE
  8
_0-0_
  6
CONTINUOUS
 62
    7
 10
18.587334040969267
 20
81.929879757544143
 11
13.293395040969131
 21
81.929879757544143
  0
LINE
  8
_0-0_
  6
CONTINUOUS
 62
    7
 10
26.287334040969085
 20
137.42987975754414
 11
31.887334040969449
 21
137.42987975754414
  0
LINE
  8
_0-0_
  6
CONTINUOUS
 62
    7
 10
31.887334040969449
 20
137.42987975754414
 11
33.087334040969267
 21
136.22987975754387
  0
LINE
  8
_0-0_
  6
CONTINUOUS
 62
    7
 10
33.087334040969267
 20
136.22987975754387
 11
33.087334040969267
 21
125.42987975754414
  0
LINE
  8
_0-0_
  6
CONTINUOUS
 62
    7
 10
25.087334040969267
 20
136.22987975754387
 11
25.087334040969267
 21
125.42987975754414
  0
LINE
  8
_0-0_
  6
CONTINUOUS
 62
    7
 10
26.287334040969085
 20
137.42987975754414
 11
25.087334040969267
 21
136.22987975754387
  0
LINE
  8
_0-0_
  6
CONTINUOUS
 62
    7
 10
36.087334040969267
 20
125.42987975754414
 11
36.087334040969267
 21
120.92987975754414
  0
LINE
  8
_0-0_
  6
CONTINUOUS
 62
    7
 10
36.087334040969267
 20
120.92987975754414
 11
22.087334040969267
 21
120.92987975754414
  0
LINE
  8
_0-0_
  6
CONTINUOUS
 62
    7
 10
22.087334040969267
 20
120.92987975754414
 11
22.087334040969267
 21
125.42987975754414
  0
LINE
  8
_0-0_
  6
CONTINUOUS
 62
    7
 10
22.087334040969267
 20
125.42987975754414
 11
36.087334040969267
 21
125.42987975754414
  0
LINE
  8
_0-0_
  6
CONTINUOUS
 62
    7
 10
36.087334040969267
 20
120.75966575754438
 11
22.087334040969267
 21
120.75966575754438
  0
LINE
  8
_0-0_
  6
CONTINUOUS
 62
    7
 10
20.337334040969267
 20
120.38085175754378
 11
20.337334040969267
 21
94.988259757544085
  0
LINE
  8
_0-0_
  6
CONTINUOUS
 62
    7
 10
20.637334040969449
 20
94.929879757544143
 11
37.537334040969085
 21
94.929879757544143
  0
LINE
  8
_0-0_
  6
CONTINUOUS
 62
    7
 10
37.837334040969267
 20
94.988259757544085
 11
37.837334040969267
 21
120.38085175754378
  0
LINE
  8
_0-0_
  6
CONTINUOUS
 62
    7
 10
37.587334040969267
 20
119.25966575754438
 11
37.587334040969267
 21
105.92987975754414
  0
LINE
  8
_0-0_
  6
CONTINUOUS
 62
    7
 10
37.837334040969267
 20
105.92987975754414
 11
34.737334040968904
 21
105.92987975754414
  0
LINE
  8
_0-0_
  6
CONTINUOUS
 62
    7
 10
34.737334040968904
 20
105.92987975754414
 11
34.737334040968904
 21
115.75526175754413
  0
LINE
  8
_0-0_
  6
CONTINUOUS
 62
    7
 10
35.587334040969267
 20
115.75526175754413
 11
22.587334040969267
 21
115.75526175754413
  0
LINE
  8
_0-0_
  6
CONTINUOUS
 62
    7
 10
23.437334040969176
 20
115.75526175754413
 11
23.437334040969176
 21
105.92987975754414
  0
LINE
  8
_0-0_
  6
CONTINUOUS
 62
    7
 10
23.437334040969176
 20
105.92987975754414
 11
20.337334040969267
 21
105.92987975754414
  0
LINE
  8
_0-0_
  6
CONTINUOUS
 62
    7
 10
20.587334040969267
 20
105.92987975754414
 11
20.587334040969267
 21
119.25966575754438
  0
LINE
  8
_0-0_
  6
CONTINUOUS
 62
    7
 10
22.087334040969267
 20
117.16855675754397
 11
22.087334040969267
 21
116.25526175754413
  0
LINE
  8
_0-0_
  6
CONTINUOUS
 62
    7
 10
22.587334040969267
 20
117.66855675754397
 11
35.587334040969267
 21
117.66855675754397
  0
LINE
  8
_0-0_
  6
CONTINUOUS
 62
    7
 10
36.087334040969267
 20
117.16855675754397
 11
36.087334040969267
 21
116.25526175754413
  0
LINE
  8
_0-0_
  6
CONTINUOUS
 62
    7
 10
39.087334040969267
 20
121.42987975754414
 11
39.087334040969267
 21
82.429879757544143
  0
LINE
  8
_0-0_
  6
CONTINUOUS
 62
    7
 10
39.587334040969267
 20
81.929879757544143
 11
44.881273040969404
 21
81.929879757544143
  0
LINE
  8
_0-0_
  6
CONTINUOUS
 62
    7
 10
49.837334040969267
 20
89.429879757544143
 11
49.837334040969267
 21
114.42987975754414
  0
LINE
  8
_0-0_
  6
CONTINUOUS
 62
    7
 10
44.881273040969404
 20
121.92987975754414
 11
39.587334040969267
 21
121.92987975754414
  0
LINE
  8
_0-0_
  6
CONTINUOUS
 62
    7
 10
39.087334040969267
 20
108.42987975754414
 11
37.837334040969267
 21
108.42987975754414
  0
LINE
  8
_0-0_
  6
CONTINUOUS
 62
    7
 10
37.837334040969267
 20
105.62987975754396
 11
39.087334040969267
 21
105.62987975754396
  0
LINE
  8
_0-0_
  6
CONTINUOUS
 62
    7
 10
39.087334040969267
 20
104.42987975754414
 11
37.837334040969267
 21
104.42987975754414
  0
LINE
  8
_0-0_
  6
CONTINUOUS
 62
    7
 10
38.337334040969267
 20
104.42987975754414
 11
38.337334040969267
 21
95.72987975754387
  0
LINE
  8
_0-0_
  6
CONTINUOUS
 62
    7
 10
34.312334040969176
 20
93.829879757543779
 11
34.312334040969176
 21
92.829879757544234
  0
LINE
  8
_0-0_
  6
CONTINUOUS
 62
    7
 10
34.312334040969176
 20
92.829879757544234
 11
23.862334040968904
 21
92.829879757544234
  0
LINE
  8
_0-0_
  6
CONTINUOUS
 62
    7
 10
23.862334040968904
 20
92.829879757544234
 11
23.862334040968904
 21
93.829879757543779
  0
LINE
  8
_0-0_
  6
CONTINUOUS
 62
    7
 10
23.862334040968904
 20
93.829879757543779
 11
34.312334040969176
 21
93.829879757543779
  0
LINE
  8
_0-0_
  6
CONTINUOUS
 62
    7
 10
32.087334040969267
 20
93.829879757543779
 11
32.087334040969267
 21
94.929879757544143
  0
LINE
  8
_0-0_
  6
CONTINUOUS
 62
    7
 10
32.587334040969267
 20
92.829879757544234
 11
32.587334040969267
 21
88.829879757543779
  0
LINE
  8
_0-0_
  6
CONTINUOUS
 62
    7
 10
32.587334040969267
 20
88.829879757543779
 11
25.587334040969267
 21
88.829879757543779
  0
LINE
  8
_0-0_
  6
CONTINUOUS
 62
    7
 10
25.587334040969267
 20
88.829879757543779
 11
25.587334040969267
 21
92.829879757544234
  0
LINE
  8
_0-0_
  6
CONTINUOUS
 62
    7
 10
26.087334040969267
 20
93.829879757543779
 11
26.087334040969267
 21
94.929879757544143
  0
LINE
  8
_0-0_
  6
CONTINUOUS
 62
    7
 10
29.087334040969267
 20
92.829879757544234
 11
29.087334040969267
 21
89.329879757544234
  0
LINE
  8
_0-0_
  6
CONTINUOUS
 62
    7
 10
19.837334040969267
 20
95.72987975754387
 11
19.837334040969267
 21
104.42987975754414
  0
LINE
  8
_0-0_
  6
CONTINUOUS
 62
    7
 10
20.337334040969267
 20
104.42987975754414
 11
19.087334040969267
 21
104.42987975754414
  0
LINE
  8
_0-0_
  6
CONTINUOUS
 62
    7
 10
19.087334040969267
 20
105.62987975754396
 11
20.337334040969267
 21
105.62987975754396
  0
LINE
  8
_0-0_
  6
CONTINUOUS
 62
    7
 10
20.337334040969267
 20
108.42987975754414
 11
19.087334040969267
 21
108.42987975754414
  0
LINE
  8
_0-0_
  6
CONTINUOUS
 62
    7
 10
23.437334040969176
 20
107.92987975754414
 11
34.737334040968904
 21
107.92987975754414
  0
LINE
  8
_0-0_
  6
CONTINUOUS
 62
    7
 10
64.773575438044986
 20
115.98959375754413
 11
64.671645438045175
 21
116.46913475754428
  0
LINE
  8
_0-0_
  6
CONTINUOUS
 62
    7
 10
109.44979343804505
 20
137.42987975754414
 11
103.84979343804514
 21
137.42987975754414
  0
LINE
  8
_0-0_
  6
CONTINUOUS
 62
    7
 10
103.84979343804514
 20
137.42987975754414
 11
102.64979343804532
 21
136.22987975754387
  0
LINE
  8
_0-0_
  6
CONTINUOUS
 62
    7
 10
110.64979343804487
 20
136.22987975754387
 11
109.44979343804505
 21
137.42987975754414
  0
LINE
  8
_0-0_
  6
CONTINUOUS
 62
    7
 10
110.64979343804487
 20
125.42987975754414
 11
110.64979343804487
 21
136.22987975754387
  0
LINE
  8
_0-0_
  6
CONTINUOUS
 62
    7
 10
102.64979343804532
 20
136.22987975754387
 11
102.64979343804532
 21
125.42987975754414
  0
LINE
  8
_0-0_
  6
CONTINUOUS
 62
    7
 10
114.64979343804487
 20
125.42987975754414
 11
98.649793438045322
 21
125.42987975754414
  0
LINE
  8
_0-0_
  6
CONTINUOUS
 62
    7
 10
98.649793438045322
 20
120.92987975754414
 11
114.64979343804487
 21
120.92987975754414
  0
LINE
  8
_0-0_
  6
CONTINUOUS
 62
    7
 10
139.00992706645809
 20
121.92987975754414
 11
144.22074406645777
 21
121.92987975754414
  0
LINE
  8
_0-0_
  6
CONTINUOUS
 62
    7
 10
144.72074406645822
 20
121.42987975754414
 11
144.72074406645822
 21
82.429879757544143
  0
LINE
  8
_0-0_
  6
CONTINUOUS
 62
    7
 10
144.22074406645777
 20
81.929879757544143
 11
139.00992706645809
 21
81.929879757544143
  0
LINE
  8
_0-0_
  6
CONTINUOUS
 62
    7
 10
133.97074406645777
 20
89.638140757543908
 11
133.97074406645777
 21
114.22161875754392
  0
LINE
  8
_0-0_
  6
CONTINUOUS
 62
    7
 10
145.33677006645792
 20
108.42987975754414
 11
145.5291250664576
 21
108.42987975754414
  0
LINE
  8
_0-0_
  6
CONTINUOUS
 62
    7
 10
145.47074406645822
 20
108.12987975754396
 11
145.47074406645822
 21
95.72987975754387
  0
LINE
  8
_0-0_
  6
CONTINUOUS
 62
    7
 10
145.97074406645822
 20
94.988259757544085
 11
145.97074406645822
 21
120.38085175754378
  0
LINE
  8
_0-0_
  6
CONTINUOUS
 62
    7
 10
147.72074406645822
 20
120.92987975754414
 11
147.72074406645822
 21
125.42987975754414
  0
LINE
  8
_0-0_
  6
CONTINUOUS
 62
    7
 10
147.72074406645822
 20
125.42987975754414
 11
161.72074406645822
 21
125.42987975754414
  0
LINE
  8
_0-0_
  6
CONTINUOUS
 62
    7
 10
161.72074406645822
 20
125.42987975754414
 11
161.72074406645822
 21
120.92987975754414
  0
LINE
  8
_0-0_
  6
CONTINUOUS
 62
    7
 10
161.72074406645822
 20
120.92987975754414
 11
147.72074406645822
 21
120.92987975754414
  0
LINE
  8
_0-0_
  6
CONTINUOUS
 62
    7
 10
150.72074406645777
 20
125.42987975754414
 11
150.72074406645777
 21
136.22987975754387
  0
LINE
  8
_0-0_
  6
CONTINUOUS
 62
    7
 10
158.72074406645777
 20
136.22987975754387
 11
157.5207440664575
 21
137.42987975754414
  0
LINE
  8
_0-0_
  6
CONTINUOUS
 62
    7
 10
157.5207440664575
 20
137.42987975754414
 11
151.92074406645804
 21
137.42987975754414
  0
LINE
  8
_0-0_
  6
CONTINUOUS
 62
    7
 10
151.92074406645804
 20
137.42987975754414
 11
150.72074406645777
 21
136.22987975754387
  0
LINE
  8
_0-0_
  6
CONTINUOUS
 62
    7
 10
158.72074406645777
 20
125.42987975754414
 11
158.72074406645777
 21
136.22987975754387
  0
LINE
  8
_0-0_
  6
CONTINUOUS
 62
    7
 10
163.47074406645822
 20
120.38085175754378
 11
163.47074406645822
 21
94.988259757544085
  0
LINE
  8
_0-0_
  6
CONTINUOUS
 62
    7
 10
163.17074406645804
 20
94.929879757544143
 11
157.72074406645822
 21
94.929879757544143
  0
LINE
  8
_0-0_
  6
CONTINUOUS
 62
    7
 10
157.72074406645822
 20
95.279879757544052
 11
157.72074406645822
 21
93.829879757543779
  0
LINE
  8
_0-0_
  6
CONTINUOUS
 62
    7
 10
158.22074406645822
 20
92.829879757544234
 11
158.22074406645822
 21
88.829879757543779
  0
LINE
  8
_0-0_
  6
CONTINUOUS
 62
    7
 10
158.22074406645822
 20
88.829879757543779
 11
151.22074406645822
 21
88.829879757543779
  0
LINE
  8
_0-0_
  6
CONTINUOUS
 62
    7
 10
151.22074406645822
 20
88.829879757543779
 11
151.22074406645822
 21
92.829879757544234
  0
LINE
  8
_0-0_
  6
CONTINUOUS
 62
    7
 10
151.72074406645822
 20
93.829879757543779
 11
151.72074406645822
 21
95.279879757544052
  0
LINE
  8
_0-0_
  6
CONTINUOUS
 62
    7
 10
151.72074406645822
 20
94.929879757544143
 11
146.2707440664575
 21
94.929879757544143
  0
LINE
  8
_0-0_
  6
CONTINUOUS
 62
    7
 10
147.23466106645753
 20
95.279879757544052
 11
162.206827066458
 21
95.279879757544052
  0
LINE
  8
_0-0_
  6
CONTINUOUS
 62
    7
 10
163.97074406645822
 20
95.72987975754387
 11
163.97074406645822
 21
108.12987975754396
  0
LINE
  8
_0-0_
  6
CONTINUOUS
 62
    7
 10
163.91236406645783
 20
108.42987975754414
 11
164.10471906645796
 21
108.42987975754414
  0
LINE
  8
_0-0_
  6
CONTINUOUS
 62
    7
 10
164.72074406645822
 20
121.42987975754414
 11
164.72074406645822
 21
82.429879757544143
  0
LINE
  8
_0-0_
  6
CONTINUOUS
 62
    7
 10
165.22074406645777
 20
81.929879757544143
 11
170.43156206645779
 21
81.929879757544143
  0
LINE
  8
_0-0_
  6
CONTINUOUS
 62
    7
 10
175.47074406645777
 20
89.638140757543908
 11
175.47074406645777
 21
114.22161875754392
  0
LINE
  8
_0-0_
  6
CONTINUOUS
 62
    7
 10
170.43156206645779
 20
121.92987975754414
 11
165.22074406645777
 21
121.92987975754414
  0
LINE
  8
_0-0_
  6
CONTINUOUS
 62
    7
 10
154.72074406645777
 20
89.329879757544234
 11
154.72074406645777
 21
92.829879757544234
  0
LINE
  8
_0-0_
  6
CONTINUOUS
 62
    7
 10
153.97074406645822
 20
92.829879757544234
 11
153.97074406645822
 21
93.829879757543779
  0
LINE
  8
_0-0_
  6
CONTINUOUS
 62
    7
 10
153.97074406645822
 20
93.829879757543779
 11
149.49574406645786
 21
93.829879757543779
  0
LINE
  8
_0-0_
  6
CONTINUOUS
 62
    7
 10
149.49574406645786
 20
93.829879757543779
 11
149.49574406645786
 21
92.829879757544234
  0
LINE
  8
_0-0_
  6
CONTINUOUS
 62
    7
 10
149.49574406645786
 20
92.829879757544234
 11
159.94574406645768
 21
92.829879757544234
  0
LINE
  8
_0-0_
  6
CONTINUOUS
 62
    7
 10
159.94574406645768
 20
92.829879757544234
 11
159.94574406645768
 21
93.829879757543779
  0
LINE
  8
_0-0_
  6
CONTINUOUS
 62
    7
 10
159.94574406645768
 20
93.829879757543779
 11
155.47074406645822
 21
93.829879757543779
  0
LINE
  8
_0-0_
  6
CONTINUOUS
 62
    7
 10
155.47074406645822
 20
93.829879757543779
 11
155.47074406645822
 21
92.829879757544234
  0
LINE
  8
_0-0_
  6
CONTINUOUS
 62
    7
 10
113.19868943804465
 20
95.279879757544052
 11
110.51185843804467
 21
95.279879757544052
  0
LINE
  8
_0-0_
  6
CONTINUOUS
 62
    7
 10
104.14979343804532
 20
198.58194965723425
 11
79.149793438045322
 21
198.58194965723425
  0
LINE
  8
_0-0_
  6
CONTINUOUS
 62
    7
 10
78.649793438045322
 20
187.83194965723425
 11
78.649793438045322
 21
186.58194965723425
  0
LINE
  8
_0-0_
  6
CONTINUOUS
 62
    7
 10
76.649793438044867
 20
186.58194965723425
 11
76.649793438044867
 21
187.83194965723425
  0
LINE
  8
_0-0_
  6
CONTINUOUS
 62
    7
 10
72.149793438044867
 20
187.83194965723425
 11
111.14979343804532
 21
187.83194965723425
  0
LINE
  8
_0-0_
  6
CONTINUOUS
 62
    7
 10
111.64979343804487
 20
188.33194965723425
 11
111.64979343804487
 21
193.62588865723393
  0
LINE
  8
_0-0_
  6
CONTINUOUS
 62
    7
 10
110.10076543804496
 20
186.58194965723425
 11
73.198821438044774
 21
186.58194965723425
  0
LINE
  8
_0-0_
  6
CONTINUOUS
 62
    7
 10
71.649793438045322
 20
188.33194965723425
 11
71.649793438045322
 21
193.62588865723393
  0
LINE
  8
_0-0_
  6
CONTINUOUS
 62
    7
 10
67.649793438045322
 20
186.33194965723425
 11
80.800357438044898
 21
186.33194965723425
  0
LINE
  8
_0-0_
  6
CONTINUOUS
 62
    7
 10
82.649793438045322
 20
186.58194965723425
 11
82.649793438045322
 21
187.83194965723425
  0
LINE
  8
_0-0_
  6
CONTINUOUS
 62
    7
 10
85.449793438045049
 20
187.08194965723425
 11
97.84979343804514
 21
187.08194965723425
  0
LINE
  8
_0-0_
  6
CONTINUOUS
 62
    7
 10
101.49535343804507
 20
184.83194965723425
 11
111.80423343804512
 21
184.83194965723425
  0
LINE
  8
_0-0_
  6
CONTINUOUS
 62
    7
 10
111.80423343804512
 20
170.83194965723425
 11
101.49535343804507
 21
170.83194965723425
  0
LINE
  8
_0-0_
  6
CONTINUOUS
 62
    7
 10
97.84979343804514
 20
168.58194965723425
 11
85.449793438045049
 21
168.58194965723425
  0
LINE
  8
_0-0_
  6
CONTINUOUS
 62
    7
 10
82.649793438045322
 20
169.08194965723425
 11
82.649793438045322
 21
167.83194965723425
  0
LINE
  8
_0-0_
  6
CONTINUOUS
 62
    7
 10
80.800357438044898
 20
169.33194965723425
 11
67.649793438045322
 21
169.33194965723425
  0
LINE
  8
_0-0_
  6
CONTINUOUS
 62
    7
 10
73.198821438044774
 20
169.08194965723425
 11
110.10076543804496
 21
169.08194965723425
  0
LINE
  8
_0-0_
  6
CONTINUOUS
 62
    7
 10
111.14979343804532
 20
167.83194965723425
 11
72.149793438044867
 21
167.83194965723425
  0
LINE
  8
_0-0_
  6
CONTINUOUS
 62
    7
 10
71.649793438045322
 20
167.33194965723425
 11
71.649793438045322
 21
162.03801065723411
  0
LINE
  8
_0-0_
  6
CONTINUOUS
 62
    7
 10
76.649793438044867
 20
167.83194965723425
 11
76.649793438044867
 21
169.08194965723425
  0
LINE
  8
_0-0_
  6
CONTINUOUS
 62
    7
 10
78.649793438045322
 20
169.08194965723425
 11
78.649793438045322
 21
167.83194965723425
  0
LINE
  8
_0-0_
  6
CONTINUOUS
 62
    7
 10
82.227633438045245
 20
172.33194965723425
 11
82.227633438045245
 21
183.33194965723425
  0
LINE
  8
_0-0_
  6
CONTINUOUS
 62
    7
 10
83.800357438044898
 20
183.33194965723425
 11
83.800357438044898
 21
172.33194965723425
  0
LINE
  8
_0-0_
  6
CONTINUOUS
 62
    7
 10
64.649793438045322
 20
172.33194965723425
 11
64.649793438045322
 21
183.33194965723425
  0
LINE
  8
_0-0_
  6
CONTINUOUS
 62
    7
 10
111.64979343804487
 20
167.33194965723425
 11
111.64979343804487
 21
162.03801065723411
  0
LINE
  8
_0-0_
  6
CONTINUOUS
 62
    7
 10
104.14979343804532
 20
157.08194965723425
 11
79.149793438045322
 21
157.08194965723425
  0
CIRCLE
  8
_0-0_
  6
CONTINUOUS
 62
    7
 10
106.64979343804532
 20
177.83194965723425
 40
3.3235000000000001
  0
CIRCLE
  8
_0-0_
  6
CONTINUOUS
 62
    7
 10
106.64979343804532
 20
177.83194965723425
 40
4
  0
ARC
  8
_0-0_
  6
CONTINUOUS
 62
    7
 10
107.64979343804532
 20
162.03801065723411
 40
4
 50
285.70075400000002
 51
0
  0
ARC
  8
_0-0_
  6
CONTINUOUS
 62
    7
 10
75.649793438044867
 20
162.03801065723411
 40
4
 50
180
 51
254.29924599999987
  0
ARC
  8
_0-0_
  6
CONTINUOUS
 62
    7
 10
91.649793438045322
 20
218.95694965723425
 40
63.125
 50
254.29924599999993
 51
285.70075400000007
  0
ARC
  8
_0-0_
  6
CONTINUOUS
 62
    7
 10
107.64979343804532
 20
193.62588865723393
 40
4
 50
0
 51
74.299245999999982
  0
ARC
  8
_0-0_
  6
CONTINUOUS
 62
    7
 10
75.649793438044867
 20
193.62588865723393
 40
4
 50
105.700754
 51
180
  0
ARC
  8
_0-0_
  6
CONTINUOUS
 62
    7
 10
91.649793438045322
 20
136.70694965723425
 40
63.125
 50
74.299245999999982
 51
105.70075399999998
  0
ARC
  8
_0-0_
  6
CONTINUOUS
 62
    7
 10
67.649793438045322
 20
183.33194965723425
 40
3
 50
90
 51
180
  0
ARC
  8
_0-0_
  6
CONTINUOUS
 62
    7
 10
142.64979343804532
 20
177.83194965723425
 40
70
 50
172.81924399999991
 51
173.02544299999994
  0
ARC
  8
_0-0_
  6
CONTINUOUS
 62
    7
 10
79.227633438045245
 20
183.33194965723425
 40
3
 50
0
 51
90
  0
ARC
  8
_0-0_
  6
CONTINUOUS
 62
    7
 10
72.149793438044867
 20
188.33194965723425
 40
0.5
 50
180
 51
270
  0
ARC
  8
_0-0_
  6
CONTINUOUS
 62
    7
 10
85.449793438045049
 20
186.28194965723407
 40
0.8
 50
90
 51
157.97568699999991
  0
ARC
  8
_0-0_
  6
CONTINUOUS
 62
    7
 10
85.649793438044867
 20
188.08194965723425
 40
1
 50
194.47751199999993
 51
270
  0
ARC
  8
_0-0_
  6
CONTINUOUS
 62
    7
 10
97.84979343804514
 20
186.28194965723407
 40
0.8
 50
22.024312999999999
 51
89.999999999999986
  0
ARC
  8
_0-0_
  6
CONTINUOUS
 62
    7
 10
97.649793438045322
 20
188.08194965723425
 40
1
 50
270
 51
345.52248800000001
  0
ARC
  8
_0-0_
  6
CONTINUOUS
 62
    7
 10
80.800357438044898
 20
183.33194965723425
 40
3
 50
0
 51
90
  0
ARC
  8
_0-0_
  6
CONTINUOUS
 62
    7
 10
111.14979343804532
 20
188.33194965723425
 40
0.5
 50
270
 51
0
  0
ARC
  8
_0-0_
  6
CONTINUOUS
 62
    7
 10
106.64979343804532
 20
177.83194965723425
 40
8.5
 50
55.439678000000008
 51
65.136711999999989
  0
ARC
  8
_0-0_
  6
CONTINUOUS
 62
    7
 10
40.649793438045322
 20
177.83194965723425
 40
70
 50
6.3253339999999989
 51
7.1807559999999961
  0
ARC
  8
_0-0_
  6
CONTINUOUS
 62
    7
 10
67.649793438045322
 20
172.33194965723425
 40
3
 50
180
 51
270
  0
ARC
  8
_0-0_
  6
CONTINUOUS
 62
    7
 10
142.64979343804532
 20
177.83194965723425
 40
70
 50
186.974557
 51
187.180756
  0
ARC
  8
_0-0_
  6
CONTINUOUS
 62
    7
 10
79.227633438045245
 20
172.33194965723425
 40
3
 50
270
 51
0
  0
ARC
  8
_0-0_
  6
CONTINUOUS
 62
    7
 10
72.149793438044867
 20
167.33194965723425
 40
0.5
 50
90
 51
180
  0
ARC
  8
_0-0_
  6
CONTINUOUS
 62
    7
 10
85.649793438044867
 20
167.58194965723425
 40
1
 50
90
 51
165.52248799999978
  0
ARC
  8
_0-0_
  6
CONTINUOUS
 62
    7
 10
85.449793438045049
 20
169.38194965723443
 40
0.8
 50
202.02431299999989
 51
270
  0
ARC
  8
_0-0_
  6
CONTINUOUS
 62
    7
 10
97.649793438045322
 20
167.58194965723425
 40
1
 50
14.47751199999999
 51
89.999999999999986
  0
ARC
  8
_0-0_
  6
CONTINUOUS
 62
    7
 10
97.84979343804514
 20
169.38194965723443
 40
0.8
 50
270
 51
337.97568699999999
  0
ARC
  8
_0-0_
  6
CONTINUOUS
 62
    7
 10
80.800357438044898
 20
172.33194965723425
 40
3
 50
270
 51
0
  0
ARC
  8
_0-0_
  6
CONTINUOUS
 62
    7
 10
40.649793438045322
 20
177.83194965723425
 40
70
 50
352.81924400000008
 51
353.67466599999989
  0
ARC
  8
_0-0_
  6
CONTINUOUS
 62
    7
 10
106.64979343804532
 20
177.83194965723425
 40
8.5
 50
294.86328800000001
 51
304.56032199999993
  0
ARC
  8
_0-0_
  6
CONTINUOUS
 62
    7
 10
111.14979343804532
 20
167.33194965723425
 40
0.5
 50
0
 51
90
  0
ARC
  8
_0-0_
  6
CONTINUOUS
 62
    7
 10
106.64979343804532
 20
177.83194965723425
 40
8
 50
298.95502399999987
 51
61.044975999999949
  0
ARC
  8
_0-0_
  6
CONTINUOUS
 62
    7
 10
106.64979343804532
 20
177.83194965723425
 40
8.6929999999999978
 50
306.36601899999999
 51
53.633980999999999
  0
ARC
  8
_0-0_
  6
CONTINUOUS
 62
    7
 10
106.64979343804532
 20
177.83194965723425
 40
8.6929999999999978
 50
126.36601899999981
 51
233.63398100000001
  0
ARC
  8
_0-0_
  6
CONTINUOUS
 62
    7
 10
106.64979343804532
 20
177.83194965723425
 40
8
 50
118.9550239999999
 51
241.04497599999999
  0
ARC
  8
_0-0_
  6
CONTINUOUS
 62
    7
 10
162.206827066458
 20
96.279879757544052
 40
1
 50
270
 51
356.01786099999993
  0
ARC
  8
_0-0_
  6
CONTINUOUS
 62
    7
 10
147.23466106645753
 20
96.279879757544052
 40
1
 50
183.9821389999999
 51
270
  0
ARC
  8
_0-0_
  6
CONTINUOUS
 62
    7
 10
170.43156206645779
 20
117.92987975754414
 40
4
 50
16.284548000000001
 51
90
  0
ARC
  8
_0-0_
  6
CONTINUOUS
 62
    7
 10
170.43156206645779
 20
85.929879757544143
 40
4
 50
270
 51
343.71545200000003
  0
ARC
  8
_0-0_
  6
CONTINUOUS
 62
    7
 10
115.66100206645785
 20
101.92987975754414
 40
61.059742000000007
 50
343.71545200000003
 51
16.284547999999972
  0
ARC
  8
_0-0_
  6
CONTINUOUS
 62
    7
 10
139.00992706645809
 20
117.92987975754414
 40
4
 50
90
 51
163.71545199999991
  0
ARC
  8
_0-0_
  6
CONTINUOUS
 62
    7
 10
139.00992706645809
 20
85.929879757544143
 40
4
 50
196.2845479999998
 51
270
  0
ARC
  8
_0-0_
  6
CONTINUOUS
 62
    7
 10
193.78048706645802
 20
101.92987975754414
 40
61.059742000000007
 50
163.71545199999991
 51
196.28454799999986
  0
ARC
  8
_0-0_
  6
CONTINUOUS
 62
    7
 10
165.22074406645777
 20
121.42987975754414
 40
0.5
 50
90
 51
180
  0
ARC
  8
_0-0_
  6
CONTINUOUS
 62
    7
 10
165.22074406645777
 20
82.429879757544143
 40
0.5
 50
180
 51
270
  0
ARC
  8
_0-0_
  6
CONTINUOUS
 62
    7
 10
144.22074406645777
 20
121.42987975754414
 40
0.5
 50
0
 51
90
  0
ARC
  8
_0-0_
  6
CONTINUOUS
 62
    7
 10
144.22074406645777
 20
82.429879757544143
 40
0.5
 50
270
 51
0
  0
ARC
  8
_0-0_
  6
CONTINUOUS
 62
    7
 10
152.97074406645822
 20
92.142379757544234
 40
3.3125
 50
238.10920800000002
 51
301.89079199999998
  0
ARC
  8
_0-0_
  6
CONTINUOUS
 62
    7
 10
156.47074406645777
 20
92.142379757544234
 40
3.3125
 50
238.10920800000002
 51
301.89079199999998
  0
ARC
  8
_0-0_
  6
CONTINUOUS
 62
    7
 10
154.72074406645777
 20
50.929879757544143
 40
70
 50
95.795007999999996
 51
97.180756000000017
  0
ARC
  8
_0-0_
  6
CONTINUOUS
 62
    7
 10
67.517620066457653
 20
102.87153175754412
 40
95.918363999999997
 50
356.01786099999998
 51
10.85171700000004
  0
ARC
  8
_0-0_
  6
CONTINUOUS
 62
    7
 10
241.92386906645777
 20
102.87153175754412
 40
95.918363999999997
 50
169.14828299999991
 51
183.9821389999999
  0
ARC
  8
_0-0_
  6
CONTINUOUS
 62
    7
 10
154.72074406645777
 20
50.929879757544143
 40
70
 50
82.819243999999983
 51
84.204992000000004
  0
ARC
  8
_0-0_
  6
CONTINUOUS
 62
    7
 10
163.17074406645804
 20
95.72987975754387
 40
0.8
 50
270
 51
0
  0
ARC
  8
_0-0_
  6
CONTINUOUS
 62
    7
 10
163.17074406645804
 20
108.12987975754396
 40
0.8
 50
0
 51
67.975686999999994
  0
ARC
  8
_0-0_
  6
CONTINUOUS
 62
    7
 10
146.2707440664575
 20
108.12987975754396
 40
0.8
 50
112.02431299999989
 51
180
  0
ARC
  8
_0-0_
  6
CONTINUOUS
 62
    7
 10
144.47074406645777
 20
107.92987975754414
 40
1
 50
0
 51
75.522487999999981
  0
ARC
  8
_0-0_
  6
CONTINUOUS
 62
    7
 10
144.47074406645777
 20
95.929879757544143
 40
1
 50
284.47751199999982
 51
0.0000000000000763
  0
ARC
  8
_0-0_
  6
CONTINUOUS
 62
    7
 10
146.2707440664575
 20
95.72987975754387
 40
0.8
 50
180
 51
270
  0
ARC
  8
_0-0_
  6
CONTINUOUS
 62
    7
 10
164.97074406645777
 20
95.929879757544143
 40
1
 50
180
 51
255.52248800000001
  0
ARC
  8
_0-0_
  6
CONTINUOUS
 62
    7
 10
164.97074406645777
 20
107.92987975754414
 40
1
 50
104.477512
 51
180
  0
ARC
  8
_0-0_
  6
CONTINUOUS
 62
    7
 10
27.337334040969267
 20
92.142379757544234
 40
3.3125
 50
238.10920800000002
 51
301.89079199999998
  0
ARC
  8
_0-0_
  6
CONTINUOUS
 62
    7
 10
30.837334040969267
 20
92.142379757544234
 40
3.3125
 50
238.10920800000002
 51
301.89079199999998
  0
ARC
  8
_0-0_
  6
CONTINUOUS
 62
    7
 10
29.087334040969267
 20
184.31480775754409
 40
68.866982999999991
 50
264.58408500000002
 51
275.41591499999998
  0
ARC
  8
_0-0_
  6
CONTINUOUS
 62
    7
 10
44.881273040969404
 20
85.929879757544143
 40
4
 50
270
 51
344.29924599999993
  0
ARC
  8
_0-0_
  6
CONTINUOUS
 62
    7
 10
44.881273040969404
 20
117.92987975754414
 40
4
 50
15.700754000000002
 51
90
  0
ARC
  8
_0-0_
  6
CONTINUOUS
 62
    7
 10
-12.037665959030733
 20
101.92987975754414
 40
63.125
 50
344.29924599999993
 51
15.700754000000027
  0
ARC
  8
_0-0_
  6
CONTINUOUS
 62
    7
 10
13.293395040969131
 20
85.929879757544143
 40
4
 50
195.70075399999996
 51
270
  0
ARC
  8
_0-0_
  6
CONTINUOUS
 62
    7
 10
13.293395040969131
 20
117.92987975754414
 40
4
 50
90
 51
164.29924599999981
  0
ARC
  8
_0-0_
  6
CONTINUOUS
 62
    7
 10
70.212334040969267
 20
101.92987975754414
 40
63.125
 50
164.29924599999981
 51
195.70075399999993
  0
ARC
  8
_0-0_
  6
CONTINUOUS
 62
    7
 10
29.087334040969267
 20
50.929879757544143
 40
70
 50
96.449128000000002
 51
97.180756000000017
  0
ARC
  8
_0-0_
  6
CONTINUOUS
 62
    7
 10
18.587334040969267
 20
121.42987975754414
 40
0.5
 50
0
 51
90
  0
ARC
  8
_0-0_
  6
CONTINUOUS
 62
    7
 10
20.637334040969449
 20
108.12987975754396
 40
0.8
 50
112.02431299999989
 51
157.97568699999991
  0
ARC
  8
_0-0_
  6
CONTINUOUS
 62
    7
 10
18.837334040969267
 20
107.92987975754414
 40
1
 50
29.999999999999996
 51
75.522487999999981
  0
ARC
  8
_0-0_
  6
CONTINUOUS
 62
    7
 10
120.37207104096922
 20
102.48779575754435
 40
100
 50
169.37263200000001
 51
169.47203999999999
  0
ARC
  8
_0-0_
  6
CONTINUOUS
 62
    7
 10
22.587334040969267
 20
116.25526175754413
 40
0.5
 50
180
 51
270
  0
ARC
  8
_0-0_
  6
CONTINUOUS
 62
    7
 10
22.587334040969267
 20
117.16855675754397
 40
0.5
 50
90
 51
180
  0
ARC
  8
_0-0_
  6
CONTINUOUS
 62
    7
 10
22.087334040969267
 20
119.25966575754438
 40
1.5
 50
90
 51
180
  0
ARC
  8
_0-0_
  6
CONTINUOUS
 62
    7
 10
23.277142040969352
 20
120.58817375754398
 40
3
 50
206.28496100000001
 51
256.70669399999991
  0
ARC
  8
_0-0_
  6
CONTINUOUS
 62
    7
 10
23.277142040969352
 20
118.67487875754415
 40
3
 50
206.28496100000001
 51
256.70669399999991
  0
ARC
  8
_0-0_
  6
CONTINUOUS
 62
    7
 10
20.637334040969449
 20
95.72987975754387
 40
0.8
 50
180
 51
270
  0
ARC
  8
_0-0_
  6
CONTINUOUS
 62
    7
 10
18.837334040969267
 20
95.929879757544143
 40
1
 50
284.47751199999982
 51
0.0000000000000763
  0
ARC
  8
_0-0_
  6
CONTINUOUS
 62
    7
 10
-62.197402959030796
 20
102.48779575754435
 40
100
 50
10.52796
 51
10.62736799999999
  0
ARC
  8
_0-0_
  6
CONTINUOUS
 62
    7
 10
36.087334040969267
 20
119.25966575754438
 40
1.5
 50
0
 51
90
  0
ARC
  8
_0-0_
  6
CONTINUOUS
 62
    7
 10
35.587334040969267
 20
117.16855675754397
 40
0.5
 50
0
 51
90
  0
ARC
  8
_0-0_
  6
CONTINUOUS
 62
    7
 10
35.587334040969267
 20
116.25526175754413
 40
0.5
 50
270
 51
0
  0
ARC
  8
_0-0_
  6
CONTINUOUS
 62
    7
 10
34.897526040969183
 20
120.58817375754398
 40
3
 50
283.29330599999992
 51
333.71503899999999
  0
ARC
  8
_0-0_
  6
CONTINUOUS
 62
    7
 10
34.897526040969183
 20
118.67487875754415
 40
3
 50
283.29330599999992
 51
333.71503899999999
  0
ARC
  8
_0-0_
  6
CONTINUOUS
 62
    7
 10
29.087334040969267
 20
50.929879757544143
 40
70
 50
82.819243999999983
 51
83.550872000000012
  0
ARC
  8
_0-0_
  6
CONTINUOUS
 62
    7
 10
39.587334040969267
 20
121.42987975754414
 40
0.5
 50
90
 51
180
  0
ARC
  8
_0-0_
  6
CONTINUOUS
 62
    7
 10
37.537334040969085
 20
108.12987975754396
 40
0.8
 50
22.024312999999999
 51
67.975686999999994
  0
ARC
  8
_0-0_
  6
CONTINUOUS
 62
    7
 10
39.337334040969267
 20
107.92987975754414
 40
1
 50
104.477512
 51
149.99999999999997
  0
ARC
  8
_0-0_
  6
CONTINUOUS
 62
    7
 10
37.537334040969085
 20
95.72987975754387
 40
0.8
 50
270
 51
0
  0
ARC
  8
_0-0_
  6
CONTINUOUS
 62
    7
 10
39.337334040969267
 20
95.929879757544143
 40
1
 50
180
 51
255.52248800000001
  0
ARC
  8
_0-0_
  6
CONTINUOUS
 62
    7
 10
18.587334040969267
 20
82.429879757544143
 40
0.5
 50
270
 51
0
  0
ARC
  8
_0-0_
  6
CONTINUOUS
 62
    7
 10
39.587334040969267
 20
82.429879757544143
 40
0.5
 50
180
 51
270
  0
ARC
  8
_0-0_
  6
CONTINUOUS
 62
    7
 10
113.19868943804465
 20
97.279879757544052
 40
2
 50
270
 51
356.66097300000001
  0
ARC
  8
_0-0_
  6
CONTINUOUS
 62
    7
 10
113.3243534380448
 20
120.42987975754414
 40
0.5
 50
10.095961000000001
 51
90
  0
ARC
  8
_0-0_
  6
CONTINUOUS
 62
    7
 10
65.649793438045322
 20
116.67704675754413
 40
1
 50
82.528778000000003
 51
192.00004699999991
  0
ARC
  8
_0-0_
  6
CONTINUOUS
 62
    7
 10
65.067019438044895
 20
116.05196775754422
 40
0.2999999999999998
 50
192
 51
261.501644
  0
ARC
  8
_0-0_
  6
CONTINUOUS
 62
    7
 10
82.347277438045126
 20
119.88704475754395
 40
1
 50
13.076968999999998
 51
119.23528499999998
  0
ARC
  8
_0-0_
  6
CONTINUOUS
 62
    7
 10
76.806581438044645
 20
112.01638975754423
 40
5
 50
155.21915899999993
 51
218.64467599999989
  0
ARC
  8
_0-0_
  6
CONTINUOUS
 62
    7
 10
71.359075438045124
 20
114.53128075754404
 40
1
 50
335.21915899999999
 51
94.347825999999984
  0
ARC
  8
_0-0_
  6
CONTINUOUS
 62
    7
 10
69.160554438044869
 20
143.4478247575442
 40
28
 50
261.50098100000002
 51
289.70642999999978
  0
ARC
  8
_0-0_
  6
CONTINUOUS
 62
    7
 10
69.160554438044869
 20
143.4478247575442
 40
26
 50
262.52877799999987
 51
299.23528499999998
  0
ARC
  8
_0-0_
  6
CONTINUOUS
 62
    7
 10
96.401037438045364
 20
126.47424075754435
 40
6
 50
288.58567299999999
 51
292.47293999999999
  0
ARC
  8
_0-0_
  6
CONTINUOUS
 62
    7
 10
101.95698243804497
 20
123.17987975754414
 40
4
 50
145.7711339999999
 51
214.22886600000001
  0
ARC
  8
_0-0_
  6
CONTINUOUS
 62
    7
 10
106.09239443804506
 20
123.17987975754414
 40
4
 50
145.7711339999999
 51
214.22886600000001
  0
CIRCLE
  8
_0-0_
  6
CONTINUOUS
 62
    7
 10
91.649793438045322
 20
101.92987975754414
 40
12.5
  0
ARC
  8
_0-0_
  6
CONTINUOUS
 62
    7
 10
15.365056438045372
 20
102.98779575754435
 40
100
 50
356.66097300000001
 51
10.095960999999983
  0
ARC
  8
_0-0_
  6
CONTINUOUS
 62
    7
 10
111.34260443804521
 20
123.17987975754414
 40
4
 50
325.7711339999999
 51
34.228865999999975
  0
ARC
  8
_0-0_
  6
CONTINUOUS
 62
    7
 10
107.20719243804513
 20
123.17987975754414
 40
4
 50
325.7711339999999
 51
33.167649999999966
  0
CIRCLE
  8
_0-0_
  6
CONTINUOUS
 62
    7
 10
91.649793438045322
 20
101.92987975754414
 40
20
  0
LINE
  8
_0-0_
  6
CONTINUOUS
 62
    7
 10
104.14979343804532
 20
49.194035945156429
 11
79.149793438045322
 21
49.194035945156429
  0
LINE
  8
_0-0_
  6
CONTINUOUS
 62
    7
 10
78.649793438045322
 20
38.444035945156429
 11
78.649793438045322
 21
37.194035945156429
  0
LINE
  8
_0-0_
  6
CONTINUOUS
 62
    7
 10
76.649793438044867
 20
37.194035945156429
 11
76.649793438044867
 21
38.444035945156429
  0
LINE
  8
_0-0_
  6
CONTINUOUS
 62
    7
 10
72.149793438044867
 20
38.444035945156429
 11
111.14979343804532
 21
38.444035945156429
  0
LINE
  8
_0-0_
  6
CONTINUOUS
 62
    7
 10
111.64979343804487
 20
38.944035945156429
 11
111.64979343804487
 21
44.237974945156566
  0
LINE
  8
_0-0_
  6
CONTINUOUS
 62
    7
 10
110.10076543804496
 20
37.194035945156429
 11
73.198821438044774
 21
37.194035945156429
  0
LINE
  8
_0-0_
  6
CONTINUOUS
 62
    7
 10
73.167781427380191
 20
36.944036353971569
 11
73.167781427380191
 21
19.694035945156429
  0
LINE
  8
_0-0_
  6
CONTINUOUS
 62
    7
 10
73.198821438044774
 20
19.694035945156429
 11
110.10076543804496
 21
19.694035945156429
  0
LINE
  8
_0-0_
  6
CONTINUOUS
 62
    7
 10
111.14979343804532
 20
18.444035945156429
 11
72.149793438044867
 21
18.444035945156429
  0
LINE
  8
_0-0_
  6
CONTINUOUS
 62
    7
 10
71.649793438045322
 20
17.944035945156429
 11
71.649793438045322
 21
12.650096945156747
  0
LINE
  8
_0-0_
  6
CONTINUOUS
 62
    7
 10
73.167781427380191
 20
19.944035945156429
 11
67.649793438045322
 21
19.944035945156429
  0
LINE
  8
_0-0_
  6
CONTINUOUS
 62
    7
 10
64.649793438045322
 20
22.944035945156429
 11
64.649793438045322
 21
33.944035945156429
  0
LINE
  8
_0-0_
  6
CONTINUOUS
 62
    7
 10
67.649793438045322
 20
36.944035945156429
 11
73.167781427380191
 21
36.944035945156429
  0
LINE
  8
_0-0_
  6
CONTINUOUS
 62
    7
 10
71.649793438045322
 20
38.944035945156429
 11
71.649793438045322
 21
44.237974945156566
  0
LINE
  8
_0-0_
  6
CONTINUOUS
 62
    7
 10
82.649793438045322
 20
38.444035945156429
 11
82.649793438045322
 21
37.194035945156429
  0
LINE
  8
_0-0_
  6
CONTINUOUS
 62
    7
 10
85.449793438045049
 20
37.694035945156429
 11
97.84979343804514
 21
37.694035945156429
  0
LINE
  8
_0-0_
  6
CONTINUOUS
 62
    7
 10
106.14979343804532
 20
33.418973130689665
 11
106.14979343804532
 21
32.15536081056166
  0
LINE
  8
_0-0_
  6
CONTINUOUS
 62
    7
 10
106.64979343804532
 20
32.444035945156429
 11
103.18569182290719
 21
30.444035945156429
  0
LINE
  8
_0-0_
  6
CONTINUOUS
 62
    7
 10
103.18569182290719
 20
30.444035945156429
 11
103.18569182290719
 21
26.444035945156429
  0
LINE
  8
_0-0_
  6
CONTINUOUS
 62
    7
 10
103.18569182290719
 20
26.444035945156429
 11
106.64979343804532
 21
24.444035945156429
  0
LINE
  8
_0-0_
  6
CONTINUOUS
 62
    7
 10
106.64979343804532
 20
24.444035945156429
 11
110.113895053183
 21
26.444035945156429
  0
LINE
  8
_0-0_
  6
CONTINUOUS
 62
    7
 10
110.113895053183
 20
26.444035945156429
 11
110.113895053183
 21
30.444035945156429
  0
LINE
  8
_0-0_
  6
CONTINUOUS
 62
    7
 10
110.113895053183
 20
30.444035945156429
 11
106.64979343804532
 21
32.444035945156429
  0
LINE
  8
_0-0_
  6
CONTINUOUS
 62
    7
 10
107.14979343804532
 20
32.15536081056166
 11
107.14979343804532
 21
33.418973130689665
  0
LINE
  8
_0-0_
  6
CONTINUOUS
 62
    7
 10
76.649793438044867
 20
19.694035945156429
 11
76.649793438044867
 21
18.444035945156429
  0
LINE
  8
_0-0_
  6
CONTINUOUS
 62
    7
 10
78.649793438045322
 20
18.444035945156429
 11
78.649793438045322
 21
19.694035945156429
  0
LINE
  8
_0-0_
  6
CONTINUOUS
 62
    7
 10
82.649793438045322
 20
19.694035945156429
 11
82.649793438045322
 21
18.444035945156429
  0
LINE
  8
_0-0_
  6
CONTINUOUS
 62
    7
 10
85.449793438045049
 20
19.194035945156429
 11
97.84979343804514
 21
19.194035945156429
  0
LINE
  8
_0-0_
  6
CONTINUOUS
 62
    7
 10
111.64979343804487
 20
17.944035945156429
 11
111.64979343804487
 21
12.650096945156747
  0
LINE
  8
_0-0_
  6
CONTINUOUS
 62
    7
 10
104.14979343804532
 20
7.6940359451564291
 11
79.149793438045322
 21
7.6940359451564291
  0
ARC
  8
_0-0_
  6
CONTINUOUS
 62
    7
 10
107.64979343804532
 20
12.650096945156747
 40
4
 50
285.70075400000002
 51
0
  0
ARC
  8
_0-0_
  6
CONTINUOUS
 62
    7
 10
75.649793438044867
 20
12.650096945156747
 40
4
 50
180
 51
254.29924599999987
  0
ARC
  8
_0-0_
  6
CONTINUOUS
 62
    7
 10
91.649793438045322
 20
69.569035945156429
 40
63.125
 50
254.29924599999993
 51
285.70075400000007
  0
ARC
  8
_0-0_
  6
CONTINUOUS
 62
    7
 10
107.64979343804532
 20
44.237974945156566
 40
4
 50
0
 51
74.299245999999982
  0
ARC
  8
_0-0_
  6
CONTINUOUS
 62
    7
 10
75.649793438044867
 20
44.237974945156566
 40
4
 50
105.700754
 51
180
  0
ARC
  8
_0-0_
  6
CONTINUOUS
 62
    7
 10
91.649793438045322
 20
-12.680964054843571
 40
63.125
 50
74.299245999999982
 51
105.70075399999998
  0
ARC
  8
_0-0_
  6
CONTINUOUS
 62
    7
 10
67.649793438045322
 20
33.944035945156429
 40
3
 50
90
 51
180
  0
ARC
  8
_0-0_
  6
CONTINUOUS
 62
    7
 10
142.64979343804532
 20
28.444035945156429
 40
70
 50
172.81924399999991
 51
173.02544299999994
  0
ARC
  8
_0-0_
  6
CONTINUOUS
 62
    7
 10
72.149793438044867
 20
38.944035945156429
 40
0.5
 50
180
 51
270
  0
ARC
  8
_0-0_
  6
CONTINUOUS
 62
    7
 10
85.449793438045049
 20
36.894035945156702
 40
0.8
 50
90
 51
157.97568699999991
  0
ARC
  8
_0-0_
  6
CONTINUOUS
 62
    7
 10
85.649793438044867
 20
38.694035945156429
 40
1
 50
194.47751199999993
 51
270
  0
ARC
  8
_0-0_
  6
CONTINUOUS
 62
    7
 10
97.84979343804514
 20
36.894035945156702
 40
0.8
 50
22.024312999999999
 51
89.999999999999986
  0
ARC
  8
_0-0_
  6
CONTINUOUS
 62
    7
 10
97.649793438045322
 20
38.694035945156429
 40
1
 50
270
 51
345.52248800000001
  0
ARC
  8
_0-0_
  6
CONTINUOUS
 62
    7
 10
111.14979343804532
 20
38.944035945156429
 40
0.5
 50
270
 51
0
  0
ARC
  8
_0-0_
  6
CONTINUOUS
 62
    7
 10
40.649793438045322
 20
28.444035945156429
 40
70
 50
6.3253339999999989
 51
7.1807559999999961
  0
ARC
  8
_0-0_
  6
CONTINUOUS
 62
    7
 10
67.649793438045322
 20
22.944035945156429
 40
3
 50
180
 51
270
  0
ARC
  8
_0-0_
  6
CONTINUOUS
 62
    7
 10
142.64979343804532
 20
28.444035945156429
 40
70
 50
186.974557
 51
187.180756
  0
ARC
  8
_0-0_
  6
CONTINUOUS
 62
    7
 10
72.149793438044867
 20
17.944035945156429
 40
0.5
 50
90
 51
180
  0
ARC
  8
_0-0_
  6
CONTINUOUS
 62
    7
 10
85.649793438044867
 20
18.194035945156429
 40
1
 50
90
 51
165.52248799999978
  0
ARC
  8
_0-0_
  6
CONTINUOUS
 62
    7
 10
85.449793438045049
 20
19.994035945156611
 40
0.8
 50
202.02431299999989
 51
270
  0
ARC
  8
_0-0_
  6
CONTINUOUS
 62
    7
 10
97.649793438045322
 20
18.194035945156429
 40
1
 50
14.47751199999999
 51
89.999999999999986
  0
ARC
  8
_0-0_
  6
CONTINUOUS
 62
    7
 10
97.84979343804514
 20
19.994035945156611
 40
0.8
 50
270
 51
337.97568699999999
  0
ARC
  8
_0-0_
  6
CONTINUOUS
 62
    7
 10
40.649793438045322
 20
28.444035945156429
 40
70
 50
352.81924400000008
 51
353.67466599999989
  0
ARC
  8
_0-0_
  6
CONTINUOUS
 62
    7
 10
111.14979343804532
 20
17.944035945156429
 40
0.5
 50
0
 51
90
  0
ARC
  8
_0-0_
  6
CONTINUOUS
 62
    7
 10
106.64979343804532
 20
28.444035945156429
 40
8.7096669121037849
 50
294.02871609886586
 51
65.971283901134115
  0
ARC
  8
_0-0_
  6
CONTINUOUS
 62
    7
 10
106.64979343804532
 20
28.444035945156429
 40
5
 50
95.739170477266796
 51
84.260829522733218
  0
LINE
  8
_0-1_
  6
CENTER1
 62
    7
 10
182.05845306645767
 20
101.92987975754414
 11
127.38303606645775
 21
101.92987975754414
  0
LINE
  8
_0-1_
  6
CENTER1
 62
    7
 10
120.3594604380454
 20
101.92987975754414
 11
66.649793438045322
 21
101.92987975754414
  0
LINE
  8
_0-1_
  6
CENTER1
 62
    7
 10
69.539544438045027
 20
99.893817757544014
 11
70.027112438045037
 21
99.945062757544122
  0
LINE
  8
_0-1_
  6
CENTER1
 62
    7
 10
56.425042040969288
 20
101.92987975754414
 11
1.7496260409692468
 21
101.92987975754414
  0
LINE
  8
_0-1_
  6
CENTER1
 62
    7
 10
29.087334040969267
 20
83.829879757544234
 11
29.087334040969267
 21
142.42987975754414
  0
LINE
  8
_0-1_
  6
CENTER1
 62
    7
 10
67.883436438044896
 20
118.82441075754406
 11
68.391333438045308
 21
118.87779275754411
  0
LINE
  8
_0-1_
  6
CENTER1
 62
    7
 10
78.322057438045135
 20
118.20714675754408
 11
79.146369438044871
 21
117.53963275754387
  0
LINE
  8
_0-1_
  6
CENTER1
 62
    7
 10
106.64979343804532
 20
81.929879757544143
 11
106.64979343804532
 21
142.42987975754414
  0
LINE
  8
_0-1_
  6
CENTER1
 62
    7
 10
154.72074406645777
 20
142.42987975754414
 11
154.72074406645777
 21
83.829879757544234
  0
LINE
  8
_0-1_
  6
CENTER1
 62
    7
 10
106.64979343804532
 20
152.57921465723422
 11
106.64979343804532
 21
203.08468365723439
  0
LINE
  8
_0-1_
  6
CENTER1
 62
    7
 10
60.040398438044917
 20
177.83194965723425
 11
120.34279343804508
 21
177.83194965723425
  0
LINE
  8
_0-1_
  6
CENTER1
 62
    7
 10
91.649793438045322
 20
150.49424065723434
 11
91.649793438045322
 21
205.16965765723427
  0
ARC
  8
_0-1_
  6
CENTER1
 62
    7
 10
70.322051438044923
 20
115.86397775754432
 40
0.5
 50
197.74402399999991
 51
327.113966
  0
ARC
  8
_0-1_
  6
CENTER1
 62
    7
 10
67.987964438044742
 20
117.8298887575441
 40
1
 50
96
 51
203.23528499999998
  0
ARC
  8
_0-1_
  6
CENTER1
 62
    7
 10
68.422691438045035
 20
118.57943675754387
 40
0.2999999999999998
 50
24.305247999999999
 51
96
  0
ARC
  8
_0-1_
  6
CENTER1
 62
    7
 10
76.20031743804509
 20
112.06318975754385
 40
6.5
 50
70.948273999999984
 51
147.113966
  0
ARC
  8
_0-1_
  6
CENTER1
 62
    7
 10
69.435015438044843
 20
100.88833975754397
 40
1
 50
166.5287789999999
 51
276.00000000000006
  0
ARC
  8
_0-1_
  6
CENTER1
 62
    7
 10
69.99575443804531
 20
100.24341975754425
 40
0.2999999999999998
 50
276
 51
345.50164400000011
  0
ARC
  8
_0-1_
  6
CENTER1
 62
    7
 10
43.177865438045387
 20
107.1781757575439
 40
28
 50
345.501644
 51
24.305247999999921
  0
ARC
  8
_0-1_
  6
CENTER1
 62
    7
 10
43.177865438045387
 20
107.1781757575439
 40
26
 50
346.52877899999993
 51
23.235284999999941
  0
ARC
  8
_0-1_
  6
CENTER1
 62
    7
 10
72.165809438044903
 20
106.34205175754397
 40
1
 50
77.107280000000003
 51
178.347826
  0
LINE
  8
_0-1_
  6
CENTER1
 62
    7
 10
91.649793438045322
 20
126.92987975754414
 11
91.649793438045322
 21
79.373970938381945
  0
LINE
  8
_0-1_
  6
CENTER1
 62
    7
 10
120.34279343804508
 20
28.444035945156429
 11
60.040398438044917
 21
28.444035945156429
  0
LINE
  8
_0-1_
  6
CENTER1
 62
    7
 10
91.649793438045322
 20
53.334429563945378
 11
91.649793438045322
 21
1.1063269451565247
  0
LINE
  8
_0-1_
  6
CENTER1
 62
    7
 10
106.64979343804532
 20
21.70902381309503
 11
106.64979343804532
 21
35.52005128240944
  0
LINE
  8
_0-1_
  6
CONTINUOUS
 62
  152
 10
25.763834040968845
 20
126.60161175754394
 11
25.763834040968845
 21
136.9063797575439
  0
LINE
  8
_0-1_
  6
CONTINUOUS
 62
  152
 10
33.087334040969267
 20
125.42987975754414
 11
32.410834040969235
 21
126.60161175754394
  0
LINE
  8
_0-1_
  6
CONTINUOUS
 62
  152
 10
32.410834040969235
 20
126.60161175754394
 11
32.410834040969235
 21
136.9063797575439
  0
LINE
  8
_0-1_
  6
CONTINUOUS
 62
  152
 10
33.087334040969267
 20
136.22987975754387
 11
25.087334040969267
 21
136.22987975754387
  0
LINE
  8
_0-1_
  6
CONTINUOUS
 62
  152
 10
25.087334040969267
 20
125.42987975754414
 11
25.763834040968845
 21
126.60161175754394
  0
LINE
  8
_0-1_
  6
CONTINUOUS
 62
  152
 10
102.64979343804532
 20
136.22987975754387
 11
110.64979343804487
 21
136.22987975754387
  0
LINE
  8
_0-1_
  6
CONTINUOUS
 62
  152
 10
109.97329343804483
 20
136.9063797575439
 11
109.97329343804483
 21
126.60161175754394
  0
LINE
  8
_0-1_
  6
CONTINUOUS
 62
  152
 10
109.97329343804483
 20
126.60161175754394
 11
110.64979343804487
 21
125.42987975754414
  0
LINE
  8
_0-1_
  6
CONTINUOUS
 62
  152
 10
102.64979343804532
 20
125.42987975754414
 11
103.3262934380449
 21
126.60161175754394
  0
LINE
  8
_0-1_
  6
CONTINUOUS
 62
  152
 10
103.3262934380449
 20
126.60161175754394
 11
103.3262934380449
 21
136.9063797575439
  0
LINE
  8
_0-1_
  6
CONTINUOUS
 62
  152
 10
102.64979343804532
 20
126.60161175754394
 11
110.64979343804487
 21
126.60161175754394
  0
LINE
  8
_0-1_
  6
CONTINUOUS
 62
  152
 10
151.3972440664578
 20
126.60161175754394
 11
150.72074406645777
 21
125.42987975754414
  0
LINE
  8
_0-1_
  6
CONTINUOUS
 62
  152
 10
150.72074406645777
 20
126.60161175754394
 11
158.72074406645777
 21
126.60161175754394
  0
LINE
  8
_0-1_
  6
CONTINUOUS
 62
  152
 10
158.04424406645774
 20
126.60161175754394
 11
158.72074406645777
 21
125.42987975754414
  0
LINE
  8
_0-1_
  6
CONTINUOUS
 62
  152
 10
25.087334040969267
 20
126.60161175754394
 11
33.087334040969267
 21
126.60161175754394
  0
LINE
  8
_0-1_
  6
CONTINUOUS
 62
  152
 10
158.04424406645774
 20
136.9063797575439
 11
158.04424406645774
 21
126.60161175754394
  0
LINE
  8
_0-1_
  6
CONTINUOUS
 62
  152
 10
151.3972440664578
 20
136.9063797575439
 11
151.3972440664578
 21
126.60161175754394
  0
LINE
  8
_0-1_
  6
CONTINUOUS
 62
  152
 10
150.72074406645777
 20
136.22987975754387
 11
158.72074406645777
 21
136.22987975754387
  0
CIRCLE
  8
_0-1_
  6
CONTINUOUS
 62
  152
 10
106.64979343804532
 20
177.83194965723425
 40
2.799999999999998
  0
ENDSEC
  0
EOF
