  0
SECTION
  2
HEADER
  9
$ACADVER
  1
AC1009
  9
$INSBASE
 10
0
 20
0
 30
0
  9
$EXTMIN
 10
0
 20
0
  9
$EXTMAX
 10
1189
 20
841
  9
$LIMMIN
 10
0
 20
0
  9
$LIMMAX
 10
1189
 20
841
  9
$LTSCALE
 40
1
  0
ENDSEC
  0
SECTION
  2
TABLES
  0
TABLE
  2
LTYPE
 70
     9
  0
LTYPE
  2
CONTINUOUS
 70
    64
  3
実線
 72
    65
 73
     0
 40
0.0
  0
LTYPE
  2
DASHED1
 70
    64
  3
--  --  --  --  --  --  --  --  
 72
    65
 73
     2
 40
2.5
 49
1.25
 49
-1.25
  0
LTYPE
  2
DASHED2
 70
    64
  3
----    ----    ----    ----    
 72
    65
 73
     2
 40
5.0
 49
2.5
 49
-2.5
  0
LTYPE
  2
DASHED3
 70
    64
  3
------  ------  ------  ------  
 72
    65
 73
     2
 40
5.0
 49
3.75
 49
-1.25
  0
LTYPE
  2
CENTER1
 70
    64
  3
----- - ----- - ----- - ----- - 
 72
    65
 73
     4
 40
10.0
 49
6.25
 49
-1.25
 49
1.25
 49
-1.25
  0
LTYPE
  2
CENTER2
 70
    64
  3
----------  --  ----------  --  
 72
    65
 73
     4
 40
20.0
 49
12.5
 49
-2.5
 49
2.5
 49
-2.5
  0
LTYPE
  2
PHANTOM1
 70
    64
  3
--- - - --- - - --- - - --- - - 
 72
    65
 73
     6
 40
10.0
 49
3.25
 49
-1.25
 49
1.25
 49
-1.25
 49
1.25
 49
-1.25
  0
LTYPE
  2
PHANTOM2
 70
    64
  3
--------  -  -  --------  -  -  
 72
    65
 73
     6
 40
20.0
 49
10.0
 49
-2.5
 49
1.25
 49
-2.5
 49
1.25
 49
-2.5
  0
LTYPE
  2
DOT
 70
    64
  3
-   -   -   -   -   -   -   -   
 72
    65
 73
     2
 40
2.5
 49
0.625
 49
-1.875
  0
LTYPE
  2
DUMMY
 70
    64
  3
ダミー
 72
    65
 73
     0
 40
0.0
  0
LTYPE
  2
RAND1
 70
    64
  3
ランダム線1
 72
    65
 73
     4
 40
10.0
 49
1.0
 49
-2.0
 49
3.0
 49
-4.0
  0
LTYPE
  2
RAND2
 70
    64
  3
ランダム線2
 72
    65
 73
     4
 40
14.0
 49
2.0
 49
-3.0
 49
4.0
 49
-5.0
  0
LTYPE
  2
RAND3
 70
    64
  3
ランダム線3
 72
    65
 73
     4
 40
18.0
 49
3.0
 49
-4.0
 49
5.0
 49
-6.0
  0
LTYPE
  2
RAND4
 70
    64
  3
ランダム線4
 72
    65
 73
     4
 40
22.0
 49
4.0
 49
-5.0
 49
6.0
 49
-7.0
  0
LTYPE
  2
RAND5
 70
    64
  3
ランダム線5
 72
    65
 73
     4
 40
26.0
 49
5.0
 49
-6.0
 49
7.0
 49
-8.0
  0
LTYPE
  2
LONG1
 70
    64
  3
----------  --  ----------  --  
 72
    65
 73
     4
 40
40.0
 49
32.5
 49
-2.5
 49
2.5
 49
-2.5
  0
LTYPE
  2
LONG2
 70
    64
  3
--------  -  -  --------  -  -  
 72
    65
 73
     6
 40
40.0
 49
30.0
 49
-2.5
 49
1.25
 49
-2.5
 49
1.25
 49
-2.5
  0
LTYPE
  2
LONG3
 70
    64
  3
+++++++++++++++..+++++++++++++++
 72
    65
 73
     2
 40
40.0
 49
37.5
 49
-2.5
  0
LTYPE
  2
LONG4
 70
    64
  3
+++++++++++++++..+++++++++++++++
 72
    65
 73
     2
 40
80.0
 49
75.0
 49
-5.0
  0
LTYPE
  2
LONG5
 70
    64
  3
----------  --  ----------  --  
 72
    65
 73
     4
 40
60.0
 49
37.5
 49
-7.5
 49
7.5
 49
-7.5
  0
LTYPE
  2
dashed
 70
   64
  3
-------   -------------   ------
 72
   65
 73
    2
 40
7.5
 49
6
 49
-1.5
  0
LTYPE
  2
dashed_spaced
 70
   64
  3
----        --------        ----
 72
   65
 73
    2
 40
12
 49
6
 49
-6
  0
LTYPE
  2
long_dashed_dotted
 70
   64
  3
------------- --- --------------
 72
   65
 73
    4
 40
15.25
 49
12
 49
-1.5
 49
0.25
 49
-1.5
  0
LTYPE
  2
long_dashed_double-dotted
 70
   64
  3
----------- --- --- ------------
 72
   65
 73
    6
 40
17
 49
12
 49
-1.5
 49
0.25
 49
-1.5
 49
0.25
 49
-1.5
  0
LTYPE
  2
long_dashed_triplicate-dotted
 70
   64
  3
--------- --- --- --- ----------
 72
   65
 73
    8
 40
18.75
 49
12
 49
-1.5
 49
0.25
 49
-1.5
 49
0.25
 49
-1.5
 49
0.25
 49
-1.5
  0
LTYPE
  2
dotted
 70
   64
  3
   -       -       -       -    
 72
   65
 73
    2
 40
1.75
 49
0.25
 49
-1.5
  0
LTYPE
  2
chain
 70
   64
  3
-------------- -- --------------
 72
   65
 73
    4
 40
18.5
 49
12
 49
-1.5
 49
3.5
 49
-1.5
  0
LTYPE
  2
chain_double_dash
 70
   64
  3
------------ -- -- -------------
 72
   65
 73
    6
 40
23.5
 49
12
 49
-1.5
 49
3.5
 49
-1.5
 49
3.5
 49
-1.5
  0
LTYPE
  2
dashed_dotted
 70
   64
  3
-----------     -     ----------
 72
   65
 73
    4
 40
9.25
 49
6
 49
-1.5
 49
0.25
 49
-1.5
  0
LTYPE
  2
double-dashed_dotted
 70
   64
  3
------   -----------   -   -----
 72
   65
 73
    6
 40
16.75
 49
6
 49
-1.5
 49
6
 49
-1.5
 49
0.25
 49
-1.5
  0
LTYPE
  2
dashed_double-dotted
 70
   64
  3
---------    -    -    ---------
 72
   65
 73
    6
 40
11
 49
6
 49
-1.5
 49
0.25
 49
-1.5
 49
0.25
 49
-1.5
  0
LTYPE
  2
double-dashed_double-dotted
 70
   64
  3
-----   ---------   -   -   ----
 72
   65
 73
    8
 40
18.5
 49
6
 49
-1.5
 49
6
 49
-1.5
 49
0.25
 49
-1.5
 49
0.25
 49
-1.5
  0
LTYPE
  2
dashed_triplicate-dotted
 70
   64
  3
-------    -    -    -    ------
 72
   65
 73
    8
 40
12.75
 49
6
 49
-1.5
 49
0.25
 49
-1.5
 49
0.25
 49
-1.5
 49
0.25
 49
-1.5
  0
LTYPE
  2
double-dashed_triplicate-dotted
 70
   64
  3
-----  ---------  -  -  -  -----
 72
   65
 73
   10
 40
20.25
 49
6
 49
-1.5
 49
6
 49
-1.5
 49
0.25
 49
-1.5
 49
0.25
 49
-1.5
 49
0.25
 49
-1.5
  0
LTYPE
  2
undefined
 70
   64
  3
--------------------------------
 72
   65
 73
    0
 40
0
  0
ENDTAB
  0
TABLE
  2
STYLE
  5
3
100
AcDbSymbolTable
 70
     1
  0
STYLE
  5
10
100
AcDbSymbolTableRecord
100
AcDbTextStyleTableRecord
  2
STANDARD
 70
     0
 40
0.0
 41
1.0
 50
0.0
 71
     0
 42
0.2
  3
txt
  4
bigfont.shx
  0
STYLE
  5
26
100
AcDbSymbolTableRecord
100
AcDbTextStyleTableRecord
  2
TATEGAKI
 70
    68
 40
0.0
 41
1.0
 50
0.0
 71
     0
 42
1.0
  3
txt
  4
bigfont.shx
  0
ENDTAB
  0
TABLE
  2
LAYER
 70
    4
  0
LAYER
  2
_0-0_
 70
   64
 62
    7
  6
CONTINUOUS
  0
LAYER
  2
_0-1_
 70
   64
 62
    7
  6
CONTINUOUS
  0
LAYER
  2
_0-f_
 70
   64
 62
    7
  6
CONTINUOUS
  0
LAYER
  2
ADD_LINE
 70
   64
 62
    7
  6
CONTINUOUS
  0
ENDTAB
  0
ENDSEC
  0
SECTION
  2
BLOCKS
  0
ENDSEC
  0
SECTION
  2
ENTITIES
  0
TEXT
  8
_0-f_
 62
    7
 10
0.6008838209623945
 20
0.9541926469075292
 40
4.2999999999999998
 41
0.744186046511628
 50
0
  1
CA40M10
  0
LINE
  8
_0-0_
  6
CONTINUOUS
 62
    7
 10
97.444370780767372
 20
116.25730432066837
 11
113.44437078076737
 21
116.25730432066837
  0
LINE
  8
_0-0_
  6
CONTINUOUS
 62
    7
 10
108.94437078076737
 20
135.25730432066837
 11
110.44437078076737
 21
133.75730432066837
  0
LINE
  8
_0-0_
  6
CONTINUOUS
 62
    7
 10
100.44437078076737
 20
133.75730432066837
 11
101.94437078076737
 21
135.25730432066837
  0
LINE
  8
_0-0_
  6
CONTINUOUS
 62
    7
 10
101.94437078076737
 20
135.25730432066837
 11
108.94437078076737
 21
135.25730432066837
  0
LINE
  8
_0-0_
  6
CONTINUOUS
 62
    7
 10
110.44437078076737
 20
133.75730432066837
 11
110.44437078076737
 21
116.25730432066837
  0
LINE
  8
_0-0_
  6
CONTINUOUS
 62
    7
 10
100.44437078076737
 20
116.25730432066837
 11
100.44437078076737
 21
133.75730432066837
  0
LINE
  8
_0-0_
  6
CONTINUOUS
 62
    7
 10
97.444370780767372
 20
111.75730432066837
 11
113.44437178076726
 21
111.75730432066837
  0
LINE
  8
_0-0_
  6
CONTINUOUS
 62
    7
 10
9.2318108536061345
 20
105.25730432066837
 11
9.2318108536061345
 21
80.257304320668368
  0
LINE
  8
_0-0_
  6
CONTINUOUS
 62
    7
 10
14.187871853605998
 20
72.757304320668368
 11
19.481810853606135
 21
72.757304320668368
  0
LINE
  8
_0-0_
  6
CONTINUOUS
 62
    7
 10
19.981810853606135
 20
73.257304320668368
 11
19.981810853606135
 21
112.25730432066837
  0
LINE
  8
_0-0_
  6
CONTINUOUS
 62
    7
 10
19.481810853606135
 20
112.75730432066837
 11
14.187871853605998
 21
112.75730432066837
  0
LINE
  8
_0-0_
  6
CONTINUOUS
 62
    7
 10
21.231810853606135
 20
111.20827632066846
 11
21.231810853606135
 21
85.815684320668311
  0
LINE
  8
_0-0_
  6
CONTINUOUS
 62
    7
 10
21.531810853605407
 20
85.757304320668368
 11
38.431810853605953
 21
85.757304320668368
  0
LINE
  8
_0-0_
  6
CONTINUOUS
 62
    7
 10
38.731810853606135
 20
85.815684320668311
 11
38.731810853606135
 21
111.20827632066846
  0
LINE
  8
_0-0_
  6
CONTINUOUS
 62
    7
 10
38.481810853606135
 20
110.08709032066861
 11
38.481810853606135
 21
97.257304320668368
  0
LINE
  8
_0-0_
  6
CONTINUOUS
 62
    7
 10
38.481810853606135
 20
97.257304320668368
 11
35.631810853605771
 21
97.257304320668368
  0
LINE
  8
_0-0_
  6
CONTINUOUS
 62
    7
 10
35.631810853605771
 20
96.757304320668368
 11
35.631810853605771
 21
106.58268632066836
  0
LINE
  8
_0-0_
  6
CONTINUOUS
 62
    7
 10
36.481810853606135
 20
106.58268632066836
 11
23.481810853606135
 21
106.58268632066836
  0
LINE
  8
_0-0_
  6
CONTINUOUS
 62
    7
 10
24.331810853605589
 20
106.58268632066836
 11
24.331810853605589
 21
96.757304320668368
  0
LINE
  8
_0-0_
  6
CONTINUOUS
 62
    7
 10
24.331810853605589
 20
96.757304320668368
 11
21.231810853606135
 21
96.757304320668368
  0
LINE
  8
_0-0_
  6
CONTINUOUS
 62
    7
 10
21.231810853606135
 20
96.457304320668186
 11
19.981810853606135
 21
96.457304320668186
  0
LINE
  8
_0-0_
  6
CONTINUOUS
 62
    7
 10
19.981810853606135
 20
95.257304320668368
 11
21.231810853606135
 21
95.257304320668368
  0
LINE
  8
_0-0_
  6
CONTINUOUS
 62
    7
 10
20.731810853606135
 20
95.257304320668368
 11
20.731810853606135
 21
86.55730432066855
  0
LINE
  8
_0-0_
  6
CONTINUOUS
 62
    7
 10
24.756810853605771
 20
84.657304320668459
 11
24.756810853605771
 21
83.657304320668459
  0
LINE
  8
_0-0_
  6
CONTINUOUS
 62
    7
 10
24.756810853605771
 20
83.657304320668459
 11
35.206810853606044
 21
83.657304320668459
  0
LINE
  8
_0-0_
  6
CONTINUOUS
 62
    7
 10
35.206810853606044
 20
83.657304320668459
 11
35.206810853606044
 21
84.657304320668459
  0
LINE
  8
_0-0_
  6
CONTINUOUS
 62
    7
 10
35.206810853606044
 20
84.657304320668459
 11
24.756810853605771
 21
84.657304320668459
  0
LINE
  8
_0-0_
  6
CONTINUOUS
 62
    7
 10
26.981810853606135
 20
84.657304320668459
 11
26.981810853606135
 21
85.757304320668368
  0
LINE
  8
_0-0_
  6
CONTINUOUS
 62
    7
 10
26.481810853606135
 20
83.657304320668459
 11
26.481810853606135
 21
79.657304320668459
  0
LINE
  8
_0-0_
  6
CONTINUOUS
 62
    7
 10
26.481810853606135
 20
79.657304320668459
 11
33.481810853606135
 21
79.657304320668459
  0
LINE
  8
_0-0_
  6
CONTINUOUS
 62
    7
 10
33.481810853606135
 20
79.657304320668459
 11
33.481810853606135
 21
83.657304320668459
  0
LINE
  8
_0-0_
  6
CONTINUOUS
 62
    7
 10
32.981810853606135
 20
84.657304320668459
 11
32.981810853606135
 21
85.757304320668368
  0
LINE
  8
_0-0_
  6
CONTINUOUS
 62
    7
 10
29.981810853606135
 20
83.657304320668459
 11
29.981810853606135
 21
80.157304320668459
  0
LINE
  8
_0-0_
  6
CONTINUOUS
 62
    7
 10
33.481810853606135
 20
135.25730432066837
 11
34.981810853606135
 21
133.75730432066837
  0
LINE
  8
_0-0_
  6
CONTINUOUS
 62
    7
 10
24.981810853606135
 20
133.75730432066837
 11
24.981810853606135
 21
116.25730432066837
  0
LINE
  8
_0-0_
  6
CONTINUOUS
 62
    7
 10
26.481810853606135
 20
135.25730432066837
 11
33.481810853606135
 21
135.25730432066837
  0
LINE
  8
_0-0_
  6
CONTINUOUS
 62
    7
 10
34.981810853606135
 20
116.25730432066837
 11
34.981810853606135
 21
133.75730432066837
  0
LINE
  8
_0-0_
  6
CONTINUOUS
 62
    7
 10
26.481810853606135
 20
135.25730432066837
 11
24.981810853606135
 21
133.75730432066837
  0
LINE
  8
_0-0_
  6
CONTINUOUS
 62
    7
 10
36.981810853606135
 20
116.25730432066837
 11
36.981810853606135
 21
111.75730432066837
  0
LINE
  8
_0-0_
  6
CONTINUOUS
 62
    7
 10
36.981810853606135
 20
111.75730432066837
 11
22.981810853606135
 21
111.75730432066837
  0
LINE
  8
_0-0_
  6
CONTINUOUS
 62
    7
 10
22.981810853606135
 20
111.75730432066837
 11
22.981810853606135
 21
116.25730432066837
  0
LINE
  8
_0-0_
  6
CONTINUOUS
 62
    7
 10
22.981810853606135
 20
116.25730432066837
 11
36.981810853606135
 21
116.25730432066837
  0
LINE
  8
_0-0_
  6
CONTINUOUS
 62
    7
 10
36.981810853606135
 20
111.58709032066861
 11
22.981810853606135
 21
111.58709032066861
  0
LINE
  8
_0-0_
  6
CONTINUOUS
 62
    7
 10
21.481810853606135
 20
110.08709032066861
 11
21.481810853606135
 21
97.257304320668368
  0
LINE
  8
_0-0_
  6
CONTINUOUS
 62
    7
 10
21.481810853606135
 20
97.257304320668368
 11
24.331810853605589
 21
97.257304320668368
  0
LINE
  8
_0-0_
  6
CONTINUOUS
 62
    7
 10
24.331810853605589
 20
99.757304320668368
 11
35.631810853605771
 21
99.757304320668368
  0
LINE
  8
_0-0_
  6
CONTINUOUS
 62
    7
 10
35.631810853605771
 20
96.757304320668368
 11
38.731810853606135
 21
96.757304320668368
  0
LINE
  8
_0-0_
  6
CONTINUOUS
 62
    7
 10
38.731810853606135
 20
96.457304320668186
 11
39.981810853606135
 21
96.457304320668186
  0
LINE
  8
_0-0_
  6
CONTINUOUS
 62
    7
 10
39.981810853606135
 20
95.257304320668368
 11
38.731810853606135
 21
95.257304320668368
  0
LINE
  8
_0-0_
  6
CONTINUOUS
 62
    7
 10
39.231810853606135
 20
95.257304320668368
 11
39.231810853606135
 21
86.55730432066855
  0
LINE
  8
_0-0_
  6
CONTINUOUS
 62
    7
 10
38.731810853606135
 20
99.257304320668368
 11
39.981810853606135
 21
99.257304320668368
  0
LINE
  8
_0-0_
  6
CONTINUOUS
 62
    7
 10
35.631810853605771
 20
104.75730432066837
 11
24.331810853605589
 21
104.75730432066837
  0
LINE
  8
_0-0_
  6
CONTINUOUS
 62
    7
 10
22.981810853606135
 20
107.08268632066836
 11
22.981810853606135
 21
107.99598132066865
  0
LINE
  8
_0-0_
  6
CONTINUOUS
 62
    7
 10
23.481810853606135
 20
108.49598132066819
 11
36.481810853606135
 21
108.49598132066819
  0
LINE
  8
_0-0_
  6
CONTINUOUS
 62
    7
 10
36.981810853606135
 20
107.99598132066865
 11
36.981810853606135
 21
107.08268632066836
  0
LINE
  8
_0-0_
  6
CONTINUOUS
 62
    7
 10
39.981810853606135
 20
112.25730432066837
 11
39.981810853606135
 21
73.257304320668368
  0
LINE
  8
_0-0_
  6
CONTINUOUS
 62
    7
 10
40.481810853606135
 20
72.757304320668368
 11
45.775749853606271
 21
72.757304320668368
  0
LINE
  8
_0-0_
  6
CONTINUOUS
 62
    7
 10
50.731810853606135
 20
80.257304320668368
 11
50.731810853606135
 21
105.25730432066837
  0
LINE
  8
_0-0_
  6
CONTINUOUS
 62
    7
 10
45.775749853606271
 20
112.75730432066837
 11
40.481810853606135
 21
112.75730432066837
  0
LINE
  8
_0-0_
  6
CONTINUOUS
 62
    7
 10
63.466223780767564
 20
107.29655932066851
 11
63.568152780767491
 21
106.81701832066835
  0
LINE
  8
_0-0_
  6
CONTINUOUS
 62
    7
 10
77.944370780767372
 20
149.15703017025305
 11
102.94437078076737
 21
149.15703017025305
  0
LINE
  8
_0-0_
  6
CONTINUOUS
 62
    7
 10
110.44437078076737
 20
154.11309117025291
 11
110.44437078076737
 21
159.40703017025305
  0
LINE
  8
_0-0_
  6
CONTINUOUS
 62
    7
 10
109.94437078076737
 20
159.90703017025305
 11
70.944370780767372
 21
159.90703017025305
  0
LINE
  8
_0-0_
  6
CONTINUOUS
 62
    7
 10
70.444370780767372
 20
159.40703017025305
 11
70.444370780767372
 21
154.11309117025291
  0
LINE
  8
_0-0_
  6
CONTINUOUS
 62
    7
 10
71.993398780767279
 20
161.15703017025305
 11
108.89534278076746
 21
161.15703017025305
  0
LINE
  8
_0-0_
  6
CONTINUOUS
 62
    7
 10
110.59881078076762
 20
162.90703017025305
 11
100.28993078076712
 21
162.90703017025305
  0
LINE
  8
_0-0_
  6
CONTINUOUS
 62
    7
 10
96.444370780767372
 20
160.65703017025305
 11
84.244370780767554
 21
160.65703017025305
  0
LINE
  8
_0-0_
  6
CONTINUOUS
 62
    7
 10
81.444370780767372
 20
161.15703017025305
 11
81.444370780767372
 21
159.90703017025305
  0
LINE
  8
_0-0_
  6
CONTINUOUS
 62
    7
 10
79.594934780767403
 20
161.40703017025305
 11
66.444370780767372
 21
161.40703017025305
  0
LINE
  8
_0-0_
  6
CONTINUOUS
 62
    7
 10
63.444370780767372
 20
164.40703017025305
 11
63.444370780767372
 21
175.40703017025305
  0
LINE
  8
_0-0_
  6
CONTINUOUS
 62
    7
 10
66.444370780767372
 20
178.40703017025305
 11
79.594934780767403
 21
178.40703017025305
  0
LINE
  8
_0-0_
  6
CONTINUOUS
 62
    7
 10
81.444370780767372
 20
178.65703017025305
 11
81.444370780767372
 21
179.90703017025305
  0
LINE
  8
_0-0_
  6
CONTINUOUS
 62
    7
 10
84.244370780767554
 20
179.15703017025305
 11
96.444370780767372
 21
179.15703017025305
  0
LINE
  8
_0-0_
  6
CONTINUOUS
 62
    7
 10
100.28993078076712
 20
176.90703017025305
 11
110.59881078076762
 21
176.90703017025305
  0
LINE
  8
_0-0_
  6
CONTINUOUS
 62
    7
 10
108.89534278076746
 20
178.65703017025305
 11
71.993398780767279
 21
178.65703017025305
  0
LINE
  8
_0-0_
  6
CONTINUOUS
 62
    7
 10
70.944370780767372
 20
179.90703017025305
 11
109.94437078076737
 21
179.90703017025305
  0
LINE
  8
_0-0_
  6
CONTINUOUS
 62
    7
 10
110.44437078076737
 20
180.40703017025305
 11
110.44437078076737
 21
185.70096917025319
  0
LINE
  8
_0-0_
  6
CONTINUOUS
 62
    7
 10
102.94437078076737
 20
190.65703017025305
 11
77.944370780767372
 21
190.65703017025305
  0
LINE
  8
_0-0_
  6
CONTINUOUS
 62
    7
 10
77.444370780767372
 20
179.90703017025305
 11
77.444370780767372
 21
178.65703017025305
  0
LINE
  8
_0-0_
  6
CONTINUOUS
 62
    7
 10
75.444370780767372
 20
178.65703017025305
 11
75.444370780767372
 21
179.90703017025305
  0
LINE
  8
_0-0_
  6
CONTINUOUS
 62
    7
 10
70.444370780767372
 20
180.40703017025305
 11
70.444370780767372
 21
185.70096917025319
  0
LINE
  8
_0-0_
  6
CONTINUOUS
 62
    7
 10
81.022210780767296
 20
175.40703017025305
 11
81.022210780767296
 21
164.40703017025305
  0
LINE
  8
_0-0_
  6
CONTINUOUS
 62
    7
 10
82.594934780766948
 20
164.40703017025305
 11
82.594934780766948
 21
175.40703017025305
  0
LINE
  8
_0-0_
  6
CONTINUOUS
 62
    7
 10
77.444370780767372
 20
161.15703017025305
 11
77.444370780767372
 21
159.90703017025305
  0
LINE
  8
_0-0_
  6
CONTINUOUS
 62
    7
 10
75.444370780767372
 20
159.90703017025305
 11
75.444370780767372
 21
161.15703017025305
  0
LINE
  8
_0-0_
  6
CONTINUOUS
 62
    7
 10
153.08216304522887
 20
80.157304320668459
 11
153.08216304522887
 21
83.657304320668459
  0
LINE
  8
_0-0_
  6
CONTINUOUS
 62
    7
 10
153.83216304522841
 20
83.657304320668459
 11
153.83216304522841
 21
84.657304320668459
  0
LINE
  8
_0-0_
  6
CONTINUOUS
 62
    7
 10
153.83216304522841
 20
84.657304320668459
 11
158.30716304522832
 21
84.657304320668459
  0
LINE
  8
_0-0_
  6
CONTINUOUS
 62
    7
 10
158.30716304522832
 20
84.657304320668459
 11
158.30716304522832
 21
83.657304320668459
  0
LINE
  8
_0-0_
  6
CONTINUOUS
 62
    7
 10
158.30716304522832
 20
83.657304320668459
 11
147.8571630452285
 21
83.657304320668459
  0
LINE
  8
_0-0_
  6
CONTINUOUS
 62
    7
 10
147.8571630452285
 20
83.657304320668459
 11
147.8571630452285
 21
84.657304320668459
  0
LINE
  8
_0-0_
  6
CONTINUOUS
 62
    7
 10
147.8571630452285
 20
84.657304320668459
 11
152.33216304522841
 21
84.657304320668459
  0
LINE
  8
_0-0_
  6
CONTINUOUS
 62
    7
 10
152.33216304522841
 20
84.657304320668459
 11
152.33216304522841
 21
83.657304320668459
  0
LINE
  8
_0-0_
  6
CONTINUOUS
 62
    7
 10
149.58216304522841
 20
83.657304320668459
 11
149.58216304522841
 21
79.657304320668459
  0
LINE
  8
_0-0_
  6
CONTINUOUS
 62
    7
 10
149.58216304522841
 20
79.657304320668459
 11
156.58216304522841
 21
79.657304320668459
  0
LINE
  8
_0-0_
  6
CONTINUOUS
 62
    7
 10
156.58216304522841
 20
79.657304320668459
 11
156.58216304522841
 21
83.657304320668459
  0
LINE
  8
_0-0_
  6
CONTINUOUS
 62
    7
 10
156.08216304522841
 20
84.657304320668459
 11
156.08216304522841
 21
86.107304320668277
  0
LINE
  8
_0-0_
  6
CONTINUOUS
 62
    7
 10
156.08216304522841
 20
85.757304320668368
 11
161.53216304522869
 21
85.757304320668368
  0
LINE
  8
_0-0_
  6
CONTINUOUS
 62
    7
 10
161.83216304522887
 20
85.815684320668311
 11
161.83216304522887
 21
111.20827632066846
  0
LINE
  8
_0-0_
  6
CONTINUOUS
 62
    7
 10
163.08216304522887
 20
112.25730432066837
 11
163.08216304522887
 21
73.257304320668368
  0
LINE
  8
_0-0_
  6
CONTINUOUS
 62
    7
 10
163.58216304522887
 20
72.757304320668368
 11
168.79298104522888
 21
72.757304320668368
  0
LINE
  8
_0-0_
  6
CONTINUOUS
 62
    7
 10
173.83216304522841
 20
80.465565320668588
 11
173.83216304522841
 21
105.04904332066815
  0
LINE
  8
_0-0_
  6
CONTINUOUS
 62
    7
 10
168.79298104522888
 20
112.75730432066837
 11
163.58216304522887
 21
112.75730432066837
  0
LINE
  8
_0-0_
  6
CONTINUOUS
 62
    7
 10
160.08216304522841
 20
111.75730432066837
 11
160.08216304522841
 21
116.25730432066837
  0
LINE
  8
_0-0_
  6
CONTINUOUS
 62
    7
 10
160.08216304522841
 20
116.25730432066837
 11
146.08216304522841
 21
116.25730432066837
  0
LINE
  8
_0-0_
  6
CONTINUOUS
 62
    7
 10
146.08216304522841
 20
116.25730432066837
 11
146.08216304522841
 21
111.75730432066837
  0
LINE
  8
_0-0_
  6
CONTINUOUS
 62
    7
 10
146.08216304522841
 20
111.75730432066837
 11
160.08216304522841
 21
111.75730432066837
  0
LINE
  8
_0-0_
  6
CONTINUOUS
 62
    7
 10
158.08216304522841
 20
116.25730432066837
 11
158.08216304522841
 21
133.75730432066837
  0
LINE
  8
_0-0_
  6
CONTINUOUS
 62
    7
 10
158.08216304522841
 20
133.75730432066837
 11
156.58216304522841
 21
135.25730432066837
  0
LINE
  8
_0-0_
  6
CONTINUOUS
 62
    7
 10
156.58216304522841
 20
135.25730432066837
 11
149.58216304522841
 21
135.25730432066837
  0
LINE
  8
_0-0_
  6
CONTINUOUS
 62
    7
 10
149.58216304522841
 20
135.25730432066837
 11
148.08216304522841
 21
133.75730432066837
  0
LINE
  8
_0-0_
  6
CONTINUOUS
 62
    7
 10
148.08216304522841
 20
116.25730432066837
 11
148.08216304522841
 21
133.75730432066837
  0
LINE
  8
_0-0_
  6
CONTINUOUS
 62
    7
 10
144.33216304522887
 20
111.20827632066846
 11
144.33216304522887
 21
85.815684320668311
  0
LINE
  8
_0-0_
  6
CONTINUOUS
 62
    7
 10
144.63216304522814
 20
85.757304320668368
 11
150.08216304522841
 21
85.757304320668368
  0
LINE
  8
_0-0_
  6
CONTINUOUS
 62
    7
 10
150.08216304522841
 20
86.107304320668277
 11
150.08216304522841
 21
84.657304320668459
  0
LINE
  8
_0-0_
  6
CONTINUOUS
 62
    7
 10
145.59608104522852
 20
86.107304320668277
 11
160.56824604522865
 21
86.107304320668277
  0
LINE
  8
_0-0_
  6
CONTINUOUS
 62
    7
 10
162.33216304522841
 20
86.55730432066855
 11
162.33216304522841
 21
98.957304320668641
  0
LINE
  8
_0-0_
  6
CONTINUOUS
 62
    7
 10
162.27378304522847
 20
99.257304320668368
 11
162.4661380452286
 21
99.257304320668368
  0
LINE
  8
_0-0_
  6
CONTINUOUS
 62
    7
 10
143.89054404522869
 20
99.257304320668368
 11
143.69818904522856
 21
99.257304320668368
  0
LINE
  8
_0-0_
  6
CONTINUOUS
 62
    7
 10
143.83216304522841
 20
98.957304320668641
 11
143.83216304522841
 21
86.55730432066855
  0
LINE
  8
_0-0_
  6
CONTINUOUS
 62
    7
 10
143.08216304522887
 20
73.257304320668368
 11
143.08216304522887
 21
112.25730432066837
  0
LINE
  8
_0-0_
  6
CONTINUOUS
 62
    7
 10
142.58216304522887
 20
112.75730432066837
 11
137.37134604522873
 21
112.75730432066837
  0
LINE
  8
_0-0_
  6
CONTINUOUS
 62
    7
 10
132.33216304522887
 20
105.04904332066815
 11
132.33216304522887
 21
80.465565320668588
  0
LINE
  8
_0-0_
  6
CONTINUOUS
 62
    7
 10
137.37134604522873
 20
72.757304320668368
 11
142.58216304522887
 21
72.757304320668368
  0
LINE
  8
_0-0_
  6
CONTINUOUS
 62
    7
 10
111.99326678076761
 20
86.107304320668277
 11
109.30643678076751
 21
86.107304320668277
  0
LINE
  8
_0-0_
  6
CONTINUOUS
 62
    7
 10
21.231810853606135
 20
99.257304320668368
 11
19.981810853606135
 21
99.257304320668368
  0
CIRCLE
  8
_0-0_
  6
CONTINUOUS
 62
    7
 10
105.44437078076737
 20
169.90703017025305
 40
4.1879999999999979
  0
CIRCLE
  8
_0-0_
  6
CONTINUOUS
 62
    7
 10
105.44437078076737
 20
169.90703017025305
 40
5
  0
ARC
  8
_0-0_
  6
CONTINUOUS
 62
    7
 10
106.44437078076737
 20
154.11309117025291
 40
4
 50
285.70075400000002
 51
0
  0
ARC
  8
_0-0_
  6
CONTINUOUS
 62
    7
 10
74.444370780767372
 20
154.11309117025291
 40
4
 50
180
 51
254.29924599999987
  0
ARC
  8
_0-0_
  6
CONTINUOUS
 62
    7
 10
90.444370780767372
 20
211.03203017025305
 40
63.125
 50
254.29924599999993
 51
285.70075400000007
  0
ARC
  8
_0-0_
  6
CONTINUOUS
 62
    7
 10
106.44437078076737
 20
185.70096917025319
 40
4
 50
0
 51
74.299245999999982
  0
ARC
  8
_0-0_
  6
CONTINUOUS
 62
    7
 10
74.444370780767372
 20
185.70096917025319
 40
4
 50
105.700754
 51
180
  0
ARC
  8
_0-0_
  6
CONTINUOUS
 62
    7
 10
90.444370780767372
 20
128.78203017025305
 40
63.125
 50
74.299245999999982
 51
105.70075399999998
  0
ARC
  8
_0-0_
  6
CONTINUOUS
 62
    7
 10
66.444370780767372
 20
175.40703017025305
 40
3
 50
90
 51
180
  0
ARC
  8
_0-0_
  6
CONTINUOUS
 62
    7
 10
141.44437078076737
 20
169.90703017025305
 40
70
 50
172.81924399999991
 51
173.02544299999994
  0
ARC
  8
_0-0_
  6
CONTINUOUS
 62
    7
 10
78.022210780767296
 20
175.40703017025305
 40
3
 50
0
 51
90
  0
ARC
  8
_0-0_
  6
CONTINUOUS
 62
    7
 10
70.944370780767372
 20
180.40703017025305
 40
0.5
 50
180
 51
270
  0
ARC
  8
_0-0_
  6
CONTINUOUS
 62
    7
 10
84.244370780767554
 20
178.35703017025287
 40
0.8
 50
90
 51
157.97568699999991
  0
ARC
  8
_0-0_
  6
CONTINUOUS
 62
    7
 10
84.444370780767372
 20
180.15703017025305
 40
1
 50
194.47751199999993
 51
270
  0
ARC
  8
_0-0_
  6
CONTINUOUS
 62
    7
 10
96.64437078076719
 20
178.35703017025287
 40
0.8
 50
22.024312999999999
 51
89.999999999999986
  0
ARC
  8
_0-0_
  6
CONTINUOUS
 62
    7
 10
96.444370780767372
 20
180.15703017025305
 40
1
 50
270
 51
345.52248800000001
  0
ARC
  8
_0-0_
  6
CONTINUOUS
 62
    7
 10
79.594934780767403
 20
175.40703017025305
 40
3
 50
0
 51
90
  0
ARC
  8
_0-0_
  6
CONTINUOUS
 62
    7
 10
109.94437078076737
 20
180.40703017025305
 40
0.5
 50
270
 51
0
  0
ARC
  8
_0-0_
  6
CONTINUOUS
 62
    7
 10
105.44437078076737
 20
169.90703017025305
 40
8.5
 50
55.439678000000008
 51
65.136711999999989
  0
ARC
  8
_0-0_
  6
CONTINUOUS
 62
    7
 10
39.444370780767372
 20
169.90703017025305
 40
70
 50
6.3253339999999989
 51
7.1807559999999961
  0
ARC
  8
_0-0_
  6
CONTINUOUS
 62
    7
 10
66.444370780767372
 20
164.40703017025305
 40
3
 50
180
 51
270
  0
ARC
  8
_0-0_
  6
CONTINUOUS
 62
    7
 10
141.44437078076737
 20
169.90703017025305
 40
70
 50
186.974557
 51
187.180756
  0
ARC
  8
_0-0_
  6
CONTINUOUS
 62
    7
 10
78.022210780767296
 20
164.40703017025305
 40
3
 50
270
 51
0
  0
ARC
  8
_0-0_
  6
CONTINUOUS
 62
    7
 10
70.944370780767372
 20
159.40703017025305
 40
0.5
 50
90
 51
180
  0
ARC
  8
_0-0_
  6
CONTINUOUS
 62
    7
 10
84.444370780767372
 20
159.65703017025305
 40
1
 50
90
 51
165.52248799999978
  0
ARC
  8
_0-0_
  6
CONTINUOUS
 62
    7
 10
84.244370780767554
 20
161.45703017025323
 40
0.8
 50
202.02431299999989
 51
270
  0
ARC
  8
_0-0_
  6
CONTINUOUS
 62
    7
 10
96.444370780767372
 20
159.65703017025305
 40
1
 50
14.47751199999999
 51
89.999999999999986
  0
ARC
  8
_0-0_
  6
CONTINUOUS
 62
    7
 10
96.64437078076719
 20
161.45703017025323
 40
0.8
 50
270
 51
337.97568699999999
  0
ARC
  8
_0-0_
  6
CONTINUOUS
 62
    7
 10
79.594934780767403
 20
164.40703017025305
 40
3
 50
270
 51
0
  0
ARC
  8
_0-0_
  6
CONTINUOUS
 62
    7
 10
39.444370780767372
 20
169.90703017025305
 40
70
 50
352.81924400000008
 51
353.67466599999989
  0
ARC
  8
_0-0_
  6
CONTINUOUS
 62
    7
 10
105.44437078076737
 20
169.90703017025305
 40
8.5
 50
294.86328800000001
 51
304.56032199999993
  0
ARC
  8
_0-0_
  6
CONTINUOUS
 62
    7
 10
109.94437078076737
 20
159.40703017025305
 40
0.5
 50
0
 51
90
  0
ARC
  8
_0-0_
  6
CONTINUOUS
 62
    7
 10
105.44437078076737
 20
169.90703017025305
 40
8
 50
298.95502399999987
 51
61.044975999999949
  0
ARC
  8
_0-0_
  6
CONTINUOUS
 62
    7
 10
105.44437078076737
 20
169.90703017025305
 40
8.6929999999999978
 50
306.36601899999999
 51
53.633980999999999
  0
ARC
  8
_0-0_
  6
CONTINUOUS
 62
    7
 10
105.44437078076737
 20
169.90703017025305
 40
8.6929999999999978
 50
126.36601899999981
 51
233.63398100000001
  0
ARC
  8
_0-0_
  6
CONTINUOUS
 62
    7
 10
105.44437078076737
 20
169.90703017025305
 40
8
 50
118.9550239999999
 51
241.04497599999999
  0
ARC
  8
_0-0_
  6
CONTINUOUS
 62
    7
 10
160.56824604522865
 20
87.107304320668277
 40
1
 50
270
 51
356.01786099999993
  0
ARC
  8
_0-0_
  6
CONTINUOUS
 62
    7
 10
145.59608104522852
 20
87.107304320668277
 40
1
 50
183.9821389999999
 51
270
  0
ARC
  8
_0-0_
  6
CONTINUOUS
 62
    7
 10
168.79298104522888
 20
108.75730432066837
 40
4
 50
16.284548000000001
 51
90
  0
ARC
  8
_0-0_
  6
CONTINUOUS
 62
    7
 10
168.79298104522888
 20
76.757304320668368
 40
4
 50
270
 51
343.71545200000003
  0
ARC
  8
_0-0_
  6
CONTINUOUS
 62
    7
 10
114.0224210452285
 20
92.757304320668368
 40
61.059742000000007
 50
343.71545200000003
 51
16.284547999999972
  0
ARC
  8
_0-0_
  6
CONTINUOUS
 62
    7
 10
137.37134604522873
 20
108.75730432066837
 40
4
 50
90
 51
163.71545199999991
  0
ARC
  8
_0-0_
  6
CONTINUOUS
 62
    7
 10
137.37134604522873
 20
76.757304320668368
 40
4
 50
196.2845479999998
 51
270
  0
ARC
  8
_0-0_
  6
CONTINUOUS
 62
    7
 10
192.14190604522867
 20
92.757304320668368
 40
61.059742000000007
 50
163.71545199999991
 51
196.28454799999986
  0
ARC
  8
_0-0_
  6
CONTINUOUS
 62
    7
 10
163.58216304522887
 20
112.25730432066837
 40
0.5
 50
90
 51
180
  0
ARC
  8
_0-0_
  6
CONTINUOUS
 62
    7
 10
163.58216304522887
 20
73.257304320668368
 40
0.5
 50
180
 51
270
  0
ARC
  8
_0-0_
  6
CONTINUOUS
 62
    7
 10
142.58216304522887
 20
112.25730432066837
 40
0.5
 50
0
 51
90
  0
ARC
  8
_0-0_
  6
CONTINUOUS
 62
    7
 10
142.58216304522887
 20
73.257304320668368
 40
0.5
 50
270
 51
0
  0
ARC
  8
_0-0_
  6
CONTINUOUS
 62
    7
 10
151.33216304522887
 20
82.969804320668459
 40
3.3125
 50
238.10920800000002
 51
301.89079199999998
  0
ARC
  8
_0-0_
  6
CONTINUOUS
 62
    7
 10
154.83216304522887
 20
82.969804320668459
 40
3.3125
 50
238.10920800000002
 51
301.89079199999998
  0
ARC
  8
_0-0_
  6
CONTINUOUS
 62
    7
 10
153.08216304522887
 20
41.757304320668823
 40
70
 50
95.795007999999996
 51
97.180756000000017
  0
ARC
  8
_0-0_
  6
CONTINUOUS
 62
    7
 10
65.879039045228296
 20
93.698956320668344
 40
95.918363999999997
 50
356.01786099999998
 51
10.85171700000004
  0
ARC
  8
_0-0_
  6
CONTINUOUS
 62
    7
 10
240.28528804522887
 20
93.698956320668344
 40
95.918363999999997
 50
169.14828299999991
 51
183.9821389999999
  0
ARC
  8
_0-0_
  6
CONTINUOUS
 62
    7
 10
153.08216304522887
 20
41.757304320668823
 40
70
 50
82.819243999999983
 51
84.204992000000004
  0
ARC
  8
_0-0_
  6
CONTINUOUS
 62
    7
 10
161.53216304522869
 20
86.55730432066855
 40
0.8
 50
270
 51
0
  0
ARC
  8
_0-0_
  6
CONTINUOUS
 62
    7
 10
161.53216304522869
 20
98.957304320668641
 40
0.8
 50
0
 51
67.975686999999994
  0
ARC
  8
_0-0_
  6
CONTINUOUS
 62
    7
 10
144.63216304522814
 20
98.957304320668641
 40
0.8
 50
112.02431299999989
 51
180
  0
ARC
  8
_0-0_
  6
CONTINUOUS
 62
    7
 10
142.83216304522887
 20
98.757304320668368
 40
1
 50
0
 51
75.522487999999981
  0
ARC
  8
_0-0_
  6
CONTINUOUS
 62
    7
 10
142.83216304522887
 20
86.757304320668368
 40
1
 50
284.47751199999982
 51
0.0000000000000763
  0
ARC
  8
_0-0_
  6
CONTINUOUS
 62
    7
 10
144.63216304522814
 20
86.55730432066855
 40
0.8
 50
180
 51
270
  0
ARC
  8
_0-0_
  6
CONTINUOUS
 62
    7
 10
163.33216304522887
 20
86.757304320668368
 40
1
 50
180
 51
255.52248800000001
  0
ARC
  8
_0-0_
  6
CONTINUOUS
 62
    7
 10
163.33216304522887
 20
98.757304320668368
 40
1
 50
104.477512
 51
180
  0
ARC
  8
_0-0_
  6
CONTINUOUS
 62
    7
 10
24.171618853606219
 20
109.50230332066837
 40
3
 50
206.28496100000001
 51
256.70669399999991
  0
ARC
  8
_0-0_
  6
CONTINUOUS
 62
    7
 10
28.231810853606135
 20
82.969804320668459
 40
3.3125
 50
238.10920800000002
 51
301.89079199999998
  0
ARC
  8
_0-0_
  6
CONTINUOUS
 62
    7
 10
31.731810853606135
 20
82.969804320668459
 40
3.3125
 50
238.10920800000002
 51
301.89079199999998
  0
ARC
  8
_0-0_
  6
CONTINUOUS
 62
    7
 10
29.981810853606135
 20
175.14223232066831
 40
68.866982999999991
 50
264.58408500000002
 51
275.41591499999998
  0
ARC
  8
_0-0_
  6
CONTINUOUS
 62
    7
 10
45.775749853606271
 20
76.757304320668368
 40
4
 50
270
 51
344.29924599999993
  0
ARC
  8
_0-0_
  6
CONTINUOUS
 62
    7
 10
45.775749853606271
 20
108.75730432066837
 40
4
 50
15.700754000000002
 51
90
  0
ARC
  8
_0-0_
  6
CONTINUOUS
 62
    7
 10
-11.143189146393865
 20
92.757304320668368
 40
63.125
 50
344.29924599999993
 51
15.700754000000027
  0
ARC
  8
_0-0_
  6
CONTINUOUS
 62
    7
 10
14.187871853605998
 20
76.757304320668368
 40
4
 50
195.70075399999996
 51
270
  0
ARC
  8
_0-0_
  6
CONTINUOUS
 62
    7
 10
14.187871853605998
 20
108.75730432066837
 40
4
 50
90
 51
164.29924599999981
  0
ARC
  8
_0-0_
  6
CONTINUOUS
 62
    7
 10
71.106810853606135
 20
92.757304320668368
 40
63.125
 50
164.29924599999981
 51
195.70075399999993
  0
ARC
  8
_0-0_
  6
CONTINUOUS
 62
    7
 10
29.981810853606135
 20
41.757304320668823
 40
70
 50
96.449128000000002
 51
97.180756000000017
  0
ARC
  8
_0-0_
  6
CONTINUOUS
 62
    7
 10
19.481810853606135
 20
112.25730432066837
 40
0.5
 50
0
 51
90
  0
ARC
  8
_0-0_
  6
CONTINUOUS
 62
    7
 10
21.531810853605407
 20
98.957304320668641
 40
0.8
 50
112.02431299999989
 51
157.97568699999991
  0
ARC
  8
_0-0_
  6
CONTINUOUS
 62
    7
 10
19.731810853606135
 20
98.757304320668368
 40
1
 50
29.999999999999996
 51
75.522487999999981
  0
ARC
  8
_0-0_
  6
CONTINUOUS
 62
    7
 10
121.26654785360608
 20
93.315220320668118
 40
100
 50
169.37263200000001
 51
169.47203999999999
  0
ARC
  8
_0-0_
  6
CONTINUOUS
 62
    7
 10
23.481810853606135
 20
107.08268632066836
 40
0.5
 50
180
 51
270
  0
ARC
  8
_0-0_
  6
CONTINUOUS
 62
    7
 10
23.481810853606135
 20
107.99598132066865
 40
0.5
 50
90
 51
180
  0
ARC
  8
_0-0_
  6
CONTINUOUS
 62
    7
 10
22.981810853606135
 20
110.08709032066861
 40
1.5
 50
90
 51
180
  0
ARC
  8
_0-0_
  6
CONTINUOUS
 62
    7
 10
24.171618853606219
 20
111.41559832066821
 40
3
 50
206.28496100000001
 51
256.70669399999991
  0
ARC
  8
_0-0_
  6
CONTINUOUS
 62
    7
 10
21.531810853605407
 20
86.55730432066855
 40
0.8
 50
180
 51
270
  0
ARC
  8
_0-0_
  6
CONTINUOUS
 62
    7
 10
19.731810853606135
 20
86.757304320668368
 40
1
 50
284.47751199999982
 51
0.0000000000000763
  0
ARC
  8
_0-0_
  6
CONTINUOUS
 62
    7
 10
-61.302926146393816
 20
93.315220320668118
 40
100
 50
10.52796
 51
10.62736799999999
  0
ARC
  8
_0-0_
  6
CONTINUOUS
 62
    7
 10
36.981810853606135
 20
110.08709032066861
 40
1.5
 50
0
 51
90
  0
ARC
  8
_0-0_
  6
CONTINUOUS
 62
    7
 10
36.481810853606135
 20
107.99598132066865
 40
0.5
 50
0
 51
90
  0
ARC
  8
_0-0_
  6
CONTINUOUS
 62
    7
 10
36.481810853606135
 20
107.08268632066836
 40
0.5
 50
270
 51
0
  0
ARC
  8
_0-0_
  6
CONTINUOUS
 62
    7
 10
35.79200285360605
 20
111.41559832066821
 40
3
 50
283.29330599999992
 51
333.71503899999999
  0
ARC
  8
_0-0_
  6
CONTINUOUS
 62
    7
 10
35.79200285360605
 20
109.50230332066837
 40
3
 50
283.29330599999992
 51
333.71503899999999
  0
ARC
  8
_0-0_
  6
CONTINUOUS
 62
    7
 10
29.981810853606135
 20
41.757304320668823
 40
70
 50
82.819243999999983
 51
83.550872000000012
  0
ARC
  8
_0-0_
  6
CONTINUOUS
 62
    7
 10
40.481810853606135
 20
112.25730432066837
 40
0.5
 50
90
 51
180
  0
ARC
  8
_0-0_
  6
CONTINUOUS
 62
    7
 10
38.431810853605953
 20
98.957304320668641
 40
0.8
 50
22.024312999999999
 51
67.975686999999994
  0
ARC
  8
_0-0_
  6
CONTINUOUS
 62
    7
 10
40.231810853606135
 20
98.757304320668368
 40
1
 50
104.477512
 51
149.99999999999997
  0
ARC
  8
_0-0_
  6
CONTINUOUS
 62
    7
 10
38.431810853605953
 20
86.55730432066855
 40
0.8
 50
270
 51
0
  0
ARC
  8
_0-0_
  6
CONTINUOUS
 62
    7
 10
40.231810853606135
 20
86.757304320668368
 40
1
 50
180
 51
255.52248800000001
  0
ARC
  8
_0-0_
  6
CONTINUOUS
 62
    7
 10
19.481810853606135
 20
73.257304320668368
 40
0.5
 50
270
 51
0
  0
ARC
  8
_0-0_
  6
CONTINUOUS
 62
    7
 10
40.481810853606135
 20
73.257304320668368
 40
0.5
 50
180
 51
270
  0
ARC
  8
_0-0_
  6
CONTINUOUS
 62
    7
 10
111.99326678076761
 20
88.107304320668277
 40
2
 50
270
 51
356.66097300000001
  0
ARC
  8
_0-0_
  6
CONTINUOUS
 62
    7
 10
112.11893078076776
 20
111.25730432066837
 40
0.5
 50
10.095961000000001
 51
90
  0
ARC
  8
_0-0_
  6
CONTINUOUS
 62
    7
 10
64.444370780767372
 20
107.50447132066836
 40
1
 50
82.528778000000003
 51
192.00004699999991
  0
ARC
  8
_0-0_
  6
CONTINUOUS
 62
    7
 10
63.8615967807674
 20
106.87939232066844
 40
0.2999999999999998
 50
192
 51
261.501644
  0
ARC
  8
_0-0_
  6
CONTINUOUS
 62
    7
 10
81.141854780767176
 20
110.71446932066863
 40
1
 50
13.076968999999998
 51
119.23528499999998
  0
ARC
  8
_0-0_
  6
CONTINUOUS
 62
    7
 10
75.60115878076715
 20
102.84381432066846
 40
5
 50
155.21915899999993
 51
218.64467599999989
  0
ARC
  8
_0-0_
  6
CONTINUOUS
 62
    7
 10
70.153652780767175
 20
105.35870532066872
 40
1
 50
335.21915899999999
 51
94.347825999999984
  0
ARC
  8
_0-0_
  6
CONTINUOUS
 62
    7
 10
67.955131780767374
 20
134.27524932066842
 40
28
 50
261.50098100000002
 51
289.70642999999978
  0
ARC
  8
_0-0_
  6
CONTINUOUS
 62
    7
 10
67.955131780767374
 20
134.27524932066842
 40
26
 50
262.52877799999987
 51
299.23528499999998
  0
ARC
  8
_0-0_
  6
CONTINUOUS
 62
    7
 10
95.195614780767414
 20
117.30166532066858
 40
6
 50
288.58567299999999
 51
292.47293999999999
  0
ARC
  8
_0-0_
  6
CONTINUOUS
 62
    7
 10
100.75155978076748
 20
114.00730432066837
 40
4
 50
145.7711339999999
 51
214.22886600000001
  0
ARC
  8
_0-0_
  6
CONTINUOUS
 62
    7
 10
104.88697178076711
 20
114.00730432066837
 40
4
 50
145.7711339999999
 51
214.22886600000001
  0
CIRCLE
  8
_0-0_
  6
CONTINUOUS
 62
    7
 10
90.444370780767372
 20
92.757304320668368
 40
12.5
  0
ARC
  8
_0-0_
  6
CONTINUOUS
 62
    7
 10
14.159633780767422
 20
93.815220320668118
 40
100
 50
356.66097300000001
 51
10.095960999999983
  0
ARC
  8
_0-0_
  6
CONTINUOUS
 62
    7
 10
110.13718178076726
 20
114.00730432066837
 40
4
 50
325.7711339999999
 51
34.228865999999975
  0
ARC
  8
_0-0_
  6
CONTINUOUS
 62
    7
 10
106.00176978076763
 20
114.00730432066837
 40
4
 50
325.7711339999999
 51
33.167649999999966
  0
CIRCLE
  8
_0-0_
  6
CONTINUOUS
 62
    7
 10
90.444370780767372
 20
92.757304320668368
 40
20
  0
LINE
  8
_0-0_
  6
CONTINUOUS
 62
    7
 10
102.94437078076737
 20
8.5442273769317012
 11
77.944370780767372
 21
8.5442273769317012
  0
LINE
  8
_0-0_
  6
CONTINUOUS
 62
    7
 10
77.444370780767372
 20
19.294227376931701
 11
77.444370780767372
 21
20.544227376931701
  0
LINE
  8
_0-0_
  6
CONTINUOUS
 62
    7
 10
75.444370780767372
 20
20.544227376931701
 11
75.444370780767372
 21
19.294227376931701
  0
LINE
  8
_0-0_
  6
CONTINUOUS
 62
    7
 10
70.944370780767372
 20
19.294227376931701
 11
109.94437078076737
 21
19.294227376931701
  0
LINE
  8
_0-0_
  6
CONTINUOUS
 62
    7
 10
110.44437078076737
 20
18.794227376931701
 11
110.44437078076737
 21
13.500288376932019
  0
LINE
  8
_0-0_
  6
CONTINUOUS
 62
    7
 10
108.89534278076701
 20
20.544227376931701
 11
71.993398780767279
 21
20.544227376931701
  0
LINE
  8
_0-0_
  6
CONTINUOUS
 62
    7
 10
71.962358770102696
 20
20.544227376931701
 11
71.962358770102696
 21
37.794227785746841
  0
LINE
  8
_0-0_
  6
CONTINUOUS
 62
    7
 10
71.962358770102696
 20
37.794227376931701
 11
66.444370780767372
 21
37.794227376931701
  0
LINE
  8
_0-0_
  6
CONTINUOUS
 62
    7
 10
71.993398780767279
 20
38.044227376931701
 11
108.89534278076701
 21
38.044227376931701
  0
LINE
  8
_0-0_
  6
CONTINUOUS
 62
    7
 10
109.94437078076737
 20
39.294227376931701
 11
70.944370780767372
 21
39.294227376931701
  0
LINE
  8
_0-0_
  6
CONTINUOUS
 62
    7
 10
70.444370780767372
 20
39.794227376931701
 11
70.444370780767372
 21
45.088166376931838
  0
LINE
  8
_0-0_
  6
CONTINUOUS
 62
    7
 10
75.444370780767372
 20
39.294227376931701
 11
75.444370780767372
 21
38.044227376931701
  0
LINE
  8
_0-0_
  6
CONTINUOUS
 62
    7
 10
77.444370780767372
 20
38.044227376931701
 11
77.444370780767372
 21
39.294227376931701
  0
LINE
  8
_0-0_
  6
CONTINUOUS
 62
    7
 10
81.444370780767372
 20
39.294227376931701
 11
81.444370780767372
 21
38.044227376931701
  0
LINE
  8
_0-0_
  6
CONTINUOUS
 62
    7
 10
84.244370780767554
 20
38.544227376931701
 11
96.64437078076719
 21
38.544227376931701
  0
LINE
  8
_0-0_
  6
CONTINUOUS
 62
    7
 10
104.94437078076737
 20
34.269164562464937
 11
104.94437078076737
 21
33.005552242336933
  0
LINE
  8
_0-0_
  6
CONTINUOUS
 62
    7
 10
105.44437078076737
 20
33.294227376931701
 11
101.98026916562924
 21
31.294227376931701
  0
LINE
  8
_0-0_
  6
CONTINUOUS
 62
    7
 10
101.98026916562924
 20
31.294227376931701
 11
101.98026916562924
 21
27.294227376931701
  0
LINE
  8
_0-0_
  6
CONTINUOUS
 62
    7
 10
101.98026916562924
 20
27.294227376931701
 11
105.44437078076737
 21
25.294227376931701
  0
LINE
  8
_0-0_
  6
CONTINUOUS
 62
    7
 10
105.44437078076737
 20
25.294227376931701
 11
108.90847239590551
 21
27.294227376931701
  0
LINE
  8
_0-0_
  6
CONTINUOUS
 62
    7
 10
108.90847239590551
 20
27.294227376931701
 11
108.90847239590551
 21
31.294227376931701
  0
LINE
  8
_0-0_
  6
CONTINUOUS
 62
    7
 10
108.90847239590551
 20
31.294227376931701
 11
105.44437078076737
 21
33.294227376931701
  0
LINE
  8
_0-0_
  6
CONTINUOUS
 62
    7
 10
105.94437078076737
 20
33.005552242336933
 11
105.94437078076737
 21
34.269164562464937
  0
LINE
  8
_0-0_
  6
CONTINUOUS
 62
    7
 10
110.44437078076737
 20
39.794227376931701
 11
110.44437078076737
 21
45.088166376931838
  0
LINE
  8
_0-0_
  6
CONTINUOUS
 62
    7
 10
102.94437078076737
 20
50.044227376931701
 11
77.944370780767372
 21
50.044227376931701
  0
LINE
  8
_0-0_
  6
CONTINUOUS
 62
    7
 10
63.444370780767372
 20
34.794227376931701
 11
63.444370780767372
 21
23.794227376931701
  0
LINE
  8
_0-0_
  6
CONTINUOUS
 62
    7
 10
66.444370780767372
 20
20.794227376931701
 11
71.962358770102696
 21
20.794227376931701
  0
LINE
  8
_0-0_
  6
CONTINUOUS
 62
    7
 10
70.444370780767372
 20
18.794227376931701
 11
70.444370780767372
 21
13.500288376932019
  0
LINE
  8
_0-0_
  6
CONTINUOUS
 62
    7
 10
81.444370780767372
 20
19.294227376931701
 11
81.444370780767372
 21
20.544227376931701
  0
LINE
  8
_0-0_
  6
CONTINUOUS
 62
    7
 10
84.244370780767554
 20
20.044227376931701
 11
96.64437078076719
 21
20.044227376931701
  0
ARC
  8
_0-0_
  6
CONTINUOUS
 62
    7
 10
106.44437078076737
 20
13.500288376932019
 40
4
 50
285.70075400000002
 51
0
  0
ARC
  8
_0-0_
  6
CONTINUOUS
 62
    7
 10
74.444370780767372
 20
13.500288376932019
 40
4
 50
180
 51
254.29924599999987
  0
ARC
  8
_0-0_
  6
CONTINUOUS
 62
    7
 10
90.444370780767372
 20
70.419227376931701
 40
63.125
 50
254.29924599999993
 51
285.70075400000007
  0
ARC
  8
_0-0_
  6
CONTINUOUS
 62
    7
 10
106.44437078076737
 20
45.088166376931838
 40
4
 50
0
 51
74.299245999999982
  0
ARC
  8
_0-0_
  6
CONTINUOUS
 62
    7
 10
74.444370780767372
 20
45.088166376931838
 40
4
 50
105.700754
 51
180
  0
ARC
  8
_0-0_
  6
CONTINUOUS
 62
    7
 10
90.444370780767372
 20
-11.830772623068299
 40
63.125
 50
74.299245999999982
 51
105.70075399999998
  0
ARC
  8
_0-0_
  6
CONTINUOUS
 62
    7
 10
66.444370780767372
 20
34.794227376931701
 40
3
 50
90
 51
180
  0
ARC
  8
_0-0_
  6
CONTINUOUS
 62
    7
 10
141.44437078076737
 20
29.294227376931701
 40
70
 50
172.81924399999991
 51
173.02544299999994
  0
ARC
  8
_0-0_
  6
CONTINUOUS
 62
    7
 10
70.944370780767372
 20
39.794227376931701
 40
0.5
 50
180
 51
270
  0
ARC
  8
_0-0_
  6
CONTINUOUS
 62
    7
 10
84.244370780767554
 20
37.744227376931974
 40
0.8
 50
90
 51
157.97568699999991
  0
ARC
  8
_0-0_
  6
CONTINUOUS
 62
    7
 10
84.444370780767372
 20
39.544227376931701
 40
1
 50
194.47751199999993
 51
270
  0
ARC
  8
_0-0_
  6
CONTINUOUS
 62
    7
 10
96.64437078076719
 20
37.744227376931974
 40
0.8
 50
22.024312999999999
 51
89.999999999999986
  0
ARC
  8
_0-0_
  6
CONTINUOUS
 62
    7
 10
96.444370780767372
 20
39.544227376931701
 40
1
 50
270
 51
345.52248800000001
  0
ARC
  8
_0-0_
  6
CONTINUOUS
 62
    7
 10
109.94437078076737
 20
39.794227376931701
 40
0.5
 50
270
 51
0
  0
ARC
  8
_0-0_
  6
CONTINUOUS
 62
    7
 10
39.444370780767372
 20
29.294227376931701
 40
70
 50
6.3253339999999989
 51
7.1807559999999961
  0
ARC
  8
_0-0_
  6
CONTINUOUS
 62
    7
 10
66.444370780767372
 20
23.794227376931701
 40
3
 50
180
 51
270
  0
ARC
  8
_0-0_
  6
CONTINUOUS
 62
    7
 10
141.44437078076737
 20
29.294227376931701
 40
70
 50
186.974557
 51
187.180756
  0
ARC
  8
_0-0_
  6
CONTINUOUS
 62
    7
 10
70.944370780767372
 20
18.794227376931701
 40
0.5
 50
90
 51
180
  0
ARC
  8
_0-0_
  6
CONTINUOUS
 62
    7
 10
84.444370780767372
 20
19.044227376931701
 40
1
 50
90
 51
165.52248799999978
  0
ARC
  8
_0-0_
  6
CONTINUOUS
 62
    7
 10
84.244370780767554
 20
20.844227376931883
 40
0.8
 50
202.02431299999989
 51
270
  0
ARC
  8
_0-0_
  6
CONTINUOUS
 62
    7
 10
96.444370780767372
 20
19.044227376931701
 40
1
 50
14.47751199999999
 51
89.999999999999986
  0
ARC
  8
_0-0_
  6
CONTINUOUS
 62
    7
 10
96.64437078076719
 20
20.844227376931883
 40
0.8
 50
270
 51
337.97568699999999
  0
ARC
  8
_0-0_
  6
CONTINUOUS
 62
    7
 10
39.444370780767372
 20
29.294227376931701
 40
70
 50
352.81924400000008
 51
353.67466599999989
  0
ARC
  8
_0-0_
  6
CONTINUOUS
 62
    7
 10
109.94437078076737
 20
18.794227376931701
 40
0.5
 50
0
 51
90
  0
ARC
  8
_0-0_
  6
CONTINUOUS
 62
    7
 10
105.44437078076737
 20
29.294227376931701
 40
8.7096669121037849
 50
294.02871609886586
 51
65.971283901134115
  0
ARC
  8
_0-0_
  6
CONTINUOUS
 62
    7
 10
105.44437078076737
 20
29.294227376931701
 40
5
 50
95.739170477266796
 51
84.260829522733218
  0
LINE
  8
_0-1_
  6
CENTER1
 62
  152
 10
105.44437078076737
 20
195.1597641702532
 11
105.44437078076737
 21
144.65429517025302
  0
LINE
  8
_0-1_
  6
CENTER1
 62
  152
 10
105.44437078076737
 20
140.75730432066837
 11
105.44437078076737
 21
72.757304320668368
  0
LINE
  8
_0-1_
  6
CONTINUOUS
 62
  152
 10
110.44437078076737
 20
116.25730432066837
 11
109.63237078076747
 21
117.66372932066849
  0
LINE
  8
_0-1_
  6
CONTINUOUS
 62
  152
 10
109.63237078076747
 20
117.66372932066849
 11
109.63237078076747
 21
134.56930432066872
  0
LINE
  8
_0-1_
  6
CONTINUOUS
 62
  152
 10
110.44437078076737
 20
133.75730432066837
 11
100.44437078076737
 21
133.75730432066837
  0
LINE
  8
_0-1_
  6
CONTINUOUS
 62
  152
 10
110.44437078076737
 20
117.66372932066849
 11
100.44437078076737
 21
117.66372932066849
  0
LINE
  8
_0-1_
  6
CONTINUOUS
 62
  152
 10
101.25637078076727
 20
117.66372932066849
 11
100.44437078076737
 21
116.25730432066837
  0
LINE
  8
_0-1_
  6
CONTINUOUS
 62
  152
 10
101.25637078076727
 20
134.56930432066872
 11
101.25637078076727
 21
117.66372932066849
  0
LINE
  8
_0-1_
  6
CENTER1
 62
  152
 10
119.15403778076745
 20
92.757304320668368
 11
65.444370780767372
 21
92.757304320668368
  0
LINE
  8
_0-1_
  6
PHANTOM1
 62
  152
 10
68.334121780767532
 20
90.721242320668239
 11
68.821689780767542
 21
90.772487320668347
  0
LINE
  8
_0-1_
  6
CENTER1
 62
  152
 10
57.319518853606155
 20
92.757304320668368
 11
2.644102853606114
 21
92.757304320668368
  0
LINE
  8
_0-1_
  6
CENTER1
 62
  152
 10
29.981810853606135
 20
74.657304320668459
 11
29.981810853606135
 21
140.75730432066837
  0
LINE
  8
_0-1_
  6
CONTINUOUS
 62
  152
 10
34.981810853606135
 20
133.75730432066837
 11
24.981810853606135
 21
133.75730432066837
  0
LINE
  8
_0-1_
  6
CONTINUOUS
 62
  152
 10
24.981810853606135
 20
116.25730432066837
 11
25.793810853606033
 21
117.66372932066849
  0
LINE
  8
_0-1_
  6
CONTINUOUS
 62
  152
 10
25.793810853606033
 20
117.66372932066849
 11
25.793810853606033
 21
134.56930432066872
  0
LINE
  8
_0-1_
  6
CONTINUOUS
 62
  152
 10
34.169810853606236
 20
134.56930432066872
 11
34.169810853606236
 21
117.66372932066849
  0
LINE
  8
_0-1_
  6
CONTINUOUS
 62
  152
 10
34.169810853606236
 20
117.66372932066849
 11
34.981810853606135
 21
116.25730432066837
  0
LINE
  8
_0-1_
  6
CONTINUOUS
 62
  152
 10
24.981810853606135
 20
117.66372932066849
 11
34.981810853606135
 21
117.66372932066849
  0
LINE
  8
_0-1_
  6
PHANTOM1
 62
  152
 10
66.678013780767401
 20
109.65183532066828
 11
67.185910780767358
 21
109.70521732066834
  0
LINE
  8
_0-1_
  6
PHANTOM1
 62
  152
 10
77.116634780767185
 20
109.03457132066831
 11
77.940946780767376
 21
108.36705732066855
  0
LINE
  8
_0-1_
  6
CENTER1
 62
  152
 10
58.834975780767422
 20
169.90703017025305
 11
119.13737078076758
 21
169.90703017025305
  0
LINE
  8
_0-1_
  6
CENTER1
 62
  152
 10
90.444370780767372
 20
197.24473817025307
 11
90.444370780767372
 21
142.56932117025315
  0
LINE
  8
_0-1_
  6
CENTER1
 62
  152
 10
153.08216304522887
 20
140.25730432066837
 11
153.08216304522887
 21
74.657304320668459
  0
LINE
  8
_0-1_
  6
CONTINUOUS
 62
  152
 10
148.08216304522841
 20
133.75730432066837
 11
158.08216304522841
 21
133.75730432066837
  0
LINE
  8
_0-1_
  6
CONTINUOUS
 62
  152
 10
157.27016304522851
 20
134.56930432066872
 11
157.27016304522851
 21
117.66372932066849
  0
LINE
  8
_0-1_
  6
CONTINUOUS
 62
  152
 10
157.27016304522851
 20
117.66372932066849
 11
158.08216304522841
 21
116.25730432066837
  0
LINE
  8
_0-1_
  6
CONTINUOUS
 62
  152
 10
158.08216304522841
 20
117.66372932066849
 11
148.08216304522841
 21
117.66372932066849
  0
LINE
  8
_0-1_
  6
CONTINUOUS
 62
  152
 10
148.89416304522877
 20
117.66372932066849
 11
148.08216304522841
 21
116.25730432066837
  0
LINE
  8
_0-1_
  6
CONTINUOUS
 62
  152
 10
148.89416304522877
 20
134.56930432066872
 11
148.89416304522877
 21
117.66372932066849
  0
LINE
  8
_0-1_
  6
CENTER1
 62
  152
 10
125.74445504522839
 20
92.757304320668368
 11
180.41987204522923
 21
92.757304320668368
  0
ARC
  8
_0-1_
  6
PHANTOM1
 62
  152
 10
69.116628780767428
 20
106.69140232066854
 40
0.5
 50
197.74402399999991
 51
327.113966
  0
ARC
  8
_0-1_
  6
PHANTOM1
 62
  152
 10
66.782541780767247
 20
108.65731332066832
 40
1
 50
96
 51
203.23528499999998
  0
ARC
  8
_0-1_
  6
PHANTOM1
 62
  152
 10
67.21726878076754
 20
109.40686132066855
 40
0.2999999999999998
 50
24.305247999999999
 51
96
  0
ARC
  8
_0-1_
  6
PHANTOM1
 62
  152
 10
74.994894780767595
 20
102.89061432066853
 40
6.5
 50
70.948273999999984
 51
147.113966
  0
ARC
  8
_0-1_
  6
PHANTOM1
 62
  152
 10
68.229592780767348
 20
91.715764320668654
 40
1
 50
166.5287789999999
 51
276.00000000000006
  0
ARC
  8
_0-1_
  6
PHANTOM1
 62
  152
 10
68.79033178076736
 20
91.070844320668471
 40
0.2999999999999998
 50
276
 51
345.50164400000011
  0
ARC
  8
_0-1_
  6
PHANTOM1
 62
  152
 10
41.972442780767437
 20
98.005600320668123
 40
28
 50
345.501644
 51
24.305247999999921
  0
ARC
  8
_0-1_
  6
PHANTOM1
 62
  152
 10
41.972442780767437
 20
98.005600320668123
 40
26
 50
346.52877899999993
 51
23.235284999999941
  0
ARC
  8
_0-1_
  6
PHANTOM1
 62
  152
 10
70.960386780766953
 20
97.16947632066865
 40
1
 50
77.107280000000003
 51
178.347826
  0
CIRCLE
  8
_0-1_
  6
CONTINUOUS
 62
  152
 10
105.44437078076737
 20
169.90703017025305
 40
3.5
  0
LINE
  8
_0-1_
  6
CENTER1
 62
  152
 10
90.444370780767372
 20
71.561830898451376
 11
90.444370780767372
 21
117.75730432066837
  0
LINE
  8
_0-1_
  6
CENTER1
 62
  152
 10
119.13737078076758
 20
29.294227376931701
 11
58.834975780767422
 21
29.294227376931701
  0
LINE
  8
_0-1_
  6
CENTER1
 62
  152
 10
90.444370780767372
 20
1.9565183769317969
 11
90.444370780767372
 21
53.060495244334277
  0
LINE
  8
_0-1_
  6
CENTER1
 62
  152
 10
105.44437078076737
 20
36.456666028745929
 11
105.44437078076737
 21
22.488406395216828
  0
ENDSEC
  0
EOF
