  0
SECTION
  2
HEADER
  9
$ACADVER
  1
AC1009
  9
$INSBASE
 10
0
 20
0
 30
0
  9
$EXTMIN
 10
0
 20
0
  9
$EXTMAX
 10
1189
 20
841
  9
$LIMMIN
 10
0
 20
0
  9
$LIMMAX
 10
1189
 20
841
  9
$LTSCALE
 40
1
  0
ENDSEC
  0
SECTION
  2
TABLES
  0
TABLE
  2
LTYPE
 70
     9
  0
LTYPE
  2
CONTINUOUS
 70
    64
  3
実線
 72
    65
 73
     0
 40
0.0
  0
LTYPE
  2
DASHED1
 70
    64
  3
--  --  --  --  --  --  --  --  
 72
    65
 73
     2
 40
2.5
 49
1.25
 49
-1.25
  0
LTYPE
  2
DASHED2
 70
    64
  3
----    ----    ----    ----    
 72
    65
 73
     2
 40
5.0
 49
2.5
 49
-2.5
  0
LTYPE
  2
DASHED3
 70
    64
  3
------  ------  ------  ------  
 72
    65
 73
     2
 40
5.0
 49
3.75
 49
-1.25
  0
LTYPE
  2
CENTER1
 70
    64
  3
----- - ----- - ----- - ----- - 
 72
    65
 73
     4
 40
10.0
 49
6.25
 49
-1.25
 49
1.25
 49
-1.25
  0
LTYPE
  2
CENTER2
 70
    64
  3
----------  --  ----------  --  
 72
    65
 73
     4
 40
20.0
 49
12.5
 49
-2.5
 49
2.5
 49
-2.5
  0
LTYPE
  2
PHANTOM1
 70
    64
  3
--- - - --- - - --- - - --- - - 
 72
    65
 73
     6
 40
10.0
 49
3.25
 49
-1.25
 49
1.25
 49
-1.25
 49
1.25
 49
-1.25
  0
LTYPE
  2
PHANTOM2
 70
    64
  3
--------  -  -  --------  -  -  
 72
    65
 73
     6
 40
20.0
 49
10.0
 49
-2.5
 49
1.25
 49
-2.5
 49
1.25
 49
-2.5
  0
LTYPE
  2
DOT
 70
    64
  3
-   -   -   -   -   -   -   -   
 72
    65
 73
     2
 40
2.5
 49
0.625
 49
-1.875
  0
LTYPE
  2
DUMMY
 70
    64
  3
ダミー
 72
    65
 73
     0
 40
0.0
  0
LTYPE
  2
RAND1
 70
    64
  3
ランダム線1
 72
    65
 73
     4
 40
10.0
 49
1.0
 49
-2.0
 49
3.0
 49
-4.0
  0
LTYPE
  2
RAND2
 70
    64
  3
ランダム線2
 72
    65
 73
     4
 40
14.0
 49
2.0
 49
-3.0
 49
4.0
 49
-5.0
  0
LTYPE
  2
RAND3
 70
    64
  3
ランダム線3
 72
    65
 73
     4
 40
18.0
 49
3.0
 49
-4.0
 49
5.0
 49
-6.0
  0
LTYPE
  2
RAND4
 70
    64
  3
ランダム線4
 72
    65
 73
     4
 40
22.0
 49
4.0
 49
-5.0
 49
6.0
 49
-7.0
  0
LTYPE
  2
RAND5
 70
    64
  3
ランダム線5
 72
    65
 73
     4
 40
26.0
 49
5.0
 49
-6.0
 49
7.0
 49
-8.0
  0
LTYPE
  2
LONG1
 70
    64
  3
----------  --  ----------  --  
 72
    65
 73
     4
 40
40.0
 49
32.5
 49
-2.5
 49
2.5
 49
-2.5
  0
LTYPE
  2
LONG2
 70
    64
  3
--------  -  -  --------  -  -  
 72
    65
 73
     6
 40
40.0
 49
30.0
 49
-2.5
 49
1.25
 49
-2.5
 49
1.25
 49
-2.5
  0
LTYPE
  2
LONG3
 70
    64
  3
+++++++++++++++..+++++++++++++++
 72
    65
 73
     2
 40
40.0
 49
37.5
 49
-2.5
  0
LTYPE
  2
LONG4
 70
    64
  3
+++++++++++++++..+++++++++++++++
 72
    65
 73
     2
 40
80.0
 49
75.0
 49
-5.0
  0
LTYPE
  2
LONG5
 70
    64
  3
----------  --  ----------  --  
 72
    65
 73
     4
 40
60.0
 49
37.5
 49
-7.5
 49
7.5
 49
-7.5
  0
LTYPE
  2
dashed
 70
   64
  3
-------   -------------   ------
 72
   65
 73
    2
 40
7.5
 49
6
 49
-1.5
  0
LTYPE
  2
dashed_spaced
 70
   64
  3
----        --------        ----
 72
   65
 73
    2
 40
12
 49
6
 49
-6
  0
LTYPE
  2
long_dashed_dotted
 70
   64
  3
------------- --- --------------
 72
   65
 73
    4
 40
15.25
 49
12
 49
-1.5
 49
0.25
 49
-1.5
  0
LTYPE
  2
long_dashed_double-dotted
 70
   64
  3
----------- --- --- ------------
 72
   65
 73
    6
 40
17
 49
12
 49
-1.5
 49
0.25
 49
-1.5
 49
0.25
 49
-1.5
  0
LTYPE
  2
long_dashed_triplicate-dotted
 70
   64
  3
--------- --- --- --- ----------
 72
   65
 73
    8
 40
18.75
 49
12
 49
-1.5
 49
0.25
 49
-1.5
 49
0.25
 49
-1.5
 49
0.25
 49
-1.5
  0
LTYPE
  2
dotted
 70
   64
  3
   -       -       -       -    
 72
   65
 73
    2
 40
1.75
 49
0.25
 49
-1.5
  0
LTYPE
  2
chain
 70
   64
  3
-------------- -- --------------
 72
   65
 73
    4
 40
18.5
 49
12
 49
-1.5
 49
3.5
 49
-1.5
  0
LTYPE
  2
chain_double_dash
 70
   64
  3
------------ -- -- -------------
 72
   65
 73
    6
 40
23.5
 49
12
 49
-1.5
 49
3.5
 49
-1.5
 49
3.5
 49
-1.5
  0
LTYPE
  2
dashed_dotted
 70
   64
  3
-----------     -     ----------
 72
   65
 73
    4
 40
9.25
 49
6
 49
-1.5
 49
0.25
 49
-1.5
  0
LTYPE
  2
double-dashed_dotted
 70
   64
  3
------   -----------   -   -----
 72
   65
 73
    6
 40
16.75
 49
6
 49
-1.5
 49
6
 49
-1.5
 49
0.25
 49
-1.5
  0
LTYPE
  2
dashed_double-dotted
 70
   64
  3
---------    -    -    ---------
 72
   65
 73
    6
 40
11
 49
6
 49
-1.5
 49
0.25
 49
-1.5
 49
0.25
 49
-1.5
  0
LTYPE
  2
double-dashed_double-dotted
 70
   64
  3
-----   ---------   -   -   ----
 72
   65
 73
    8
 40
18.5
 49
6
 49
-1.5
 49
6
 49
-1.5
 49
0.25
 49
-1.5
 49
0.25
 49
-1.5
  0
LTYPE
  2
dashed_triplicate-dotted
 70
   64
  3
-------    -    -    -    ------
 72
   65
 73
    8
 40
12.75
 49
6
 49
-1.5
 49
0.25
 49
-1.5
 49
0.25
 49
-1.5
 49
0.25
 49
-1.5
  0
LTYPE
  2
double-dashed_triplicate-dotted
 70
   64
  3
-----  ---------  -  -  -  -----
 72
   65
 73
   10
 40
20.25
 49
6
 49
-1.5
 49
6
 49
-1.5
 49
0.25
 49
-1.5
 49
0.25
 49
-1.5
 49
0.25
 49
-1.5
  0
LTYPE
  2
undefined
 70
   64
  3
--------------------------------
 72
   65
 73
    0
 40
0
  0
LTYPE
  2
_
 70
   64
  3
                                
 72
   65
 73
    0
 40
0
  0
LTYPE
  2
__18
 70
   64
  3
                                
 72
   65
 73
    0
 40
0
  0
LTYPE
  2
__19
 70
   64
  3
                                
 72
   65
 73
    0
 40
0
  0
LTYPE
  2
__20
 70
   64
  3
                                
 72
   65
 73
    0
 40
0
  0
LTYPE
  2
__21
 70
   64
  3
                                
 72
   65
 73
    0
 40
0
  0
LTYPE
  2
__22
 70
   64
  3
                                
 72
   65
 73
    0
 40
0
  0
LTYPE
  2
__23
 70
   64
  3
                                
 72
   65
 73
    0
 40
0
  0
LTYPE
  2
__24
 70
   64
  3
                                
 72
   65
 73
    0
 40
0
  0
LTYPE
  2
__25
 70
   64
  3
                                
 72
   65
 73
    0
 40
0
  0
LTYPE
  2
__26
 70
   64
  3
                                
 72
   65
 73
    0
 40
0
  0
LTYPE
  2
__27
 70
   64
  3
                                
 72
   65
 73
    0
 40
0
  0
LTYPE
  2
__28
 70
   64
  3
                                
 72
   65
 73
    0
 40
0
  0
LTYPE
  2
__29
 70
   64
  3
                                
 72
   65
 73
    0
 40
0
  0
LTYPE
  2
__30
 70
   64
  3
                                
 72
   65
 73
    0
 40
0
  0
LTYPE
  2
__31
 70
   64
  3
                                
 72
   65
 73
    0
 40
0
  0
LTYPE
  2
__32
 70
   64
  3
                                
 72
   65
 73
    0
 40
0
  0
ENDTAB
  0
TABLE
  2
STYLE
  5
3
100
AcDbSymbolTable
 70
     1
  0
STYLE
  5
10
100
AcDbSymbolTableRecord
100
AcDbTextStyleTableRecord
  2
STANDARD
 70
     0
 40
0.0
 41
1.0
 50
0.0
 71
     0
 42
0.2
  3
txt
  4
bigfont.shx
  0
STYLE
  5
26
100
AcDbSymbolTableRecord
100
AcDbTextStyleTableRecord
  2
TATEGAKI
 70
    68
 40
0.0
 41
1.0
 50
0.0
 71
     0
 42
1.0
  3
txt
  4
bigfont.shx
  0
ENDTAB
  0
TABLE
  2
LAYER
 70
    4
  0
LAYER
  2
_0-0_
 70
   64
 62
    7
  6
CONTINUOUS
  0
LAYER
  2
_0-1_
 70
   64
 62
    7
  6
CONTINUOUS
  0
LAYER
  2
_0-f_
 70
   64
 62
    7
  6
CONTINUOUS
  0
LAYER
  2
ADD_LINE
 70
   64
 62
    7
  6
CONTINUOUS
  0
ENDTAB
  0
ENDSEC
  0
SECTION
  2
BLOCKS
  0
ENDSEC
  0
SECTION
  2
ENTITIES
  0
TEXT
  8
_0-f_
 62
    7
 10
1.209172900281942
 20
1.2465782873079547
 40
4.2999999999999998
 41
0.744186046511628
 50
0
  1
BL4F
  0
LINE
  8
_0-0_
  6
CONTINUOUS
 62
    7
 10
81.003373829920065
 20
104.46599331612464
 11
53.432306018054305
 21
76.894925504259334
  0
LINE
  8
_0-0_
  6
CONTINUOUS
 62
    7
 10
49.896772112120971
 20
75.430459410192213
 11
42.767839923986912
 21
75.430459410192213
  0
LINE
  8
_0-0_
  6
CONTINUOUS
 62
    7
 10
42.46783992398673
 20
75.730459410191941
 11
42.46783992398673
 21
113.93045941019221
  0
LINE
  8
_0-0_
  6
CONTINUOUS
 62
    7
 10
43.96783992398673
 20
115.43045941019221
 11
82.167839923986548
 21
115.43045941019221
  0
LINE
  8
_0-0_
  6
CONTINUOUS
 62
    7
 10
82.46783992398673
 20
115.13045941019203
 11
82.46783992398673
 21
108.00152722205752
  0
LINE
  8
_0-0_
  6
CONTINUOUS
 62
    7
 10
57.24763431024644
 20
89.336956527775271
 11
53.853521761400089
 21
92.731069076622532
  0
LINE
  8
_0-0_
  6
CONTINUOUS
 62
    7
 10
53.853521761399179
 20
93.579597213834347
 11
64.318702120344142
 21
104.0447775727784
  0
LINE
  8
_0-0_
  6
CONTINUOUS
 62
    7
 10
65.167230257556412
 20
104.04477757277886
 11
68.561342806403673
 21
100.65066502393205
  0
LINE
  8
_0-0_
  6
CONTINUOUS
 62
    7
 10
68.561342806401854
 20
99.802136886719325
 11
58.09616244745871
 21
89.336956527775271
  0
LINE
  8
_0-0_
  6
CONTINUOUS
 62
    7
 10
57.707339860023467
 20
90.389532202885619
 11
59.728735799061951
 21
92.410928141924103
  0
LINE
  8
_0-0_
  6
CONTINUOUS
 62
    7
 10
59.728735799061951
 20
92.410928141924103
 11
59.214021548862775
 21
92.925642392123279
  0
LINE
  8
_0-0_
  6
CONTINUOUS
 62
    7
 10
59.214021548862775
 20
92.925642392123279
 11
57.912609552587355
 21
91.624230395846951
  0
LINE
  8
_0-0_
  6
CONTINUOUS
 62
    7
 10
57.912609552587355
 20
91.624230395846951
 11
55.540120205807625
 21
93.996719742626226
  0
LINE
  8
_0-0_
  6
CONTINUOUS
 62
    7
 10
55.540120205807625
 20
93.996719742626226
 11
54.82013626304547
 21
93.27673579986407
  0
LINE
  8
_0-0_
  6
CONTINUOUS
 62
    7
 10
54.82013626304547
 20
93.27673579986407
 11
57.707339860023467
 21
90.389532202885619
  0
LINE
  8
_0-0_
  6
CONTINUOUS
 62
    7
 10
60.28423366237007
 20
92.966426005232222
 11
62.306155710392204
 21
94.988348053254811
  0
LINE
  8
_0-0_
  6
CONTINUOUS
 62
    7
 10
62.306155710392204
 20
94.988348053254811
 11
61.791441460193937
 21
95.503062303453078
  0
LINE
  8
_0-0_
  6
CONTINUOUS
 62
    7
 10
61.791441460193937
 20
95.503062303453078
 11
60.486950073013986
 21
94.198570916273582
  0
LINE
  8
_0-0_
  6
CONTINUOUS
 62
    7
 10
60.486950073013986
 20
94.198570916273582
 11
59.781893933984293
 21
94.90362705530373
  0
LINE
  8
_0-0_
  6
CONTINUOUS
 62
    7
 10
59.781893933984293
 20
94.90362705530373
 11
60.961989638014757
 21
96.083722759334194
  0
LINE
  8
_0-0_
  6
CONTINUOUS
 62
    7
 10
60.961989638014757
 20
96.083722759334194
 11
60.478822050057033
 21
96.566890347292372
  0
LINE
  8
_0-0_
  6
CONTINUOUS
 62
    7
 10
60.478822050057033
 20
96.566890347292372
 11
59.29872634602566
 21
95.386794643261908
  0
LINE
  8
_0-0_
  6
CONTINUOUS
 62
    7
 10
59.29872634602566
 20
95.386794643261908
 11
58.629174976392505
 21
96.056346012895062
  0
LINE
  8
_0-0_
  6
CONTINUOUS
 62
    7
 10
58.629174976392505
 20
96.056346012895062
 11
59.933666363572456
 21
97.360837400074558
  0
LINE
  8
_0-0_
  6
CONTINUOUS
 62
    7
 10
59.933666363572456
 20
97.360837400074558
 11
59.418952113414207
 21
97.875551650232353
  0
LINE
  8
_0-0_
  6
CONTINUOUS
 62
    7
 10
59.418952113414207
 20
97.875551650232353
 11
57.397030065392073
 21
95.853629602210674
  0
LINE
  8
_0-0_
  6
CONTINUOUS
 62
    7
 10
57.397030065392073
 20
95.853629602210674
 11
60.28423366237007
 21
92.966426005232222
  0
LINE
  8
_0-0_
  6
CONTINUOUS
 62
    7
 10
62.124563618530601
 20
98.856630955716298
 11
62.860097005913531
 21
99.592164343097863
  0
LINE
  8
_0-0_
  6
CONTINUOUS
 62
    7
 10
63.919456265623239
 20
98.570761151000568
 11
63.168523847130245
 21
97.819828732507119
  0
CIRCLE
  8
_0-0_
  6
CONTINUOUS
 62
    7
 10
52.46783992398673
 20
105.43045941019221
 40
1.6500000000000001
  0
ARC
  8
_0-0_
  6
CONTINUOUS
 62
    7
 10
43.96783992398673
 20
113.93045941019221
 40
1.5
 50
90
 51
180
  0
ARC
  8
_0-0_
  6
CONTINUOUS
 62
    7
 10
49.896772112120971
 20
80.430459410192213
 40
5
 50
270
 51
314.99999999999955
  0
ARC
  8
_0-0_
  6
CONTINUOUS
 62
    7
 10
77.46783992398673
 20
108.00152722205752
 40
5
 50
314.99999999999977
 51
0
  0
ARC
  8
_0-0_
  6
CONTINUOUS
 62
    7
 10
42.767839923986912
 20
75.730459410191941
 40
0.2999999999999998
 50
180
 51
270
  0
ARC
  8
_0-0_
  6
CONTINUOUS
 62
    7
 10
82.167839923986548
 20
115.13045941019203
 40
0.2999999999999998
 50
0
 51
90
  0
ARC
  8
_0-0_
  6
CONTINUOUS
 62
    7
 10
57.671898378852575
 20
89.761220596381861
 40
0.5999999998499998
 50
225
 51
315
  0
ARC
  8
_0-0_
  6
CONTINUOUS
 62
    7
 10
54.277785830006223
 20
93.155333145228212
 40
0.5999999998499998
 50
135
 51
225
  0
ARC
  8
_0-0_
  6
CONTINUOUS
 62
    7
 10
64.742966188949367
 20
103.62051350417227
 40
0.5999999998499998
 50
45
 51
135
  0
ARC
  8
_0-0_
  6
CONTINUOUS
 62
    7
 10
68.137078737796628
 20
100.22640095532591
 40
0.5999999998499998
 50
315.00000000000006
 51
45.00000000000005
  0
ARC
  8
_0-0_
  6
CONTINUOUS
 62
    7
 10
64.78274466634889
 20
100.35214060618904
 40
4.7979726877952675
 50
209.21600247589291
 51
240.78399752410706
  0
ARC
  8
_0-0_
  6
CONTINUOUS
 62
    7
 10
70.775008790590846
 20
106.34440473041826
 40
12.185477896575623
 50
221.78919008197266
 51
228.21080991802734
  0
ARC
  8
_0-0_
  6
CONTINUOUS
 62
    7
 10
62.940369679018886
 20
97.194112355582945
 40
1.1443579323911381
 50
244.11812031409386
 51
298.77089632225119
  0
ARC
  8
_0-0_
  6
CONTINUOUS
 62
    7
 10
62.363983924002468
 20
98.087087365552122
 40
2.2058059353745603
 50
300.7307072235771
 51
329.2692927764229
  0
ARC
  8
_0-0_
  6
CONTINUOUS
 62
    7
 10
63.256958933971191
 20
97.51070161053525
 40
1.1443579323911381
 50
331.22910367774887
 51
25.88187968590621
  0
ARC
  8
_0-0_
  6
CONTINUOUS
 62
    7
 10
60.098930683365552
 20
95.668326623205246
 40
4.7979726877952675
 50
29.216002475892946
 51
37.223758552801954
  0
ARC
  8
_0-0_
  6
CONTINUOUS
 62
    7
 10
63.194120147098374
 20
97.256951142457126
 40
0.3317259727581011
 50
243.78093483258863
 51
26.21906516741149
  0
ARC
  8
_0-0_
  6
CONTINUOUS
 62
    7
 10
61.881591342364345
 20
96.487167593030733
 40
1.8526146346434396
 50
29.644741742154327
 51
46.000075600874936
  0
ARC
  8
_0-0_
  6
CONTINUOUS
 62
    7
 10
63.963903696523857
 20
98.569479947189791
 40
1.8526146346434396
 50
224.28077569259486
 51
240.35525825784566
  0
ARC
  8
_0-0_
  6
CONTINUOUS
 62
    7
 10
61.687555202616068
 20
98.763516086938523
 40
0.3317259727581011
 50
63.780934832588585
 51
206.21906516741137
  0
ARC
  8
_0-0_
  6
CONTINUOUS
 62
    7
 10
63.000084007349187
 20
99.533299636364461
 40
1.8526146346434396
 50
209.64474174215434
 51
225.71922430740514
  0
ARC
  8
_0-0_
  6
CONTINUOUS
 62
    7
 10
60.917771653189675
 20
97.450987282205404
 40
1.8526146346434396
 50
49.352810002800915
 51
60.355258257845676
  0
ARC
  8
_0-0_
  6
CONTINUOUS
 62
    7
 10
61.941305670694646
 20
98.826354873812249
 40
1.1443579323911381
 50
64.118120314093829
 51
118.77089632225115
  0
ARC
  8
_0-0_
  6
CONTINUOUS
 62
    7
 10
60.098930683365552
 20
95.668326623205246
 40
4.7979726877952675
 50
54.866322719820886
 51
60.783997524107065
  0
ARC
  8
_0-0_
  6
CONTINUOUS
 62
    7
 10
62.517691425711973
 20
97.933379863843072
 40
2.2058059353745603
 50
120.73070722357708
 51
149.2692927764229
  0
ARC
  8
_0-0_
  6
CONTINUOUS
 62
    7
 10
61.624716415742341
 20
98.509765618859944
 40
1.1443579323911381
 50
151.22910367774887
 51
205.88187968590617
  0
ARC
  8
_0-0_
  6
CONTINUOUS
 62
    7
 10
67.313186103468297
 20
102.88258204330799
 40
4.7979726877952675
 50
209.21600247589291
 51
240.78399752410706
  0
ARC
  8
_0-0_
  6
CONTINUOUS
 62
    7
 10
73.305450227709343
 20
108.87484616753721
 40
12.185477896575623
 50
221.78919008197266
 51
228.21080991802734
  0
ARC
  8
_0-0_
  6
CONTINUOUS
 62
    7
 10
56.637107996254827
 20
92.206503936083607
 40
12.185477896575623
 50
41.789190081972663
 51
48.210809918027337
  0
ARC
  8
_0-0_
  6
CONTINUOUS
 62
    7
 10
65.724561584215962
 20
99.787392579576078
 40
0.3317259727581011
 50
243.78093483258863
 51
26.21906516741149
  0
ARC
  8
_0-0_
  6
CONTINUOUS
 62
    7
 10
64.894425361120966
 20
100.61752880267107
 40
2.2058059353745603
 50
300.7307072235771
 51
329.2692927764229
  0
ARC
  8
_0-0_
  6
CONTINUOUS
 62
    7
 10
65.787400371091508
 20
100.04114304765466
 40
1.1443579323911381
 50
331.22910367774887
 51
25.88187968590621
  0
ARC
  8
_0-0_
  6
CONTINUOUS
 62
    7
 10
65.470811116137384
 20
99.724553792700988
 40
1.1443579323911381
 50
244.11812031409386
 51
298.77089632225119
  0
ARC
  8
_0-0_
  6
CONTINUOUS
 62
    7
 10
62.629372120484049
 20
98.198768060324198
 40
4.7979726877952675
 50
29.216002475892946
 51
60.783997524107058
  0
ARC
  8
_0-0_
  6
CONTINUOUS
 62
    7
 10
64.412032779482843
 20
99.017609030148776
 40
1.8526146346434396
 50
29.644741742154327
 51
45.719224307405128
  0
ARC
  8
_0-0_
  6
CONTINUOUS
 62
    7
 10
66.494345133643264
 20
101.09992138430874
 40
1.8526146346434396
 50
224.28077569259486
 51
240.35525825784566
  0
ARC
  8
_0-0_
  6
CONTINUOUS
 62
    7
 10
65.530525444468594
 20
102.06374107348341
 40
1.8526146346434396
 50
209.64474174215434
 51
225.71922430740514
  0
ARC
  8
_0-0_
  6
CONTINUOUS
 62
    7
 10
64.217996639735475
 20
101.29395752405611
 40
0.3317259727581011
 50
63.780934832588585
 51
206.21906516741137
  0
ARC
  8
_0-0_
  6
CONTINUOUS
 62
    7
 10
63.448213090308172
 20
99.981428719323446
 40
1.8526146346434396
 50
44.280775692594872
 51
60.355258257845676
  0
ARC
  8
_0-0_
  6
CONTINUOUS
 62
    7
 10
65.04813286283138
 20
100.46382130096111
 40
2.2058059353745603
 50
120.73070722357708
 51
149.2692927764229
  0
ARC
  8
_0-0_
  6
CONTINUOUS
 62
    7
 10
64.155157852860839
 20
101.04020705597799
 40
1.1443579323911381
 50
151.22910367774887
 51
205.88187968590617
  0
ARC
  8
_0-0_
  6
CONTINUOUS
 62
    7
 10
64.471747107814053
 20
101.35679631093166
 40
1.1443579323911381
 50
64.118120314093829
 51
118.77089632225115
  0
LINE
  8
_0-0_
  6
CONTINUOUS
 62
    7
 10
194.24766975816567
 20
75.63915620538495
 11
188.27137547169252
 21
75.430459410192213
  0
LINE
  8
_0-0_
  6
CONTINUOUS
 62
    7
 10
188.27137547169252
 20
75.430459410192213
 11
173.69532051311228
 21
75.430459410192213
  0
LINE
  8
_0-0_
  6
CONTINUOUS
 62
    7
 10
175.12441068414512
 20
75.725223688260883
 11
175.6901753835001
 21
108.13786160635249
  0
LINE
  8
_0-0_
  6
CONTINUOUS
 62
    7
 10
175.99012969204716
 20
108.43262588442116
 11
187.40051133417739
 21
108.43262588442116
  0
LINE
  8
_0-0_
  6
CONTINUOUS
 62
    7
 10
187.70046564272354
 20
108.13786160635249
 11
188.26604756234622
 21
75.735695132123453
  0
LINE
  8
_0-0_
  6
CONTINUOUS
 62
    7
 10
172.49532051311246
 20
115.43045941019221
 11
195.39532051311164
 21
115.43045941019221
  0
LINE
  8
_0-0_
  6
CONTINUOUS
 62
    7
 10
195.69532051311182
 20
115.13045941019203
 11
195.69532051311182
 21
77.138242445913818
  0
LINE
  8
_0-0_
  6
CONTINUOUS
 62
    7
 10
172.19532051311228
 20
76.930459410192213
 11
172.19532051311228
 21
115.13045941019203
  0
ARC
  8
_0-0_
  6
CONTINUOUS
 62
    7
 10
194.19532051311182
 20
77.138242445913818
 40
1.5
 50
272.00000000000011
 51
0.0000000000002417
  0
ARC
  8
_0-0_
  6
CONTINUOUS
 62
    7
 10
187.40051133417739
 20
108.13262588442143
 40
0.2999999999999998
 50
1.0000000000000904
 51
90.000000000000043
  0
ARC
  8
_0-0_
  6
CONTINUOUS
 62
    7
 10
175.99012969204716
 20
108.13262588442143
 40
0.2999999999999998
 50
89.999999999999986
 51
179.00000000000017
  0
ARC
  8
_0-0_
  6
CONTINUOUS
 62
    7
 10
195.39532051311164
 20
115.13045941019203
 40
0.2999999999999998
 50
0.0000000000003562
 51
90
  0
ARC
  8
_0-0_
  6
CONTINUOUS
 62
    7
 10
188.56600187089327
 20
75.740930854054511
 40
0.2999999999999998
 50
181.00000000000017
 51
272.00000000000023
  0
ARC
  8
_0-0_
  6
CONTINUOUS
 62
    7
 10
174.82445637559806
 20
75.730459410191941
 40
0.2999999999999998
 50
270
 51
359.00000000000006
  0
ARC
  8
_0-0_
  6
CONTINUOUS
 62
    7
 10
173.69532051311228
 20
76.930459410192213
 40
1.5
 50
180
 51
270
  0
ARC
  8
_0-0_
  6
CONTINUOUS
 62
    7
 10
172.49532051311246
 20
115.13045941019203
 40
0.2999999999999998
 50
89.999999999999986
 51
180
  0
LINE
  8
_0-0_
  6
CONTINUOUS
 62
    7
 10
128.54063923381915
 20
31.247676487130605
 11
100.96957142195339
 21
3.6766086752652996
  0
LINE
  8
_0-0_
  6
CONTINUOUS
 62
    7
 10
97.434037516020055
 20
2.2121425811981794
 11
90.305105327885997
 21
2.2121425811981794
  0
LINE
  8
_0-0_
  6
CONTINUOUS
 62
    7
 10
90.005105327885815
 20
2.5121425811979066
 11
90.005105327885815
 21
40.712142581198179
  0
LINE
  8
_0-0_
  6
CONTINUOUS
 62
    7
 10
91.505105327885815
 20
42.212142581198179
 11
129.70510532788563
 21
42.212142581198179
  0
LINE
  8
_0-0_
  6
CONTINUOUS
 62
    7
 10
130.00510532788581
 20
41.912142581197998
 11
130.00510532788581
 21
34.783210393063484
  0
LINE
  8
_0-0_
  6
CONTINUOUS
 62
    7
 10
104.78489971414552
 20
16.118639698781237
 11
101.39078716529917
 21
19.512752247628498
  0
LINE
  8
_0-0_
  6
CONTINUOUS
 62
    7
 10
101.39078716529826
 20
20.361280384840313
 11
111.85596752424323
 21
30.826460743784367
  0
LINE
  8
_0-0_
  6
CONTINUOUS
 62
    7
 10
112.7044956614555
 20
30.826460743784821
 11
116.09860821030276
 21
27.432348194938015
  0
LINE
  8
_0-0_
  6
CONTINUOUS
 62
    7
 10
116.09860821030094
 20
26.583820057725291
 11
105.63342785135779
 21
16.118639698781237
  0
LINE
  8
_0-0_
  6
CONTINUOUS
 62
    7
 10
105.24460526392255
 20
17.171215373891584
 11
107.26600120296104
 21
19.192611312930069
  0
LINE
  8
_0-0_
  6
CONTINUOUS
 62
    7
 10
107.26600120296104
 20
19.192611312930069
 11
106.75128695276186
 21
19.707325563129245
  0
LINE
  8
_0-0_
  6
CONTINUOUS
 62
    7
 10
106.75128695276186
 20
19.707325563129245
 11
105.44987495648644
 21
18.405913566852917
  0
LINE
  8
_0-0_
  6
CONTINUOUS
 62
    7
 10
105.44987495648644
 20
18.405913566852917
 11
103.07738560970671
 21
20.778402913632192
  0
LINE
  8
_0-0_
  6
CONTINUOUS
 62
    7
 10
103.07738560970671
 20
20.778402913632192
 11
102.35740166694455
 21
20.058418970870036
  0
LINE
  8
_0-0_
  6
CONTINUOUS
 62
    7
 10
102.35740166694455
 20
20.058418970870036
 11
105.24460526392255
 21
17.171215373891584
  0
LINE
  8
_0-0_
  6
CONTINUOUS
 62
    7
 10
107.82149906626915
 20
19.748109176238188
 11
109.84342111429129
 21
21.770031224260777
  0
LINE
  8
_0-0_
  6
CONTINUOUS
 62
    7
 10
109.84342111429129
 20
21.770031224260777
 11
109.32870686409302
 21
22.284745474459044
  0
LINE
  8
_0-0_
  6
CONTINUOUS
 62
    7
 10
109.32870686409302
 20
22.284745474459044
 11
108.02421547691307
 21
20.980254087279548
  0
LINE
  8
_0-0_
  6
CONTINUOUS
 62
    7
 10
108.02421547691307
 20
20.980254087279548
 11
107.31915933788338
 21
21.685310226309696
  0
LINE
  8
_0-0_
  6
CONTINUOUS
 62
    7
 10
107.31915933788338
 20
21.685310226309696
 11
108.49925504191384
 21
22.86540593034016
  0
LINE
  8
_0-0_
  6
CONTINUOUS
 62
    7
 10
108.49925504191384
 20
22.86540593034016
 11
108.01608745395612
 21
23.348573518298338
  0
LINE
  8
_0-0_
  6
CONTINUOUS
 62
    7
 10
108.01608745395612
 20
23.348573518298338
 11
106.83599174992474
 21
22.168477814267874
  0
LINE
  8
_0-0_
  6
CONTINUOUS
 62
    7
 10
106.83599174992474
 20
22.168477814267874
 11
106.16644038029159
 21
22.838029183901028
  0
LINE
  8
_0-0_
  6
CONTINUOUS
 62
    7
 10
106.16644038029159
 20
22.838029183901028
 11
107.47093176747154
 21
24.142520571080524
  0
LINE
  8
_0-0_
  6
CONTINUOUS
 62
    7
 10
107.47093176747154
 20
24.142520571080524
 11
106.95621751731329
 21
24.657234821238319
  0
LINE
  8
_0-0_
  6
CONTINUOUS
 62
    7
 10
106.95621751731329
 20
24.657234821238319
 11
104.93429546929116
 21
22.63531277321664
  0
LINE
  8
_0-0_
  6
CONTINUOUS
 62
    7
 10
104.93429546929116
 20
22.63531277321664
 11
107.82149906626915
 21
19.748109176238188
  0
LINE
  8
_0-0_
  6
CONTINUOUS
 62
    7
 10
109.66182902242969
 20
25.638314126722264
 11
110.39736240981262
 21
26.373847514103829
  0
LINE
  8
_0-0_
  6
CONTINUOUS
 62
    7
 10
111.45672166952232
 20
25.352444322006534
 11
110.70578925102933
 21
24.601511903513085
  0
CIRCLE
  8
_0-0_
  6
CONTINUOUS
 62
    7
 10
100.00510532788581
 20
32.212142581198179
 40
1.6500000000000001
  0
ARC
  8
_0-0_
  6
CONTINUOUS
 62
    7
 10
91.505105327885815
 20
40.712142581198179
 40
1.5
 50
90
 51
180
  0
ARC
  8
_0-0_
  6
CONTINUOUS
 62
    7
 10
97.434037516020055
 20
7.2121425811981794
 40
5
 50
270
 51
314.99999999999955
  0
ARC
  8
_0-0_
  6
CONTINUOUS
 62
    7
 10
125.00510532788581
 20
34.783210393063484
 40
5
 50
314.99999999999977
 51
0
  0
ARC
  8
_0-0_
  6
CONTINUOUS
 62
    7
 10
90.305105327885997
 20
2.5121425811979066
 40
0.2999999999999998
 50
180
 51
270
  0
ARC
  8
_0-0_
  6
CONTINUOUS
 62
    7
 10
129.70510532788563
 20
41.912142581197998
 40
0.2999999999999998
 50
0
 51
90
  0
ARC
  8
_0-0_
  6
CONTINUOUS
 62
    7
 10
105.20916378275166
 20
16.542903767387827
 40
0.5999999998499998
 50
225
 51
315
  0
ARC
  8
_0-0_
  6
CONTINUOUS
 62
    7
 10
101.81505123390531
 20
19.937016316234178
 40
0.5999999998499998
 50
135
 51
225
  0
ARC
  8
_0-0_
  6
CONTINUOUS
 62
    7
 10
112.28023159284845
 20
30.402196675178232
 40
0.5999999998499998
 50
45
 51
135
  0
ARC
  8
_0-0_
  6
CONTINUOUS
 62
    7
 10
115.67434414169571
 20
27.00808412633188
 40
0.5999999998499998
 50
315.00000000000006
 51
45.00000000000005
  0
ARC
  8
_0-0_
  6
CONTINUOUS
 62
    7
 10
112.32001007024797
 20
27.133823777195005
 40
4.7979726877952675
 50
209.21600247589291
 51
240.78399752410706
  0
ARC
  8
_0-0_
  6
CONTINUOUS
 62
    7
 10
118.31227419448993
 20
33.126087901424228
 40
12.185477896575623
 50
221.78919008197266
 51
228.21080991802734
  0
ARC
  8
_0-0_
  6
CONTINUOUS
 62
    7
 10
110.47763508291797
 20
23.975795526588911
 40
1.1443579323911381
 50
244.11812031409386
 51
298.77089632225119
  0
ARC
  8
_0-0_
  6
CONTINUOUS
 62
    7
 10
109.90124932790155
 20
24.868770536558088
 40
2.2058059353745603
 50
300.7307072235771
 51
329.2692927764229
  0
ARC
  8
_0-0_
  6
CONTINUOUS
 62
    7
 10
110.79422433787028
 20
24.292384781541216
 40
1.1443579323911381
 50
331.22910367774887
 51
25.88187968590621
  0
ARC
  8
_0-0_
  6
CONTINUOUS
 62
    7
 10
107.63619608726464
 20
22.450009794211212
 40
4.7979726877952675
 50
29.216002475892946
 51
37.223758552801954
  0
ARC
  8
_0-0_
  6
CONTINUOUS
 62
    7
 10
110.73138555099746
 20
24.038634313463092
 40
0.3317259727581011
 50
243.78093483258863
 51
26.21906516741149
  0
ARC
  8
_0-0_
  6
CONTINUOUS
 62
    7
 10
109.41885674626343
 20
23.268850764036699
 40
1.8526146346434396
 50
29.644741742154327
 51
46.000075600874936
  0
ARC
  8
_0-0_
  6
CONTINUOUS
 62
    7
 10
111.50116910042294
 20
25.351163118195757
 40
1.8526146346434396
 50
224.28077569259486
 51
240.35525825784566
  0
ARC
  8
_0-0_
  6
CONTINUOUS
 62
    7
 10
109.22482060651515
 20
25.545199257944489
 40
0.3317259727581011
 50
63.780934832588585
 51
206.21906516741137
  0
ARC
  8
_0-0_
  6
CONTINUOUS
 62
    7
 10
110.53734941124827
 20
26.314982807370427
 40
1.8526146346434396
 50
209.64474174215434
 51
225.71922430740514
  0
ARC
  8
_0-0_
  6
CONTINUOUS
 62
    7
 10
108.45503705708876
 20
24.232670453211369
 40
1.8526146346434396
 50
49.352810002800915
 51
60.355258257845676
  0
ARC
  8
_0-0_
  6
CONTINUOUS
 62
    7
 10
109.47857107459373
 20
25.608038044818215
 40
1.1443579323911381
 50
64.118120314093829
 51
118.77089632225115
  0
ARC
  8
_0-0_
  6
CONTINUOUS
 62
    7
 10
107.63619608726464
 20
22.450009794211212
 40
4.7979726877952675
 50
54.866322719820886
 51
60.783997524107065
  0
ARC
  8
_0-0_
  6
CONTINUOUS
 62
    7
 10
110.05495682961106
 20
24.715063034849038
 40
2.2058059353745603
 50
120.73070722357708
 51
149.2692927764229
  0
ARC
  8
_0-0_
  6
CONTINUOUS
 62
    7
 10
109.16198181964143
 20
25.29144878986591
 40
1.1443579323911381
 50
151.22910367774887
 51
205.88187968590617
  0
ARC
  8
_0-0_
  6
CONTINUOUS
 62
    7
 10
114.85045150736738
 20
29.664265214313957
 40
4.7979726877952675
 50
209.21600247589291
 51
240.78399752410706
  0
ARC
  8
_0-0_
  6
CONTINUOUS
 62
    7
 10
120.84271563160843
 20
35.65652933854318
 40
12.185477896575623
 50
221.78919008197266
 51
228.21080991802734
  0
ARC
  8
_0-0_
  6
CONTINUOUS
 62
    7
 10
104.17437340015391
 20
18.988187107089573
 40
12.185477896575623
 50
41.789190081972663
 51
48.210809918027337
  0
ARC
  8
_0-0_
  6
CONTINUOUS
 62
    7
 10
113.26182698811505
 20
26.569075750582044
 40
0.3317259727581011
 50
243.78093483258863
 51
26.21906516741149
  0
ARC
  8
_0-0_
  6
CONTINUOUS
 62
    7
 10
112.43169076502005
 20
27.399211973677041
 40
2.2058059353745603
 50
300.7307072235771
 51
329.2692927764229
  0
ARC
  8
_0-0_
  6
CONTINUOUS
 62
    7
 10
113.32466577499059
 20
26.822826218660623
 40
1.1443579323911381
 50
331.22910367774887
 51
25.88187968590621
  0
ARC
  8
_0-0_
  6
CONTINUOUS
 62
    7
 10
113.00807652003647
 20
26.506236963706954
 40
1.1443579323911381
 50
244.11812031409386
 51
298.77089632225119
  0
ARC
  8
_0-0_
  6
CONTINUOUS
 62
    7
 10
110.16663752438313
 20
24.980451231330164
 40
4.7979726877952675
 50
29.216002475892946
 51
60.783997524107058
  0
ARC
  8
_0-0_
  6
CONTINUOUS
 62
    7
 10
111.94929818338193
 20
25.799292201154742
 40
1.8526146346434396
 50
29.644741742154327
 51
45.719224307405128
  0
ARC
  8
_0-0_
  6
CONTINUOUS
 62
    7
 10
114.03161053754235
 20
27.881604555314709
 40
1.8526146346434396
 50
224.28077569259486
 51
240.35525825784566
  0
ARC
  8
_0-0_
  6
CONTINUOUS
 62
    7
 10
113.06779084836768
 20
28.845424244489379
 40
1.8526146346434396
 50
209.64474174215434
 51
225.71922430740514
  0
ARC
  8
_0-0_
  6
CONTINUOUS
 62
    7
 10
111.75526204363456
 20
28.075640695062077
 40
0.3317259727581011
 50
63.780934832588585
 51
206.21906516741137
  0
ARC
  8
_0-0_
  6
CONTINUOUS
 62
    7
 10
110.98547849420726
 20
26.763111890329412
 40
1.8526146346434396
 50
44.280775692594872
 51
60.355258257845676
  0
ARC
  8
_0-0_
  6
CONTINUOUS
 62
    7
 10
112.58539826673046
 20
27.245504471967081
 40
2.2058059353745603
 50
120.73070722357708
 51
149.2692927764229
  0
ARC
  8
_0-0_
  6
CONTINUOUS
 62
    7
 10
111.69242325675992
 20
27.821890226983953
 40
1.1443579323911381
 50
151.22910367774887
 51
205.88187968590617
  0
ARC
  8
_0-0_
  6
CONTINUOUS
 62
    7
 10
112.00901251171314
 20
28.138479481937622
 40
1.1443579323911381
 50
64.118120314093829
 51
118.77089632225115
  0
LINE
  8
_0-0_
  6
CONTINUOUS
 62
    7
 10
241.78493516206476
 20
2.4208393763909157
 11
235.80864087559161
 21
2.2121425811981794
  0
LINE
  8
_0-0_
  6
CONTINUOUS
 62
    7
 10
235.80864087559161
 20
2.2121425811981794
 11
221.23258591701136
 21
2.2121425811981794
  0
LINE
  8
_0-0_
  6
CONTINUOUS
 62
    7
 10
222.6616760880442
 20
2.5069068592668486
 11
223.22744078739919
 21
34.919544777358453
  0
LINE
  8
_0-0_
  6
CONTINUOUS
 62
    7
 10
223.52739509594625
 20
35.214309055427123
 11
234.93777673807648
 21
35.214309055427123
  0
LINE
  8
_0-0_
  6
CONTINUOUS
 62
    7
 10
235.23773104662263
 20
34.919544777358453
 11
235.8033129662453
 21
2.5173783031294192
  0
LINE
  8
_0-0_
  6
CONTINUOUS
 62
    7
 10
220.03258591701155
 20
42.212142581198179
 11
242.93258591701073
 21
42.212142581198179
  0
LINE
  8
_0-0_
  6
CONTINUOUS
 62
    7
 10
243.23258591701091
 20
41.912142581197998
 11
243.23258591701091
 21
3.9199256169197838
  0
LINE
  8
_0-0_
  6
CONTINUOUS
 62
    7
 10
219.73258591701136
 20
3.7121425811981794
 11
219.73258591701136
 21
41.912142581197998
  0
ARC
  8
_0-0_
  6
CONTINUOUS
 62
    7
 10
241.73258591701091
 20
3.9199256169197838
 40
1.5
 50
272.00000000000011
 51
0.0000000000002417
  0
ARC
  8
_0-0_
  6
CONTINUOUS
 62
    7
 10
234.93777673807648
 20
34.914309055427395
 40
0.2999999999999998
 50
1.0000000000000904
 51
90.000000000000043
  0
ARC
  8
_0-0_
  6
CONTINUOUS
 62
    7
 10
223.52739509594625
 20
34.914309055427395
 40
0.2999999999999998
 50
89.999999999999986
 51
179.00000000000017
  0
ARC
  8
_0-0_
  6
CONTINUOUS
 62
    7
 10
242.93258591701073
 20
41.912142581197998
 40
0.2999999999999998
 50
0.0000000000003562
 51
90
  0
ARC
  8
_0-0_
  6
CONTINUOUS
 62
    7
 10
236.10326727479236
 20
2.5226140250604772
 40
0.2999999999999998
 50
181.00000000000017
 51
272.00000000000023
  0
ARC
  8
_0-0_
  6
CONTINUOUS
 62
    7
 10
222.36172177949715
 20
2.5121425811979066
 40
0.2999999999999998
 50
270
 51
359.00000000000006
  0
ARC
  8
_0-0_
  6
CONTINUOUS
 62
    7
 10
221.23258591701136
 20
3.7121425811981794
 40
1.5
 50
180
 51
270
  0
ARC
  8
_0-0_
  6
CONTINUOUS
 62
    7
 10
220.03258591701155
 20
41.912142581197998
 40
0.2999999999999998
 50
89.999999999999986
 51
180
  0
CIRCLE
  8
_0-0_
  6
CONTINUOUS
 62
    7
 10
229.23258591701091
 20
22.212142581198179
 40
3.25
  0
LINE
  8
_0-0_
  6
CONTINUOUS
 62
    7
 10
179.82032051311182
 20
103.03262578905372
 11
179.82032051311182
 21
108.43262588442116
  0
LINE
  8
_0-0_
  6
CONTINUOUS
 62
    7
 10
179.19532051311182
 20
103.03262578905372
 11
179.19532051311182
 21
108.43262588442116
  0
LINE
  8
_0-0_
  6
CONTINUOUS
 62
    7
 10
178.57032051311182
 20
103.03262578905372
 11
178.57032051311182
 21
108.43262588442116
  0
LINE
  8
_0-0_
  6
CONTINUOUS
 62
    7
 10
177.94532051311182
 20
103.03262578905372
 11
177.94532051311182
 21
108.43262588442116
  0
LINE
  8
_0-0_
  6
CONTINUOUS
 62
    7
 10
177.32032051311182
 20
103.03262578905372
 11
177.32032051311182
 21
108.43262588442116
  0
LINE
  8
_0-0_
  6
CONTINUOUS
 62
    7
 10
186.69532051311182
 20
103.03262578905372
 11
186.69532051311182
 21
108.43262588442116
  0
LINE
  8
_0-0_
  6
CONTINUOUS
 62
    7
 10
186.69532051311182
 20
103.03262578905372
 11
186.09532060847926
 21
102.43262588442116
  0
LINE
  8
_0-0_
  6
CONTINUOUS
 62
    7
 10
177.29532041774439
 20
102.43262588442116
 11
186.09532060847926
 21
102.43262588442116
  0
LINE
  8
_0-0_
  6
CONTINUOUS
 62
    7
 10
176.69532051311182
 20
103.03262578905372
 11
176.69532051311182
 21
108.43262588442116
  0
LINE
  8
_0-0_
  6
CONTINUOUS
 62
    7
 10
177.29532041774439
 20
102.43262588442116
 11
176.69532051311182
 21
103.03262578905372
  0
LINE
  8
_0-0_
  6
CONTINUOUS
 62
    7
 10
186.69532051311182
 20
103.03262578905372
 11
176.69532051311182
 21
103.03262578905372
  0
LINE
  8
_0-0_
  6
CONTINUOUS
 62
    7
 10
184.19532051311182
 20
93.987083703519545
 11
184.19532051311182
 21
96.873835116864882
  0
LINE
  8
_0-0_
  6
CONTINUOUS
 62
    7
 10
184.19532051311182
 20
96.873835116864882
 11
181.69532051311182
 21
98.31721082353755
  0
LINE
  8
_0-0_
  6
CONTINUOUS
 62
    7
 10
181.69532051311182
 20
98.31721082353755
 11
179.19532051311182
 21
96.873835116864882
  0
LINE
  8
_0-0_
  6
CONTINUOUS
 62
    7
 10
179.19532051311182
 20
96.873835116864882
 11
179.19532051311182
 21
93.987083703519545
  0
LINE
  8
_0-0_
  6
CONTINUOUS
 62
    7
 10
179.19532051311182
 20
93.987083703519545
 11
181.69532051311182
 21
92.543707996846877
  0
LINE
  8
_0-0_
  6
CONTINUOUS
 62
    7
 10
181.69532051311182
 20
92.543707996846877
 11
184.19532051311182
 21
93.987083703519545
  0
CIRCLE
  8
_0-0_
  6
CONTINUOUS
 62
    7
 10
181.69532051311182
 20
95.430459410192213
 40
5
  0
LINE
  8
_0-1_
  6
PHANTOM1
 62
  152
 10
42.46783992398673
 20
115.43045941019221
 11
126.56156306075457
 21
115.43045941019221
  0
LINE
  8
_0-1_
  6
PHANTOM1
 62
  152
 10
42.46783992398673
 20
155.43045941019221
 11
126.56156306075457
 21
155.43045941019221
  0
LINE
  8
_0-1_
  6
PHANTOM1
 62
  152
 10
161.69532051311182
 20
115.43045941019221
 11
201.69532051311182
 21
115.43045941019221
  0
LINE
  8
_0-1_
  6
PHANTOM1
 62
  152
 10
201.69532051311182
 20
115.43045941019221
 11
201.69532051311182
 21
155.43045941019221
  0
LINE
  8
_0-1_
  6
PHANTOM1
 62
  152
 10
201.69532051311182
 20
155.43045941019221
 11
161.69532051311182
 21
155.43045941019221
  0
LINE
  8
_0-1_
  6
PHANTOM1
 62
  152
 10
161.69532051311182
 20
155.43045941019221
 11
161.69532051311182
 21
115.43045941019221
  0
LINE
  8
_0-1_
  6
PHANTOM1
 62
  152
 10
42.46783992398673
 20
175.26212430419594
 11
42.46783992398673
 21
39.529498991638377
  0
LINE
  8
_0-1_
  6
PHANTOM1
 62
  152
 10
2.4678399239867304
 20
175.26212430419594
 11
2.4678399239867304
 21
39.529498991638377
  0
LINE
  8
_0-1_
  6
DASHED2
 62
  152
 10
82.167839923986548
 20
108.43045941019221
 11
52.46783992398673
 21
108.43045941019221
  0
LINE
  8
_0-1_
  6
CENTER1
 62
  152
 10
52.46783992398673
 20
108.43045941019221
 11
52.46783992398673
 21
102.43045941019221
  0
LINE
  8
_0-1_
  6
DASHED2
 62
  152
 10
49.46783992398673
 20
105.43045941019221
 11
49.46783992398673
 21
75.730459410191941
  0
LINE
  8
ADD_LINE
  6
DOT
 62
  152
 10
62.904488558324601
 20
94.993810775853888
 11
59.51037600947825
 21
98.387923324700694
  0
LINE
  8
_0-1_
  6
CENTER1
 62
  152
 10
55.46783992398673
 20
105.43045941019221
 11
49.46783992398673
 21
105.43045941019221
  0
ARC
  8
_0-1_
  6
DASHED2
 62
  152
 10
52.46783992398673
 20
105.43045941019221
 40
3
 50
90.000000000000028
 51
180
  0
ARC
  8
_0-1_
  6
DASHED2
 62
  152
 10
82.167839923986548
 20
108.73045941019194
 40
0.2999999999999998
 50
270
 51
0
  0
ARC
  8
_0-1_
  6
DASHED2
 62
  152
 10
49.167839923986548
 20
75.730459410191941
 40
0.2999999999999998
 50
270
 51
0
  0
LINE
  8
_0-1_
  6
CENTER1
 62
  152
 10
181.69532051311182
 20
75.430459410192213
 11
181.69532051311182
 21
115.43045941019221
  0
LINE
  8
_0-1_
  6
CENTER1
 62
  152
 10
176.50097696640125
 20
95.430459410192213
 11
186.94045080643821
 21
95.430459410192213
  0
LINE
  8
_0-1_
  6
DASHED2
 62
  152
 10
129.70510532788563
 20
35.212142581198179
 11
100.00510532788581
 21
35.212142581198179
  0
LINE
  8
_0-1_
  6
CENTER1
 62
  152
 10
100.00510532788581
 20
35.212142581198179
 11
100.00510532788581
 21
29.212142581198179
  0
LINE
  8
_0-1_
  6
DASHED2
 62
  152
 10
97.005105327885815
 20
32.212142581198179
 11
97.005105327885815
 21
2.5121425811979066
  0
LINE
  8
ADD_LINE
  6
DOT
 62
  152
 10
110.44175396222369
 20
21.775493946859854
 11
107.04764141337733
 21
25.16960649570666
  0
LINE
  8
_0-1_
  6
CENTER1
 62
  152
 10
110.00510532788581
 20
33.580355245203748
 11
110.00510532788581
 21
43.730473156361597
  0
LINE
  8
_0-1_
  6
CENTER1
 62
  152
 10
103.00510532788581
 20
32.212142581198179
 11
97.005105327885815
 21
32.212142581198179
  0
LINE
  8
_0-1_
  6
CENTER1
 62
  152
 10
98.877876531999448
 20
22.212142581198179
 11
87.579236411551449
 21
22.212142581198179
  0
ARC
  8
_0-1_
  6
DASHED2
 62
  152
 10
100.00510532788581
 20
32.212142581198179
 40
3
 50
90.000000000000028
 51
180
  0
ARC
  8
_0-1_
  6
DASHED2
 62
  152
 10
129.70510532788563
 20
35.512142581197907
 40
0.2999999999999998
 50
270
 51
0
  0
ARC
  8
_0-1_
  6
DASHED2
 62
  152
 10
96.705105327885633
 20
2.5121425811979066
 40
0.2999999999999998
 50
270
 51
0
  0
LINE
  8
_0-1_
  6
CENTER1
 62
  152
 10
229.23258591701091
 20
2.2121425811981794
 11
229.23258591701091
 21
42.212142581198179
  0
LINE
  8
_0-1_
  6
CENTER1
 62
  152
 10
224.03824237030034
 20
22.212142581198179
 11
234.47771621033729
 21
22.212142581198179
  0
LINE
  8
_0-1_
  6
DASHED2
 62
  152
 10
59.46783992398673
 20
122.63048053718342
 11
59.46783992398673
 21
108.43262588442116
  0
LINE
  8
_0-1_
  6
DASHED2
 62
  152
 10
59.917839971670446
 20
108.43262588442116
 11
59.917839971670446
 21
122.630478868149
  0
LINE
  8
_0-1_
  6
DASHED2
 62
  152
 10
65.017839876303015
 20
108.43262588442116
 11
65.017839876303015
 21
122.63045995242805
  0
LINE
  8
_0-1_
  6
DASHED2
 62
  152
 10
65.46783992398673
 20
122.63045828339364
 11
65.46783992398673
 21
108.43262588442116
  0
LINE
  8
_0-1_
  6
DASHED2
 62
  152
 10
62.46783992398673
 20
108.43262588442116
 11
61.760733142800063
 21
109.13973266560771
  0
LINE
  8
_0-1_
  6
DASHED2
 62
  152
 10
62.46783992398673
 20
108.43262588442116
 11
63.174946705173397
 21
109.13973266560771
  0
LINE
  8
_0-1_
  6
DASHED2
 62
  152
 10
60.59283992398673
 20
103.03262578905372
 11
60.59283992398673
 21
108.43262588442116
  0
LINE
  8
_0-1_
  6
DASHED2
 62
  152
 10
59.96783992398673
 20
103.03262578905372
 11
59.96783992398673
 21
108.43262588442116
  0
LINE
  8
_0-1_
  6
DASHED2
 62
  152
 10
59.34283992398673
 20
103.03262578905372
 11
59.34283992398673
 21
108.43262588442116
  0
LINE
  8
_0-1_
  6
DASHED2
 62
  152
 10
58.71783992398673
 20
103.03262578905372
 11
58.71783992398673
 21
108.43262588442116
  0
LINE
  8
_0-1_
  6
DASHED2
 62
  152
 10
58.09283992398673
 20
103.03262578905372
 11
58.09283992398673
 21
108.43262588442116
  0
LINE
  8
_0-1_
  6
DASHED2
 62
  152
 10
67.46783992398673
 20
103.03262578905372
 11
67.46783992398673
 21
108.43262588442116
  0
LINE
  8
_0-1_
  6
DASHED2
 62
  152
 10
67.46783992398673
 20
103.03262578905372
 11
66.867840019354162
 21
102.43262588442116
  0
LINE
  8
_0-1_
  6
DASHED2
 62
  152
 10
58.067839828619299
 20
102.43262588442116
 11
66.867840019354162
 21
102.43262588442116
  0
LINE
  8
_0-1_
  6
DASHED2
 62
  152
 10
57.46783992398673
 20
103.03262578905372
 11
57.46783992398673
 21
108.43262588442116
  0
LINE
  8
_0-1_
  6
DASHED2
 62
  152
 10
58.067839828619299
 20
102.43262588442116
 11
57.46783992398673
 21
103.03262578905372
  0
LINE
  8
_0-1_
  6
DASHED2
 62
  152
 10
67.46783992398673
 20
103.03262578905372
 11
57.46783992398673
 21
103.03262578905372
  0
LINE
  8
_0-1_
  6
DASHED2
 62
  152
 10
35.267818796995584
 20
92.430459410192213
 11
49.465673449757787
 21
92.430459410192213
  0
LINE
  8
_0-1_
  6
DASHED2
 62
  152
 10
49.465673449757787
 20
92.880459457875929
 11
35.267820466029889
 21
92.880459457875929
  0
LINE
  8
_0-1_
  6
DASHED2
 62
  152
 10
49.465673449757787
 20
97.980459362508498
 11
35.267839381750946
 21
97.980459362508498
  0
LINE
  8
_0-1_
  6
DASHED2
 62
  152
 10
35.267841050785364
 20
98.430459410192213
 11
49.465673449757787
 21
98.430459410192213
  0
LINE
  8
_0-1_
  6
DASHED2
 62
  152
 10
49.465673449757787
 20
95.430459410192213
 11
48.758566668571234
 21
94.723352629005547
  0
LINE
  8
_0-1_
  6
DASHED2
 62
  152
 10
49.465673449757787
 20
95.430459410192213
 11
48.758566668571234
 21
96.13756619137888
  0
LINE
  8
_0-1_
  6
DASHED2
 62
  152
 10
54.865673545125219
 20
93.555459410192213
 11
49.465673449757787
 21
93.555459410192213
  0
LINE
  8
_0-1_
  6
DASHED2
 62
  152
 10
54.865673545125219
 20
92.930459410192213
 11
49.465673449757787
 21
92.930459410192213
  0
LINE
  8
_0-1_
  6
DASHED2
 62
  152
 10
54.865673545125219
 20
92.305459410192213
 11
49.465673449757787
 21
92.305459410192213
  0
LINE
  8
_0-1_
  6
DASHED2
 62
  152
 10
54.865673545125219
 20
91.680459410192213
 11
49.465673449757787
 21
91.680459410192213
  0
LINE
  8
_0-1_
  6
DASHED2
 62
  152
 10
54.865673545125219
 20
91.055459410192213
 11
49.465673449757787
 21
91.055459410192213
  0
LINE
  8
_0-1_
  6
DASHED2
 62
  152
 10
54.865673545125219
 20
100.43045941019221
 11
49.465673449757787
 21
100.43045941019221
  0
LINE
  8
_0-1_
  6
DASHED2
 62
  152
 10
54.865673545125219
 20
100.43045941019221
 11
55.465673449757787
 21
99.830459505559645
  0
LINE
  8
_0-1_
  6
DASHED2
 62
  152
 10
55.465673449757787
 20
91.030459314824782
 11
55.465673449757787
 21
99.830459505559645
  0
LINE
  8
_0-1_
  6
DASHED2
 62
  152
 10
54.865673545125219
 20
90.430459410192213
 11
49.465673449757787
 21
90.430459410192213
  0
LINE
  8
_0-1_
  6
DASHED2
 62
  152
 10
55.465673449757787
 20
91.030459314824782
 11
54.865673545125219
 21
90.430459410192213
  0
LINE
  8
_0-1_
  6
DASHED2
 62
  152
 10
54.865673545125219
 20
100.43045941019221
 11
54.865673545125219
 21
90.430459410192213
  0
LINE
  8
_0-1_
  6
CENTER1
 62
  152
 10
56.927714518046514
 20
95.430459410192213
 11
33.492996196328704
 21
95.430459410192213
  0
LINE
  8
_0-1_
  6
CENTER1
 62
  152
 10
62.46783992398673
 20
101.30315074197773
 11
62.46783992398673
 21
124.37359883071548
  0
LINE
  8
ADD_LINE
  6
DOT
 62
  152
 10
181.69532051311182
 20
108.43262588442116
 11
180.98821373192516
 21
109.13973266560771
  0
LINE
  8
ADD_LINE
  6
DOT
 62
  152
 10
181.69532051311182
 20
108.43262588442116
 11
182.40242729429849
 21
109.13973266560771
  0
LINE
  8
_0-1_
  6
DASHED2
 62
  152
 10
178.69532051311182
 20
122.63048053718342
 11
178.69532051311182
 21
108.43262588442116
  0
LINE
  8
_0-1_
  6
DASHED2
 62
  152
 10
179.14532056079554
 20
108.43262588442116
 11
179.14532056079554
 21
122.630478868149
  0
LINE
  8
_0-1_
  6
DASHED2
 62
  152
 10
184.24532046542811
 20
108.43262588442116
 11
184.24532046542811
 21
122.63045995242805
  0
LINE
  8
_0-1_
  6
DASHED2
 62
  152
 10
184.69532051311182
 20
122.63045828339364
 11
184.69532051311182
 21
108.43262588442116
  0
LINE
  8
_0-1_
  6
DASHED2
 62
  152
 10
65.46783992398673
 20
122.98262607515602
 11
65.017839876303015
 21
123.43262588442116
  0
LINE
  8
_0-1_
  6
DASHED2
 62
  152
 10
59.917839971670446
 20
123.43262588442116
 11
65.017839876303015
 21
123.43262588442116
  0
LINE
  8
_0-1_
  6
DASHED2
 62
  152
 10
59.917839971670446
 20
123.43262588442116
 11
59.46783992398673
 21
122.98262607515602
  0
LINE
  8
_0-1_
  6
DASHED2
 62
  152
 10
65.46783992398673
 20
122.98262607515602
 11
59.46783992398673
 21
122.98262607515602
  0
LINE
  8
_0-1_
  6
DASHED2
 62
  152
 10
65.017839876303015
 20
122.63045995242805
 11
65.017839876303015
 21
123.43262588442116
  0
LINE
  8
_0-1_
  6
DASHED2
 62
  152
 10
65.46783992398673
 20
122.98262607515602
 11
65.46783992398673
 21
122.63045828339364
  0
LINE
  8
_0-1_
  6
DASHED2
 62
  152
 10
59.917839971670446
 20
122.630478868149
 11
59.917839971670446
 21
123.43262588442116
  0
LINE
  8
_0-1_
  6
DASHED2
 62
  152
 10
59.46783992398673
 20
122.98262607515602
 11
59.46783992398673
 21
122.63048053718342
  0
LINE
  8
_0-1_
  6
DASHED2
 62
  152
 10
69.96783992398673
 20
116.03047098398429
 11
54.96783992398673
 21
116.03047098398429
  0
LINE
  8
_0-1_
  6
DASHED2
 62
  152
 10
69.96783992398673
 20
116.03047098398429
 11
69.96783992398673
 21
122.63044159305127
  0
LINE
  8
_0-1_
  6
DASHED2
 62
  152
 10
69.96783992398673
 20
122.63044159305127
 11
54.96783992398673
 21
122.63049722752572
  0
LINE
  8
_0-1_
  6
DASHED2
 62
  152
 10
54.96783992398673
 20
116.03047098398429
 11
54.96783992398673
 21
122.63049722752572
  0
LINE
  8
_0-1_
  6
DASHED2
 62
  152
 10
69.967833118044382
 20
120.79544384306394
 11
54.967833118044382
 21
120.79549947753833
  0
LINE
  8
_0-1_
  6
DASHED2
 62
  152
 10
69.967826572614285
 20
119.0306846360761
 11
54.967826572614285
 21
119.0307402705505
  0
LINE
  8
_0-1_
  6
DASHED2
 62
  152
 10
34.915673259022924
 20
98.430459410192213
 11
34.465673449757787
 21
97.980459362508498
  0
LINE
  8
_0-1_
  6
DASHED2
 62
  152
 10
34.465673449757787
 20
92.880459457875929
 11
34.465673449757787
 21
97.980459362508498
  0
LINE
  8
_0-1_
  6
DASHED2
 62
  152
 10
34.465673449757787
 20
92.880459457875929
 11
34.915673259022924
 21
92.430459410192213
  0
LINE
  8
_0-1_
  6
DASHED2
 62
  152
 10
34.915673259022924
 20
98.430459410192213
 11
34.915673259022924
 21
92.430459410192213
  0
LINE
  8
_0-1_
  6
DASHED2
 62
  152
 10
35.267839381750946
 20
97.980459362508498
 11
34.465673449757787
 21
97.980459362508498
  0
LINE
  8
_0-1_
  6
DASHED2
 62
  152
 10
34.915673259022924
 20
98.430459410192213
 11
35.267841050785364
 21
98.430459410192213
  0
LINE
  8
_0-1_
  6
DASHED2
 62
  152
 10
35.267820466029889
 20
92.880459457875929
 11
34.465673449757787
 21
92.880459457875929
  0
LINE
  8
_0-1_
  6
DASHED2
 62
  152
 10
34.915673259022924
 20
92.430459410192213
 11
35.267818796995584
 21
92.430459410192213
  0
LINE
  8
_0-1_
  6
DASHED2
 62
  152
 10
41.8678283501946
 20
102.93045941019221
 11
41.8678283501946
 21
87.930459410192213
  0
LINE
  8
_0-1_
  6
DASHED2
 62
  152
 10
41.867828350194713
 20
102.93045941019221
 11
35.267857741127614
 21
102.93045941019221
  0
LINE
  8
_0-1_
  6
DASHED2
 62
  152
 10
35.267857741127614
 20
102.93045941019221
 11
35.267802106653221
 21
87.930459410192213
  0
LINE
  8
_0-1_
  6
DASHED2
 62
  152
 10
41.8678283501946
 20
87.930459410192213
 11
35.267802106653221
 21
87.930459410192213
  0
LINE
  8
_0-1_
  6
DASHED2
 62
  152
 10
37.102855491114951
 20
102.93045260424987
 11
37.102799856640559
 21
87.930452604249865
  0
LINE
  8
_0-1_
  6
DASHED2
 62
  152
 10
38.867614698102898
 20
102.93044605881983
 11
38.867559063628505
 21
87.930446058819825
  0
LINE
  8
_0-1_
  6
DASHED2
 62
  152
 10
184.69532051311182
 20
122.98262607515602
 11
184.24532046542811
 21
123.43262588442116
  0
LINE
  8
_0-1_
  6
DASHED2
 62
  152
 10
179.14532056079554
 20
123.43262588442116
 11
184.24532046542811
 21
123.43262588442116
  0
LINE
  8
_0-1_
  6
DASHED2
 62
  152
 10
179.14532056079554
 20
123.43262588442116
 11
178.69532051311182
 21
122.98262607515602
  0
LINE
  8
_0-1_
  6
DASHED2
 62
  152
 10
184.69532051311182
 20
122.98262607515602
 11
178.69532051311182
 21
122.98262607515602
  0
LINE
  8
_0-1_
  6
DASHED2
 62
  152
 10
181.69532051311182
 20
115.43045950557871
 11
182.40242729427939
 21
116.13756628674628
  0
LINE
  8
_0-1_
  6
DASHED2
 62
  152
 10
180.98821373190606
 20
116.13756628674628
 11
181.69532051309272
 21
115.43045950555961
  0
LINE
  8
_0-1_
  6
DASHED2
 62
  152
 10
185.19528481207124
 20
122.63045642904353
 11
178.19545001633139
 21
122.63048239118552
  0
LINE
  8
_0-1_
  6
DASHED2
 62
  152
 10
178.19545001633139
 20
122.63048239118552
 11
175.0166050348115
 21
120.79521742601628
  0
LINE
  8
_0-1_
  6
DASHED2
 62
  152
 10
174.69536654118644
 20
119.03045941019218
 11
176.60791197350034
 21
119.03045941019218
  0
LINE
  8
_0-1_
  6
DASHED2
 62
  152
 10
175.0166050348115
 20
120.79521742601628
 11
174.69536654118644
 21
119.03045941019218
  0
LINE
  8
_0-1_
  6
DASHED2
 62
  152
 10
185.19520286604109
 20
122.63048239118552
 11
188.37404784756097
 21
120.79521742601628
  0
LINE
  8
_0-1_
  6
DASHED2
 62
  152
 10
188.69528634118603
 20
119.03045941019218
 11
186.78274090887214
 21
119.03045941019218
  0
LINE
  8
_0-1_
  6
DASHED2
 62
  152
 10
188.37404784756097
 20
120.79521742601628
 11
188.69528634118603
 21
119.03045941019218
  0
LINE
  8
_0-1_
  6
DASHED2
 62
  152
 10
184.24532046542811
 20
122.63045995242805
 11
184.24532046542811
 21
123.43262588442116
  0
LINE
  8
_0-1_
  6
DASHED2
 62
  152
 10
184.69532051311182
 20
122.98262607515602
 11
184.69532051311182
 21
122.63045828339364
  0
LINE
  8
_0-1_
  6
DASHED2
 62
  152
 10
179.14532056079554
 20
122.630478868149
 11
179.14532056079554
 21
123.43262588442116
  0
LINE
  8
_0-1_
  6
DASHED2
 62
  152
 10
178.69532051311182
 20
122.98262607515602
 11
178.69532051311182
 21
122.63048053718342
  0
LINE
  8
_0-1_
  6
DASHED2
 62
  152
 10
176.60791197350034
 20
119.03045941019218
 11
176.87034266258604
 21
116.03047098398429
  0
LINE
  8
_0-1_
  6
DASHED2
 62
  152
 10
176.87034266258604
 20
116.03047098398429
 11
186.52030126403531
 21
116.03047098398429
  0
LINE
  8
_0-1_
  6
DASHED2
 62
  152
 10
186.78280232094528
 20
119.03045941019218
 11
186.52030126403531
 21
116.03047098398429
  0
LINE
  8
_0-1_
  6
CONTINUOUS
 62
  152
 10
147.82115171887199
 20
100.73045960092708
 11
147.82115171887199
 21
110.13045921945735
  0
LINE
  8
_0-1_
  6
CONTINUOUS
 62
  152
 10
148.10959614850799
 20
103.7304593625085
 11
158.10959614850799
 21
103.7304593625085
  0
LINE
  8
_0-1_
  6
CONTINUOUS
 62
  152
 10
148.10959614850799
 20
107.13045945787593
 11
158.10959614850799
 21
107.13045945787593
  0
LINE
  8
_0-1_
  6
CONTINUOUS
 62
  152
 10
157.80959595777313
 20
103.43045941019221
 11
157.80959595777313
 21
107.43045941019221
  0
LINE
  8
ADD_LINE
  6
DOT
 62
    9
 10
148.10959614850799
 20
105.43045941019221
 11
148.81670292969466
 21
106.13756619137888
  0
LINE
  8
ADD_LINE
  6
DOT
 62
    9
 10
148.10959614850799
 20
105.43045941019221
 11
148.81670292969466
 21
104.72335262900555
  0
LINE
  8
_0-1_
  6
CONTINUOUS
 62
   56
 10
147.82115171887199
 20
100.73045960092708
 11
148.10959614850799
 21
100.73045960092708
  0
LINE
  8
_0-1_
  6
CONTINUOUS
 62
   56
 10
147.82115171887199
 20
110.13045921945735
 11
148.10959614850799
 21
110.13045921945735
  0
LINE
  8
_0-1_
  6
CONTINUOUS
 62
   56
 10
148.10959614850799
 20
107.43045941019221
 11
157.80959595777313
 21
107.43045941019221
  0
LINE
  8
_0-1_
  6
CONTINUOUS
 62
   56
 10
158.10959614850799
 20
107.13045945787593
 11
157.80959595777313
 21
107.43045941019221
  0
LINE
  8
_0-1_
  6
CONTINUOUS
 62
   56
 10
158.10959614850799
 20
103.7304593625085
 11
158.10959614850799
 21
107.13045945787593
  0
LINE
  8
_0-1_
  6
CONTINUOUS
 62
   56
 10
158.10959614850799
 20
103.7304593625085
 11
157.80959595777313
 21
103.43045941019221
  0
LINE
  8
_0-1_
  6
CONTINUOUS
 62
   56
 10
148.10959614850799
 20
103.43045941019221
 11
157.80959595777313
 21
103.43045941019221
  0
ARC
  8
_0-1_
  6
CONTINUOUS
 62
   56
 10
151.70959605314056
 20
105.43045941019221
 40
6.0999999046325684
 50
129.60191345214844
 51
230.3980712890625
  0
LINE
  8
_0-1_
  6
CONTINUOUS
 62
   56
 10
148.10959614847201
 20
100.73045960092708
 11
148.10959614847201
 21
110.13045921945735
  0
LINE
  8
_0-1_
  6
CENTER1
 62
  152
 10
136.39436332187205
 20
111.98997895273334
 11
136.39436332187205
 21
98.455610594011034
  0
LINE
  8
_0-1_
  6
CONTINUOUS
 62
   56
 10
138.49436322650462
 20
105.01045942330524
 11
138.49436322650462
 21
105.85045939707919
  0
LINE
  8
_0-1_
  6
CONTINUOUS
 62
   56
 10
135.97436333498507
 20
107.53045931482478
 11
136.81436330875903
 21
107.53045931482478
  0
LINE
  8
_0-1_
  6
CONTINUOUS
 62
   56
 10
134.29436341723948
 20
105.01045942330524
 11
134.29436341723948
 21
105.85045939707919
  0
LINE
  8
_0-1_
  6
CONTINUOUS
 62
   56
 10
135.97436333498507
 20
103.33045950555965
 11
136.81436330875903
 21
103.33045950555965
  0
LINE
  8
_0-1_
  6
CONTINUOUS
 62
   56
 10
136.81436330875903
 20
106.69045940065547
 11
136.81436330875903
 21
107.53045931482478
  0
LINE
  8
_0-1_
  6
CONTINUOUS
 62
   56
 10
137.65436331233531
 20
105.85045939707919
 11
138.49436322650462
 21
105.85045939707919
  0
LINE
  8
_0-1_
  6
CONTINUOUS
 62
   56
 10
137.65436331233531
 20
105.01045942330524
 11
138.49436322650462
 21
105.01045942330524
  0
LINE
  8
_0-1_
  6
CONTINUOUS
 62
   56
 10
136.81436330875903
 20
104.17045941972896
 11
136.81436330875903
 21
103.33045950555965
  0
LINE
  8
_0-1_
  6
CONTINUOUS
 62
   56
 10
135.97436333498507
 20
104.17045941972896
 11
135.97436333498507
 21
103.33045950555965
  0
LINE
  8
_0-1_
  6
CONTINUOUS
 62
   56
 10
135.13436333140879
 20
105.01045942330524
 11
134.29436341723948
 21
105.01045942330524
  0
LINE
  8
_0-1_
  6
CONTINUOUS
 62
   56
 10
135.13436333140879
 20
105.85045939707919
 11
134.29436341723948
 21
105.85045939707919
  0
LINE
  8
_0-1_
  6
CONTINUOUS
 62
   56
 10
135.97436333498507
 20
106.69045940065547
 11
135.97436333498507
 21
107.53045931482478
  0
CIRCLE
  8
_0-1_
  6
CONTINUOUS
 62
   56
 10
136.39436332187205
 20
105.43045941019221
 40
4.6999998092651367
  0
ARC
  8
_0-1_
  6
CONTINUOUS
 62
   56
 10
137.65436331233531
 20
106.69045940065547
 40
0.8399999737739563
 50
180
 51
270
  0
ARC
  8
_0-1_
  6
CONTINUOUS
 62
   56
 10
137.65436331233531
 20
104.17045941972896
 40
0.8399999737739563
 50
90
 51
180
  0
ARC
  8
_0-1_
  6
CONTINUOUS
 62
   56
 10
135.13436333140879
 20
104.17045941972896
 40
0.8399999737739563
 50
0
 51
90
  0
ARC
  8
_0-1_
  6
CONTINUOUS
 62
   56
 10
135.13436333140879
 20
106.69045940065547
 40
0.8399999737739563
 50
270
 51
0
  0
LINE
  8
_0-1_
  6
CENTER1
 62
  152
 10
129.57349165249599
 20
105.43045941019221
 11
199.20999982076063
 21
105.43045941019221
  0
ENDSEC
  0
EOF
