  0
SECTION
  2
HEADER
  9
$ACADVER
  1
AC1009
  9
$INSBASE
 10
0
 20
0
 30
0
  9
$EXTMIN
 10
0
 20
0
  9
$EXTMAX
 10
1189
 20
841
  9
$LIMMIN
 10
0
 20
0
  9
$LIMMAX
 10
1189
 20
841
  9
$LTSCALE
 40
1
  0
ENDSEC
  0
SECTION
  2
TABLES
  0
TABLE
  2
LTYPE
 70
     9
  0
LTYPE
  2
CONTINUOUS
 70
    64
  3
実線
 72
    65
 73
     0
 40
0.0
  0
LTYPE
  2
DASHED1
 70
    64
  3
--  --  --  --  --  --  --  --  
 72
    65
 73
     2
 40
2.5
 49
1.25
 49
-1.25
  0
LTYPE
  2
DASHED2
 70
    64
  3
----    ----    ----    ----    
 72
    65
 73
     2
 40
5.0
 49
2.5
 49
-2.5
  0
LTYPE
  2
DASHED3
 70
    64
  3
------  ------  ------  ------  
 72
    65
 73
     2
 40
5.0
 49
3.75
 49
-1.25
  0
LTYPE
  2
CENTER1
 70
    64
  3
----- - ----- - ----- - ----- - 
 72
    65
 73
     4
 40
10.0
 49
6.25
 49
-1.25
 49
1.25
 49
-1.25
  0
LTYPE
  2
CENTER2
 70
    64
  3
----------  --  ----------  --  
 72
    65
 73
     4
 40
20.0
 49
12.5
 49
-2.5
 49
2.5
 49
-2.5
  0
LTYPE
  2
PHANTOM1
 70
    64
  3
--- - - --- - - --- - - --- - - 
 72
    65
 73
     6
 40
10.0
 49
3.25
 49
-1.25
 49
1.25
 49
-1.25
 49
1.25
 49
-1.25
  0
LTYPE
  2
PHANTOM2
 70
    64
  3
--------  -  -  --------  -  -  
 72
    65
 73
     6
 40
20.0
 49
10.0
 49
-2.5
 49
1.25
 49
-2.5
 49
1.25
 49
-2.5
  0
LTYPE
  2
DOT
 70
    64
  3
-   -   -   -   -   -   -   -   
 72
    65
 73
     2
 40
2.5
 49
0.625
 49
-1.875
  0
LTYPE
  2
DUMMY
 70
    64
  3
ダミー
 72
    65
 73
     0
 40
0.0
  0
LTYPE
  2
RAND1
 70
    64
  3
ランダム線1
 72
    65
 73
     4
 40
10.0
 49
1.0
 49
-2.0
 49
3.0
 49
-4.0
  0
LTYPE
  2
RAND2
 70
    64
  3
ランダム線2
 72
    65
 73
     4
 40
14.0
 49
2.0
 49
-3.0
 49
4.0
 49
-5.0
  0
LTYPE
  2
RAND3
 70
    64
  3
ランダム線3
 72
    65
 73
     4
 40
18.0
 49
3.0
 49
-4.0
 49
5.0
 49
-6.0
  0
LTYPE
  2
RAND4
 70
    64
  3
ランダム線4
 72
    65
 73
     4
 40
22.0
 49
4.0
 49
-5.0
 49
6.0
 49
-7.0
  0
LTYPE
  2
RAND5
 70
    64
  3
ランダム線5
 72
    65
 73
     4
 40
26.0
 49
5.0
 49
-6.0
 49
7.0
 49
-8.0
  0
LTYPE
  2
LONG1
 70
    64
  3
----------  --  ----------  --  
 72
    65
 73
     4
 40
40.0
 49
32.5
 49
-2.5
 49
2.5
 49
-2.5
  0
LTYPE
  2
LONG2
 70
    64
  3
--------  -  -  --------  -  -  
 72
    65
 73
     6
 40
40.0
 49
30.0
 49
-2.5
 49
1.25
 49
-2.5
 49
1.25
 49
-2.5
  0
LTYPE
  2
LONG3
 70
    64
  3
+++++++++++++++..+++++++++++++++
 72
    65
 73
     2
 40
40.0
 49
37.5
 49
-2.5
  0
LTYPE
  2
LONG4
 70
    64
  3
+++++++++++++++..+++++++++++++++
 72
    65
 73
     2
 40
80.0
 49
75.0
 49
-5.0
  0
LTYPE
  2
LONG5
 70
    64
  3
----------  --  ----------  --  
 72
    65
 73
     4
 40
60.0
 49
37.5
 49
-7.5
 49
7.5
 49
-7.5
  0
LTYPE
  2
dashed
 70
   64
  3
-------   -------------   ------
 72
   65
 73
    2
 40
7.5
 49
6
 49
-1.5
  0
LTYPE
  2
dashed_spaced
 70
   64
  3
----        --------        ----
 72
   65
 73
    2
 40
12
 49
6
 49
-6
  0
LTYPE
  2
long_dashed_dotted
 70
   64
  3
------------- --- --------------
 72
   65
 73
    4
 40
15.25
 49
12
 49
-1.5
 49
0.25
 49
-1.5
  0
LTYPE
  2
long_dashed_double-dotted
 70
   64
  3
----------- --- --- ------------
 72
   65
 73
    6
 40
17
 49
12
 49
-1.5
 49
0.25
 49
-1.5
 49
0.25
 49
-1.5
  0
LTYPE
  2
long_dashed_triplicate-dotted
 70
   64
  3
--------- --- --- --- ----------
 72
   65
 73
    8
 40
18.75
 49
12
 49
-1.5
 49
0.25
 49
-1.5
 49
0.25
 49
-1.5
 49
0.25
 49
-1.5
  0
LTYPE
  2
dotted
 70
   64
  3
   -       -       -       -    
 72
   65
 73
    2
 40
1.75
 49
0.25
 49
-1.5
  0
LTYPE
  2
chain
 70
   64
  3
-------------- -- --------------
 72
   65
 73
    4
 40
18.5
 49
12
 49
-1.5
 49
3.5
 49
-1.5
  0
LTYPE
  2
chain_double_dash
 70
   64
  3
------------ -- -- -------------
 72
   65
 73
    6
 40
23.5
 49
12
 49
-1.5
 49
3.5
 49
-1.5
 49
3.5
 49
-1.5
  0
LTYPE
  2
dashed_dotted
 70
   64
  3
-----------     -     ----------
 72
   65
 73
    4
 40
9.25
 49
6
 49
-1.5
 49
0.25
 49
-1.5
  0
LTYPE
  2
double-dashed_dotted
 70
   64
  3
------   -----------   -   -----
 72
   65
 73
    6
 40
16.75
 49
6
 49
-1.5
 49
6
 49
-1.5
 49
0.25
 49
-1.5
  0
LTYPE
  2
dashed_double-dotted
 70
   64
  3
---------    -    -    ---------
 72
   65
 73
    6
 40
11
 49
6
 49
-1.5
 49
0.25
 49
-1.5
 49
0.25
 49
-1.5
  0
LTYPE
  2
double-dashed_double-dotted
 70
   64
  3
-----   ---------   -   -   ----
 72
   65
 73
    8
 40
18.5
 49
6
 49
-1.5
 49
6
 49
-1.5
 49
0.25
 49
-1.5
 49
0.25
 49
-1.5
  0
LTYPE
  2
dashed_triplicate-dotted
 70
   64
  3
-------    -    -    -    ------
 72
   65
 73
    8
 40
12.75
 49
6
 49
-1.5
 49
0.25
 49
-1.5
 49
0.25
 49
-1.5
 49
0.25
 49
-1.5
  0
LTYPE
  2
double-dashed_triplicate-dotted
 70
   64
  3
-----  ---------  -  -  -  -----
 72
   65
 73
   10
 40
20.25
 49
6
 49
-1.5
 49
6
 49
-1.5
 49
0.25
 49
-1.5
 49
0.25
 49
-1.5
 49
0.25
 49
-1.5
  0
LTYPE
  2
undefined
 70
   64
  3
--------------------------------
 72
   65
 73
    0
 40
0
  0
LTYPE
  2
_
 70
   64
  3
                                
 72
   65
 73
    0
 40
0
  0
LTYPE
  2
__18
 70
   64
  3
                                
 72
   65
 73
    0
 40
0
  0
LTYPE
  2
__19
 70
   64
  3
                                
 72
   65
 73
    0
 40
0
  0
LTYPE
  2
__20
 70
   64
  3
                                
 72
   65
 73
    0
 40
0
  0
LTYPE
  2
__21
 70
   64
  3
                                
 72
   65
 73
    0
 40
0
  0
LTYPE
  2
__22
 70
   64
  3
                                
 72
   65
 73
    0
 40
0
  0
LTYPE
  2
__23
 70
   64
  3
                                
 72
   65
 73
    0
 40
0
  0
LTYPE
  2
__24
 70
   64
  3
                                
 72
   65
 73
    0
 40
0
  0
LTYPE
  2
__25
 70
   64
  3
                                
 72
   65
 73
    0
 40
0
  0
LTYPE
  2
__26
 70
   64
  3
                                
 72
   65
 73
    0
 40
0
  0
LTYPE
  2
__27
 70
   64
  3
                                
 72
   65
 73
    0
 40
0
  0
LTYPE
  2
__28
 70
   64
  3
                                
 72
   65
 73
    0
 40
0
  0
LTYPE
  2
__29
 70
   64
  3
                                
 72
   65
 73
    0
 40
0
  0
LTYPE
  2
__30
 70
   64
  3
                                
 72
   65
 73
    0
 40
0
  0
LTYPE
  2
__31
 70
   64
  3
                                
 72
   65
 73
    0
 40
0
  0
LTYPE
  2
__32
 70
   64
  3
                                
 72
   65
 73
    0
 40
0
  0
ENDTAB
  0
TABLE
  2
STYLE
  5
3
100
AcDbSymbolTable
 70
     1
  0
STYLE
  5
10
100
AcDbSymbolTableRecord
100
AcDbTextStyleTableRecord
  2
STANDARD
 70
     0
 40
0.0
 41
1.0
 50
0.0
 71
     0
 42
0.2
  3
txt
  4
bigfont.shx
  0
STYLE
  5
26
100
AcDbSymbolTableRecord
100
AcDbTextStyleTableRecord
  2
TATEGAKI
 70
    68
 40
0.0
 41
1.0
 50
0.0
 71
     0
 42
1.0
  3
txt
  4
bigfont.shx
  0
ENDTAB
  0
TABLE
  2
LAYER
 70
    4
  0
LAYER
  2
_0-0_
 70
   64
 62
    7
  6
CONTINUOUS
  0
LAYER
  2
_0-1_
 70
   64
 62
    7
  6
CONTINUOUS
  0
LAYER
  2
_0-f_
 70
   64
 62
    7
  6
CONTINUOUS
  0
LAYER
  2
ADD_LINE
 70
   64
 62
    7
  6
CONTINUOUS
  0
ENDTAB
  0
ENDSEC
  0
SECTION
  2
BLOCKS
  0
ENDSEC
  0
SECTION
  2
ENTITIES
  0
TEXT
  8
_0-f_
 62
    7
 10
1.4589172727811501
 20
1.1931139495007415
 40
4.2999999999999998
 41
0.744186046511628
 50
0
  1
BL40　BL40S
  0
LINE
  8
_0-0_
  6
CONTINUOUS
 62
    7
 10
189.19074122989343
 20
2.6683143286524569
 11
189.75632314951611
 21
35.070480802881491
  0
CIRCLE
  8
_0-0_
  6
CONTINUOUS
 62
    7
 10
195.76146827912783
 20
22.363078606721217
 40
3.0499999999999998
  0
ARC
  8
_0-0_
  6
CONTINUOUS
 62
    7
 10
183.26146827912783
 20
4.0708616424428214
 40
1.5
 50
179.99999999999966
 51
267.99999999999983
  0
ARC
  8
_0-0_
  6
CONTINUOUS
 62
    7
 10
190.05627745806225
 20
35.065245080950433
 40
0.2999999999999998
 50
90
 51
178.99999999999991
  0
LINE
  8
_0-0_
  6
CONTINUOUS
 62
    7
 10
201.46665910019271
 20
35.36524508095016
 11
190.05627745806225
 21
35.36524508095016
  0
ARC
  8
_0-0_
  6
CONTINUOUS
 62
    7
 10
201.46665910019271
 20
35.065245080950433
 40
0.2999999999999998
 50
0.9999999999998487
 51
90.000000000000057
  0
ARC
  8
_0-0_
  6
CONTINUOUS
 62
    7
 10
182.06146827912801
 20
42.063078606721035
 40
0.2999999999999998
 50
90
 51
179.99999999999963
  0
LINE
  8
_0-0_
  6
CONTINUOUS
 62
    7
 10
181.76146827912783
 20
42.063078606721035
 11
181.76146827912783
 21
7.5835031567432338
  0
LINE
  8
_0-0_
  6
CONTINUOUS
 62
    7
 10
181.76146827912783
 20
7.5835031567432338
 11
181.76146827912783
 21
4.0708616424428214
  0
ARC
  8
_0-0_
  6
CONTINUOUS
 62
    7
 10
188.89078692134638
 20
2.6735500505835148
 40
0.2999999999999998
 50
267.99999999999977
 51
358.99999999999989
  0
LINE
  8
_0-0_
  6
CONTINUOUS
 62
    7
 10
189.18541332054713
 20
2.3630786067212171
 11
183.20911903407398
 21
2.5717754019139534
  0
LINE
  8
_0-0_
  6
CONTINUOUS
 62
    7
 10
202.33237810809476
 20
2.6578428847898863
 11
201.76661340873977
 21
35.070480802881491
  0
ARC
  8
_0-0_
  6
CONTINUOUS
 62
    7
 10
202.63233241664182
 20
2.6630786067209442
 40
0.2999999999999998
 50
180.99999999999997
 51
270
  0
ARC
  8
_0-0_
  6
CONTINUOUS
 62
    7
 10
203.7614682791276
 20
3.8630786067212171
 40
1.5
 50
270
 51
0
  0
LINE
  8
_0-0_
  6
CONTINUOUS
 62
    7
 10
205.2614682791276
 20
42.063078606721035
 11
205.2614682791276
 21
3.8630786067212171
  0
ARC
  8
_0-0_
  6
CONTINUOUS
 62
    7
 10
204.96146827912742
 20
42.063078606721035
 40
0.2999999999999998
 50
0.0000000000000127
 51
90.000000000000043
  0
LINE
  8
_0-0_
  6
CONTINUOUS
 62
    7
 10
189.18541332054713
 20
2.3630786067212171
 11
203.7614682791276
 21
2.3630786067212171
  0
LINE
  8
_0-0_
  6
CONTINUOUS
 62
    7
 10
204.96146827912742
 20
42.363078606721217
 11
182.06146827912801
 21
42.363078606721217
  0
LINE
  8
_0-0_
  6
CONTINUOUS
 62
    7
 10
201.11146827912705
 20
42.363078606721217
 11
200.53411800993797
 21
43.363078606721217
  0
LINE
  8
_0-0_
  6
CONTINUOUS
 62
    7
 10
200.53411800993797
 20
43.363078606721217
 11
195.76146827912646
 21
43.613202580408768
  0
LINE
  8
_0-0_
  6
CONTINUOUS
 62
    7
 10
190.41146827912792
 20
42.363078606721217
 11
190.988818548317
 21
43.363078606721217
  0
LINE
  8
_0-0_
  6
CONTINUOUS
 62
    7
 10
195.76146827912646
 20
43.613202580408768
 11
190.988818548317
 21
43.363078606721217
  0
LINE
  8
_0-0_
  6
CONTINUOUS
 62
    7
 10
99.143240151549321
 20
42.363078606721217
 11
137.34324015154937
 21
42.363078606721217
  0
LINE
  8
_0-0_
  6
CONTINUOUS
 62
    7
 10
97.643240151549321
 20
40.863078606721217
 11
97.643240151549321
 21
2.6630786067209442
  0
ARC
  8
_0-0_
  6
CONTINUOUS
 62
    7
 10
99.143240151549321
 20
40.863078606721217
 40
1.5
 50
89.999999999999986
 51
180
  0
ARC
  8
_0-0_
  6
CONTINUOUS
 62
    7
 10
132.64324015154932
 20
34.934146418586522
 40
5
 50
315
 51
0
  0
LINE
  8
_0-0_
  6
CONTINUOUS
 62
    7
 10
108.60770624561667
 20
3.8275447007883372
 11
136.17877405748197
 21
31.398612512653642
  0
ARC
  8
_0-0_
  6
CONTINUOUS
 62
    7
 10
105.07217233968379
 20
7.3630786067212171
 40
5
 50
270
 51
315
  0
LINE
  8
_0-0_
  6
CONTINUOUS
 62
    7
 10
113.27156267502176
 20
16.269575724306549
 11
123.73674303396581
 21
26.734756083250147
  0
ARC
  8
_0-0_
  6
CONTINUOUS
 62
    7
 10
123.31247896535945
 20
27.159020151855373
 40
0.5999999998499998
 50
315
 51
45
  0
LINE
  8
_0-0_
  6
CONTINUOUS
 62
    7
 10
123.73674303396581
 20
27.583284220461508
 11
120.34263048511878
 21
30.977396769308314
  0
LINE
  8
_0-0_
  6
CONTINUOUS
 62
    7
 10
109.02892198896291
 20
20.512216410364715
 11
119.49410234790696
 21
30.977396769309223
  0
ARC
  8
_0-0_
  6
CONTINUOUS
 62
    7
 10
119.91836641651309
 20
30.553132700702633
 40
0.5999999998499998
 50
45
 51
135
  0
ARC
  8
_0-0_
  6
CONTINUOUS
 62
    7
 10
109.45318605756904
 20
20.087952341759035
 40
0.5999999998499998
 50
135
 51
225
  0
LINE
  8
_0-0_
  6
CONTINUOUS
 62
    7
 10
109.02892198896222
 20
19.663688273152445
 11
112.42303453780926
 21
16.269575724305184
  0
ARC
  8
_0-0_
  6
CONTINUOUS
 62
    7
 10
112.84729860641539
 20
16.693839792912229
 40
0.5999999998499998
 50
225
 51
315
  0
LINE
  8
_0-0_
  6
CONTINUOUS
 62
    7
 10
122.68416735885546
 20
27.123578670684935
 11
120.6627714198172
 21
25.102182731646451
  0
LINE
  8
_0-0_
  6
CONTINUOUS
 62
    7
 10
120.6627714198172
 20
25.102182731646451
 11
120.14805716961803
 21
25.616896981845628
  0
LINE
  8
_0-0_
  6
CONTINUOUS
 62
    7
 10
120.14805716961803
 20
25.616896981845628
 11
121.44946916589436
 21
26.918308978121047
  0
LINE
  8
_0-0_
  6
CONTINUOUS
 62
    7
 10
121.44946916589436
 20
26.918308978121047
 11
119.07697981911508
 21
29.290798324900322
  0
LINE
  8
_0-0_
  6
CONTINUOUS
 62
    7
 10
122.68416735885546
 20
27.123578670684935
 11
119.79696376187701
 21
30.010782267662933
  0
LINE
  8
_0-0_
  6
CONTINUOUS
 62
    7
 10
119.07697981911508
 20
29.290798324900322
 11
119.79696376187701
 21
30.010782267662933
  0
LINE
  8
_0-0_
  6
CONTINUOUS
 62
    7
 10
117.22006995953063
 20
27.433888465316784
 11
120.10727355650909
 21
24.546684868338332
  0
LINE
  8
_0-0_
  6
CONTINUOUS
 62
    7
 10
120.10727355650909
 20
24.546684868338332
 11
118.0853515084865
 21
22.524762820315743
  0
LINE
  8
_0-0_
  6
CONTINUOUS
 62
    7
 10
117.570637258288
 20
23.03947707051492
 11
118.0853515084865
 21
22.524762820315743
  0
LINE
  8
_0-0_
  6
CONTINUOUS
 62
    7
 10
118.8751286454675
 20
24.343968457694416
 11
117.570637258288
 21
23.03947707051492
  0
LINE
  8
_0-0_
  6
CONTINUOUS
 62
    7
 10
118.17007250643758
 20
25.049024596724109
 11
118.8751286454675
 21
24.343968457694416
  0
LINE
  8
_0-0_
  6
CONTINUOUS
 62
    7
 10
116.98997680240689
 20
23.868928892693191
 11
118.17007250643758
 21
25.049024596724109
  0
LINE
  8
_0-0_
  6
CONTINUOUS
 62
    7
 10
116.50680921444871
 20
24.352096480651824
 11
116.98997680240689
 21
23.868928892693191
  0
LINE
  8
_0-0_
  6
CONTINUOUS
 62
    7
 10
116.50680921444871
 20
24.352096480651824
 11
117.6869049184794
 21
25.532192184682287
  0
LINE
  8
_0-0_
  6
CONTINUOUS
 62
    7
 10
117.01735354884602
 20
26.201743554315897
 11
117.6869049184794
 21
25.532192184682287
  0
LINE
  8
_0-0_
  6
CONTINUOUS
 62
    7
 10
115.71286216166652
 20
24.897252167136401
 11
117.01735354884602
 21
26.201743554315897
  0
LINE
  8
_0-0_
  6
CONTINUOUS
 62
    7
 10
117.22006995953063
 20
27.433888465316784
 11
115.19814791150873
 21
25.411966417294195
  0
LINE
  8
_0-0_
  6
CONTINUOUS
 62
    7
 10
115.19814791150873
 20
25.411966417294195
 11
115.71286216166652
 21
24.897252167136401
  0
ARC
  8
_0-0_
  6
CONTINUOUS
 62
    7
 10
112.72155895555204
 20
20.048173864359967
 40
4.7979726877952666
 50
29.216002475892946
 51
60.783997524107058
  0
ARC
  8
_0-0_
  6
CONTINUOUS
 62
    7
 10
106.72929483132305
 20
14.055909740118011
 40
12.185477896575621
 50
41.789190081972691
 51
48.210809918027351
  0
ARC
  8
_0-0_
  6
CONTINUOUS
 62
    7
 10
115.87958720615836
 20
21.890548851689061
 40
1.1443579323911379
 50
331.22910367774887
 51
25.88187968590621
  0
ARC
  8
_0-0_
  6
CONTINUOUS
 62
    7
 10
114.98661219618896
 20
22.466934606705934
 40
2.2058059353745598
 50
300.7307072235771
 51
329.2692927764229
  0
ARC
  8
_0-0_
  6
CONTINUOUS
 62
    7
 10
115.56299795120606
 20
21.573959596736756
 40
1.1443579323911381
 50
244.11812031409386
 51
298.77089632225113
  0
ARC
  8
_0-0_
  6
CONTINUOUS
 62
    7
 10
117.40537293853583
 20
24.73198784734285
 40
4.7979726877952666
 50
232.776241447198
 51
240.78399752410704
  0
LINE
  8
_0-0_
  6
CONTINUOUS
 62
    7
 10
115.25387082923419
 20
21.662394683578611
 11
114.50293841074051
 21
20.911462265084708
  0
ARC
  8
_0-0_
  6
CONTINUOUS
 62
    7
 10
115.81674841928418
 20
21.636798383610483
 40
0.3317259727581011
 50
243.78093483258857
 51
26.219065167411387
  0
ARC
  8
_0-0_
  6
CONTINUOUS
 62
    7
 10
116.58653196871057
 20
22.949327188343602
 40
1.8526146346434391
 50
223.99992439912506
 51
240.35525825784566
  0
ARC
  8
_0-0_
  6
CONTINUOUS
 62
    7
 10
114.50421961455152
 20
20.867014834184545
 40
1.8526146346434391
 50
29.644741742154352
 51
45.719224307405156
  0
LINE
  8
_0-0_
  6
CONTINUOUS
 62
    7
 10
114.21706860602501
 20
22.706354912177346
 11
113.48153521864322
 21
21.970821524794871
  0
ARC
  8
_0-0_
  6
CONTINUOUS
 62
    7
 10
114.31018347480256
 20
23.14336332809188
 40
0.3317259727581011
 50
63.780934832588585
 51
206.21906516741137
  0
ARC
  8
_0-0_
  6
CONTINUOUS
 62
    7
 10
113.54039992537685
 20
21.830834523359215
 40
1.8526146346434391
 50
44.280775692594844
 51
60.355258257845648
  0
ARC
  8
_0-0_
  6
CONTINUOUS
 62
    7
 10
115.6227122795359
 20
23.913146877518273
 40
1.8526146346434391
 50
209.64474174215434
 51
220.64718999719906
  0
ARC
  8
_0-0_
  6
CONTINUOUS
 62
    7
 10
114.24734468792906
 20
22.889612860013756
 40
1.1443579323911379
 50
151.22910367774887
 51
205.88187968590617
  0
ARC
  8
_0-0_
  6
CONTINUOUS
 62
    7
 10
117.40537293853583
 20
24.73198784734285
 40
4.7979726877952666
 50
209.21600247589291
 51
215.13367728017909
  0
ARC
  8
_0-0_
  6
CONTINUOUS
 62
    7
 10
115.14031969789824
 20
22.313227104996884
 40
2.2058059353745598
 50
120.73070722357708
 51
149.2692927764229
  0
ARC
  8
_0-0_
  6
CONTINUOUS
 62
    7
 10
114.56393394288136
 20
23.206202114966061
 40
1.1443579323911379
 50
64.118120314093829
 51
118.77089632225113
  0
ARC
  8
_0-0_
  6
CONTINUOUS
 62
    7
 10
110.19111751843332
 20
17.517732427240105
 40
4.7979726877952666
 50
29.216002475892946
 51
60.783997524107058
  0
ARC
  8
_0-0_
  6
CONTINUOUS
 62
    7
 10
104.19885339420409
 20
11.525468302999514
 40
12.185477896575621
 50
41.789190081972691
 51
48.210809918027351
  0
ARC
  8
_0-0_
  6
CONTINUOUS
 62
    7
 10
120.8671956256577
 20
28.193810534453121
 40
12.185477896575621
 50
221.78919008197266
 51
228.21080991802734
  0
ARC
  8
_0-0_
  6
CONTINUOUS
 62
    7
 10
113.28630698216523
 20
19.106356946491985
 40
0.3317259727581011
 50
243.78093483258857
 51
26.219065167411387
  0
ARC
  8
_0-0_
  6
CONTINUOUS
 62
    7
 10
112.45617075907023
 20
19.936493169587891
 40
2.2058059353745598
 50
300.7307072235771
 51
329.2692927764229
  0
ARC
  8
_0-0_
  6
CONTINUOUS
 62
    7
 10
113.03255651408642
 20
19.043518159617349
 40
1.1443579323911381
 50
244.11812031409386
 51
298.77089632225113
  0
ARC
  8
_0-0_
  6
CONTINUOUS
 62
    7
 10
113.34914576904009
 20
19.360107414571019
 40
1.1443579323911379
 50
331.22910367774887
 51
25.88187968590621
  0
ARC
  8
_0-0_
  6
CONTINUOUS
 62
    7
 10
114.87493150141711
 20
22.201546410224807
 40
4.7979726877952666
 50
209.21600247589291
 51
240.78399752410706
  0
ARC
  8
_0-0_
  6
CONTINUOUS
 62
    7
 10
114.0560905315923
 20
20.418885751225105
 40
1.8526146346434391
 50
224.28077569259486
 51
240.35525825784566
  0
ARC
  8
_0-0_
  6
CONTINUOUS
 62
    7
 10
111.97377817743256
 20
18.336573397065138
 40
1.8526146346434391
 50
29.644741742154352
 51
45.719224307405156
  0
ARC
  8
_0-0_
  6
CONTINUOUS
 62
    7
 10
111.00995848825789
 20
19.300393086239808
 40
1.8526146346434391
 50
44.280775692594844
 51
60.355258257845648
  0
ARC
  8
_0-0_
  6
CONTINUOUS
 62
    7
 10
111.77974203768497
 20
20.612921890972927
 40
0.3317259727581011
 50
63.780934832588585
 51
206.21906516741137
  0
ARC
  8
_0-0_
  6
CONTINUOUS
 62
    7
 10
113.09227084241763
 20
21.38270544040023
 40
1.8526146346434391
 50
209.64474174215434
 51
225.71922430740514
  0
ARC
  8
_0-0_
  6
CONTINUOUS
 62
    7
 10
112.60987826077996
 20
19.782785667877476
 40
2.2058059353745598
 50
120.73070722357708
 51
149.2692927764229
  0
ARC
  8
_0-0_
  6
CONTINUOUS
 62
    7
 10
112.03349250576309
 20
20.675760677847563
 40
1.1443579323911379
 50
64.118120314093829
 51
118.77089632225113
  0
ARC
  8
_0-0_
  6
CONTINUOUS
 62
    7
 10
111.71690325080965
 20
20.359171422894349
 40
1.1443579323911379
 50
151.22910367774887
 51
205.88187968590617
  0
ARC
  8
_0-0_
  6
CONTINUOUS
 62
    7
 10
115.81674841928418
 20
21.636798383610483
 40
0.3317259727581011
 50
243.78093483258857
 51
26.219065167411387
  0
ARC
  8
_0-0_
  6
CONTINUOUS
 62
    7
 10
113.28630698216523
 20
19.106356946491985
 40
0.3317259727581011
 50
243.78093483258857
 51
26.219065167411387
  0
LINE
  8
_0-0_
  6
CONTINUOUS
 62
    7
 10
137.64324015154932
 20
34.934146418586522
 11
137.64324015154932
 21
42.063078606721035
  0
ARC
  8
_0-0_
  6
CONTINUOUS
 62
    7
 10
137.34324015154937
 20
42.063078606721035
 40
0.2999999999999998
 50
0
 51
90
  0
LINE
  8
_0-0_
  6
CONTINUOUS
 62
    7
 10
105.07217233968379
 20
2.3630786067212171
 11
97.943240151549276
 21
2.3630786067212171
  0
ARC
  8
_0-0_
  6
CONTINUOUS
 62
    7
 10
97.943240151549276
 20
2.6630786067209442
 40
0.2999999999999998
 50
180
 51
270
  0
LINE
  8
_0-0_
  6
CONTINUOUS
 62
    7
 10
135.64324015154932
 20
43.613202580408768
 11
135.64324015154932
 21
42.363078606721217
  0
LINE
  8
_0-0_
  6
CONTINUOUS
 62
    7
 10
125.64324015154932
 20
43.613202580408768
 11
135.64324015154932
 21
43.613202580408768
  0
LINE
  8
_0-0_
  6
CONTINUOUS
 62
    7
 10
125.64324015154932
 20
43.613202580408768
 11
125.64324015154932
 21
42.363078606721217
  0
LINE
  8
_0-0_
  6
CONTINUOUS
 62
    7
 10
109.64324015154932
 20
43.613202580408768
 11
109.64324015154932
 21
42.363078606721217
  0
LINE
  8
_0-0_
  6
CONTINUOUS
 62
    7
 10
99.643240151549321
 20
43.613202580408768
 11
109.64324015154932
 21
43.613202580408768
  0
LINE
  8
_0-0_
  6
CONTINUOUS
 62
    7
 10
99.643240151549321
 20
43.613202580408768
 11
99.643240151549321
 21
42.363078606721217
  0
LINE
  8
_0-0_
  6
CONTINUOUS
 62
    7
 10
125.64324015154932
 20
43.363078606721217
 11
135.64324015154932
 21
43.363078606721217
  0
LINE
  8
_0-0_
  6
CONTINUOUS
 62
    7
 10
99.643240151549321
 20
43.363078606721217
 11
109.64324015154932
 21
43.363078606721217
  0
LINE
  8
_0-0_
  6
CONTINUOUS
 62
    7
 10
96.393116177862225
 20
4.3630786067207623
 11
97.643240151549549
 21
4.3630786067207623
  0
LINE
  8
_0-0_
  6
CONTINUOUS
 62
    7
 10
96.393116177862225
 20
14.363078606720762
 11
96.393116177862225
 21
4.3630786067207623
  0
LINE
  8
_0-0_
  6
CONTINUOUS
 62
    7
 10
96.393116177862225
 20
14.363078606720762
 11
97.643240151549549
 21
14.363078606720762
  0
LINE
  8
_0-0_
  6
CONTINUOUS
 62
    7
 10
96.393116177861771
 20
30.363078606720762
 11
97.643240151549094
 21
30.363078606720762
  0
LINE
  8
_0-0_
  6
CONTINUOUS
 62
    7
 10
96.393116177861771
 20
40.363078606720762
 11
96.393116177861771
 21
30.363078606720762
  0
LINE
  8
_0-0_
  6
CONTINUOUS
 62
    7
 10
96.393116177861771
 20
40.363078606720762
 11
97.643240151549094
 21
40.363078606720762
  0
LINE
  8
_0-0_
  6
CONTINUOUS
 62
    7
 10
96.643240151560235
 20
14.363078606720762
 11
96.643240151560235
 21
4.3630786067207623
  0
LINE
  8
_0-0_
  6
CONTINUOUS
 62
    7
 10
96.64324015155978
 20
40.363078606720762
 11
96.64324015155978
 21
30.363078606720762
  0
LINE
  8
_0-0_
  6
CONTINUOUS
 62
    7
 10
43.833815585354387
 20
110.0385471385365
 11
82.033815585354546
 21
110.0385471385365
  0
LINE
  8
_0-0_
  6
CONTINUOUS
 62
    7
 10
42.333815585354387
 20
108.5385471385365
 11
42.333815585354387
 21
70.338547138536228
  0
ARC
  8
_0-0_
  6
CONTINUOUS
 62
    7
 10
43.833815585354387
 20
108.5385471385365
 40
1.5
 50
89.999999999999986
 51
180
  0
ARC
  8
_0-0_
  6
CONTINUOUS
 62
    7
 10
77.3338155853545
 20
102.60961495040181
 40
5
 50
315
 51
0
  0
LINE
  8
_0-0_
  6
CONTINUOUS
 62
    7
 10
53.298281679421848
 20
71.503013232603621
 11
80.869349491287153
 21
99.074081044468926
  0
ARC
  8
_0-0_
  6
CONTINUOUS
 62
    7
 10
49.762747773488968
 20
75.038547138536501
 40
5
 50
270
 51
315
  0
LINE
  8
_0-0_
  6
CONTINUOUS
 62
    7
 10
57.962138108826935
 20
83.945044256121832
 11
68.427318467770988
 21
94.410224615065431
  0
ARC
  8
_0-0_
  6
CONTINUOUS
 62
    7
 10
68.003054399164625
 20
94.834488683670656
 40
0.5999999998499998
 50
315
 51
45
  0
LINE
  8
_0-0_
  6
CONTINUOUS
 62
    7
 10
68.427318467770988
 20
95.258752752276791
 11
65.033205918923954
 21
98.652865301123597
  0
LINE
  8
_0-0_
  6
CONTINUOUS
 62
    7
 10
53.719497422768086
 20
88.187684942179999
 11
64.184677781712139
 21
98.652865301124507
  0
ARC
  8
_0-0_
  6
CONTINUOUS
 62
    7
 10
64.608941850318274
 20
98.228601232517917
 40
0.5999999998499998
 50
45
 51
135
  0
ARC
  8
_0-0_
  6
CONTINUOUS
 62
    7
 10
54.143761491374221
 20
87.763420873574319
 40
0.5999999998499998
 50
135
 51
225
  0
LINE
  8
_0-0_
  6
CONTINUOUS
 62
    7
 10
53.719497422767404
 20
87.339156804967729
 11
57.113609971614437
 21
83.945044256120468
  0
ARC
  8
_0-0_
  6
CONTINUOUS
 62
    7
 10
57.537874040220572
 20
84.369308324727513
 40
0.5999999998499998
 50
225
 51
315
  0
LINE
  8
_0-0_
  6
CONTINUOUS
 62
    7
 10
67.374742792660641
 20
94.799047202500219
 11
65.353346853622384
 21
92.777651263461735
  0
LINE
  8
_0-0_
  6
CONTINUOUS
 62
    7
 10
65.353346853622384
 20
92.777651263461735
 11
64.838632603423207
 21
93.292365513660911
  0
LINE
  8
_0-0_
  6
CONTINUOUS
 62
    7
 10
64.838632603423207
 20
93.292365513660911
 11
66.140044599699536
 21
94.593777509936331
  0
LINE
  8
_0-0_
  6
CONTINUOUS
 62
    7
 10
66.140044599699536
 20
94.593777509936331
 11
63.767555252920261
 21
96.966266856715606
  0
LINE
  8
_0-0_
  6
CONTINUOUS
 62
    7
 10
67.374742792660641
 20
94.799047202500219
 11
64.487539195682189
 21
97.686250799478216
  0
LINE
  8
_0-0_
  6
CONTINUOUS
 62
    7
 10
63.767555252920261
 20
96.966266856715606
 11
64.487539195682189
 21
97.686250799478216
  0
LINE
  8
_0-0_
  6
CONTINUOUS
 62
    7
 10
61.910645393335813
 20
95.109356997132068
 11
64.797848990314264
 21
92.222153400153616
  0
LINE
  8
_0-0_
  6
CONTINUOUS
 62
    7
 10
64.797848990314264
 20
92.222153400153616
 11
62.775926942291676
 21
90.200231352131027
  0
LINE
  8
_0-0_
  6
CONTINUOUS
 62
    7
 10
62.261212692093181
 20
90.714945602330204
 11
62.775926942291676
 21
90.200231352131027
  0
LINE
  8
_0-0_
  6
CONTINUOUS
 62
    7
 10
63.565704079272678
 20
92.0194369895097
 11
62.261212692093181
 21
90.714945602330204
  0
LINE
  8
_0-0_
  6
CONTINUOUS
 62
    7
 10
62.860647940242757
 20
92.724493128539393
 11
63.565704079272678
 21
92.0194369895097
  0
LINE
  8
_0-0_
  6
CONTINUOUS
 62
    7
 10
61.680552236212066
 20
91.544397424508475
 11
62.860647940242757
 21
92.724493128539393
  0
LINE
  8
_0-0_
  6
CONTINUOUS
 62
    7
 10
61.197384648253887
 20
92.027565012467107
 11
61.680552236212066
 21
91.544397424508475
  0
LINE
  8
_0-0_
  6
CONTINUOUS
 62
    7
 10
61.197384648253887
 20
92.027565012467107
 11
62.377480352284579
 21
93.207660716497571
  0
LINE
  8
_0-0_
  6
CONTINUOUS
 62
    7
 10
61.707928982651197
 20
93.877212086131181
 11
62.377480352284579
 21
93.207660716497571
  0
LINE
  8
_0-0_
  6
CONTINUOUS
 62
    7
 10
60.403437595471701
 20
92.572720698951684
 11
61.707928982651197
 21
93.877212086131181
  0
LINE
  8
_0-0_
  6
CONTINUOUS
 62
    7
 10
61.910645393335813
 20
95.109356997132068
 11
59.888723345313906
 21
93.087434949109479
  0
LINE
  8
_0-0_
  6
CONTINUOUS
 62
    7
 10
59.888723345313906
 20
93.087434949109479
 11
60.403437595471701
 21
92.572720698951684
  0
ARC
  8
_0-0_
  6
CONTINUOUS
 62
    7
 10
57.41213438935722
 20
87.723642396175251
 40
4.7979726877952666
 50
29.216002475892946
 51
60.783997524107058
  0
ARC
  8
_0-0_
  6
CONTINUOUS
 62
    7
 10
51.419870265128225
 20
81.731378271933295
 40
12.185477896575621
 50
41.789190081972691
 51
48.210809918027351
  0
ARC
  8
_0-0_
  6
CONTINUOUS
 62
    7
 10
60.570162639963542
 20
89.566017383504345
 40
1.1443579323911379
 50
331.22910367774887
 51
25.88187968590621
  0
ARC
  8
_0-0_
  6
CONTINUOUS
 62
    7
 10
59.677187629994137
 20
90.142403138521217
 40
2.2058059353745598
 50
300.7307072235771
 51
329.2692927764229
  0
ARC
  8
_0-0_
  6
CONTINUOUS
 62
    7
 10
60.253573385011236
 20
89.24942812855204
 40
1.1443579323911381
 50
244.11812031409386
 51
298.77089632225113
  0
ARC
  8
_0-0_
  6
CONTINUOUS
 62
    7
 10
62.095948372341013
 20
92.407456379158134
 40
4.7979726877952666
 50
232.776241447198
 51
240.78399752410704
  0
LINE
  8
_0-0_
  6
CONTINUOUS
 62
    7
 10
59.944446263039367
 20
89.337863215393895
 11
59.193513844545691
 21
88.586930796899992
  0
ARC
  8
_0-0_
  6
CONTINUOUS
 62
    7
 10
60.50732385308936
 20
89.312266915425766
 40
0.3317259727581011
 50
243.78093483258857
 51
26.219065167411387
  0
ARC
  8
_0-0_
  6
CONTINUOUS
 62
    7
 10
61.277107402515753
 20
90.624795720158886
 40
1.8526146346434391
 50
223.99992439912506
 51
240.35525825784566
  0
ARC
  8
_0-0_
  6
CONTINUOUS
 62
    7
 10
59.194795048356696
 20
88.542483365999828
 40
1.8526146346434391
 50
29.644741742154352
 51
45.719224307405156
  0
LINE
  8
_0-0_
  6
CONTINUOUS
 62
    7
 10
58.907644039830188
 20
90.38182344399263
 11
58.172110652448396
 21
89.646290056610155
  0
ARC
  8
_0-0_
  6
CONTINUOUS
 62
    7
 10
59.000758908607736
 20
90.818831859907164
 40
0.3317259727581011
 50
63.780934832588585
 51
206.21906516741137
  0
ARC
  8
_0-0_
  6
CONTINUOUS
 62
    7
 10
58.230975359182025
 20
89.506303055174499
 40
1.8526146346434391
 50
44.280775692594844
 51
60.355258257845648
  0
ARC
  8
_0-0_
  6
CONTINUOUS
 62
    7
 10
60.313287713341083
 20
91.588615409333556
 40
1.8526146346434391
 50
209.64474174215434
 51
220.64718999719906
  0
ARC
  8
_0-0_
  6
CONTINUOUS
 62
    7
 10
58.937920121734237
 20
90.56508139182904
 40
1.1443579323911379
 50
151.22910367774887
 51
205.88187968590617
  0
ARC
  8
_0-0_
  6
CONTINUOUS
 62
    7
 10
62.095948372341013
 20
92.407456379158134
 40
4.7979726877952666
 50
209.21600247589291
 51
215.13367728017909
  0
ARC
  8
_0-0_
  6
CONTINUOUS
 62
    7
 10
59.830895131703414
 20
89.988695636812167
 40
2.2058059353745598
 50
120.73070722357708
 51
149.2692927764229
  0
ARC
  8
_0-0_
  6
CONTINUOUS
 62
    7
 10
59.254509376686542
 20
90.881670646781345
 40
1.1443579323911379
 50
64.118120314093829
 51
118.77089632225113
  0
ARC
  8
_0-0_
  6
CONTINUOUS
 62
    7
 10
54.881692952238495
 20
85.193200959055389
 40
4.7979726877952666
 50
29.216002475892946
 51
60.783997524107058
  0
ARC
  8
_0-0_
  6
CONTINUOUS
 62
    7
 10
48.889428828009159
 20
79.200936834814797
 40
12.185477896575621
 50
41.789190081972691
 51
48.210809918027351
  0
ARC
  8
_0-0_
  6
CONTINUOUS
 62
    7
 10
65.55777105946288
 20
95.869279066268405
 40
12.185477896575621
 50
221.78919008197266
 51
228.21080991802734
  0
ARC
  8
_0-0_
  6
CONTINUOUS
 62
    7
 10
57.976882415970408
 20
86.781825478307269
 40
0.3317259727581011
 50
243.78093483258857
 51
26.219065167411387
  0
ARC
  8
_0-0_
  6
CONTINUOUS
 62
    7
 10
57.146746192875412
 20
87.611961701403175
 40
2.2058059353745598
 50
300.7307072235771
 51
329.2692927764229
  0
ARC
  8
_0-0_
  6
CONTINUOUS
 62
    7
 10
57.723131947891602
 20
86.718986691432633
 40
1.1443579323911381
 50
244.11812031409386
 51
298.77089632225113
  0
ARC
  8
_0-0_
  6
CONTINUOUS
 62
    7
 10
58.039721202845271
 20
87.035575946386302
 40
1.1443579323911379
 50
331.22910367774887
 51
25.88187968590621
  0
ARC
  8
_0-0_
  6
CONTINUOUS
 62
    7
 10
59.565506935222288
 20
89.877014942040091
 40
4.7979726877952666
 50
209.21600247589291
 51
240.78399752410706
  0
ARC
  8
_0-0_
  6
CONTINUOUS
 62
    7
 10
58.746665965397483
 20
88.094354283040389
 40
1.8526146346434391
 50
224.28077569259486
 51
240.35525825784566
  0
ARC
  8
_0-0_
  6
CONTINUOUS
 62
    7
 10
56.664353611237743
 20
86.012041928880421
 40
1.8526146346434391
 50
29.644741742154352
 51
45.719224307405156
  0
ARC
  8
_0-0_
  6
CONTINUOUS
 62
    7
 10
55.700533922063073
 20
86.975861618055092
 40
1.8526146346434391
 50
44.280775692594844
 51
60.355258257845648
  0
ARC
  8
_0-0_
  6
CONTINUOUS
 62
    7
 10
56.470317471490148
 20
88.288390422788211
 40
0.3317259727581011
 50
63.780934832588585
 51
206.21906516741137
  0
ARC
  8
_0-0_
  6
CONTINUOUS
 62
    7
 10
57.782846276222813
 20
89.058173972215513
 40
1.8526146346434391
 50
209.64474174215434
 51
225.71922430740514
  0
ARC
  8
_0-0_
  6
CONTINUOUS
 62
    7
 10
57.300453694585144
 20
87.45825419969276
 40
2.2058059353745598
 50
120.73070722357708
 51
149.2692927764229
  0
ARC
  8
_0-0_
  6
CONTINUOUS
 62
    7
 10
56.724067939568272
 20
88.351229209662847
 40
1.1443579323911379
 50
64.118120314093829
 51
118.77089632225113
  0
ARC
  8
_0-0_
  6
CONTINUOUS
 62
    7
 10
56.40747868461483
 20
88.034639954709633
 40
1.1443579323911379
 50
151.22910367774887
 51
205.88187968590617
  0
ARC
  8
_0-0_
  6
CONTINUOUS
 62
    7
 10
60.50732385308936
 20
89.312266915425766
 40
0.3317259727581011
 50
243.78093483258857
 51
26.219065167411387
  0
ARC
  8
_0-0_
  6
CONTINUOUS
 62
    7
 10
57.976882415970408
 20
86.781825478307269
 40
0.3317259727581011
 50
243.78093483258857
 51
26.219065167411387
  0
LINE
  8
_0-0_
  6
CONTINUOUS
 62
    7
 10
82.3338155853545
 20
102.60961495040181
 11
82.3338155853545
 21
109.73854713853632
  0
ARC
  8
_0-0_
  6
CONTINUOUS
 62
    7
 10
82.033815585354546
 20
109.73854713853632
 40
0.2999999999999998
 50
0
 51
90
  0
LINE
  8
_0-0_
  6
CONTINUOUS
 62
    7
 10
49.762747773488968
 20
70.038547138536501
 11
42.633815585354341
 21
70.038547138536501
  0
ARC
  8
_0-0_
  6
CONTINUOUS
 62
    7
 10
42.633815585354341
 20
70.338547138536228
 40
0.2999999999999998
 50
180
 51
270
  0
LINE
  8
_0-0_
  6
CONTINUOUS
 62
    7
 10
80.3338155853545
 20
111.28867111222405
 11
80.3338155853545
 21
110.0385471385365
  0
LINE
  8
_0-0_
  6
CONTINUOUS
 62
    7
 10
70.3338155853545
 20
111.28867111222405
 11
80.3338155853545
 21
111.28867111222405
  0
LINE
  8
_0-0_
  6
CONTINUOUS
 62
    7
 10
70.3338155853545
 20
111.28867111222405
 11
70.3338155853545
 21
110.0385471385365
  0
LINE
  8
_0-0_
  6
CONTINUOUS
 62
    7
 10
54.3338155853545
 20
111.28867111222405
 11
54.3338155853545
 21
110.0385471385365
  0
LINE
  8
_0-0_
  6
CONTINUOUS
 62
    7
 10
44.333815585354387
 20
111.28867111222405
 11
54.3338155853545
 21
111.28867111222405
  0
LINE
  8
_0-0_
  6
CONTINUOUS
 62
    7
 10
44.333815585354387
 20
111.28867111222405
 11
44.333815585354387
 21
110.0385471385365
  0
LINE
  8
_0-0_
  6
CONTINUOUS
 62
    7
 10
70.3338155853545
 20
111.0385471385365
 11
80.3338155853545
 21
111.0385471385365
  0
LINE
  8
_0-0_
  6
CONTINUOUS
 62
    7
 10
44.333815585354387
 20
111.0385471385365
 11
54.3338155853545
 21
111.0385471385365
  0
LINE
  8
_0-0_
  6
CONTINUOUS
 62
    7
 10
41.083691611667291
 20
72.038547138536046
 11
42.333815585354614
 21
72.038547138536046
  0
LINE
  8
_0-0_
  6
CONTINUOUS
 62
    7
 10
41.083691611667291
 20
82.038547138536046
 11
41.083691611667291
 21
72.038547138536046
  0
LINE
  8
_0-0_
  6
CONTINUOUS
 62
    7
 10
41.083691611667291
 20
82.038547138536046
 11
42.333815585354614
 21
82.038547138536046
  0
LINE
  8
_0-0_
  6
CONTINUOUS
 62
    7
 10
41.083691611666836
 20
98.038547138536046
 11
42.333815585354159
 21
98.038547138536046
  0
LINE
  8
_0-0_
  6
CONTINUOUS
 62
    7
 10
41.083691611666836
 20
108.03854713853605
 11
41.083691611666836
 21
98.038547138536046
  0
LINE
  8
_0-0_
  6
CONTINUOUS
 62
    7
 10
41.083691611666836
 20
108.03854713853605
 11
42.333815585354159
 21
108.03854713853605
  0
LINE
  8
_0-0_
  6
CONTINUOUS
 62
    7
 10
41.333815585365301
 20
82.038547138536046
 11
41.333815585365301
 21
72.038547138536046
  0
LINE
  8
_0-0_
  6
CONTINUOUS
 62
    7
 10
41.333815585364846
 20
108.03854713853605
 11
41.333815585364846
 21
98.038547138536046
  0
LINE
  8
_0-0_
  6
CONTINUOUS
 62
    7
 10
170.92714521024379
 20
70.343782860467286
 11
171.49272712986647
 21
102.74594933469632
  0
ARC
  8
_0-0_
  6
CONTINUOUS
 62
    7
 10
164.99787225947819
 20
71.74633017425765
 40
1.5
 50
179.99999999999966
 51
267.99999999999983
  0
ARC
  8
_0-0_
  6
CONTINUOUS
 62
    7
 10
171.79268143841261
 20
102.74071361276526
 40
0.2999999999999998
 50
90
 51
178.99999999999991
  0
LINE
  8
_0-0_
  6
CONTINUOUS
 62
    7
 10
183.20306308054307
 20
103.04071361276499
 11
171.79268143841261
 21
103.04071361276499
  0
ARC
  8
_0-0_
  6
CONTINUOUS
 62
    7
 10
183.20306308054307
 20
102.74071361276526
 40
0.2999999999999998
 50
0.9999999999998487
 51
90.000000000000057
  0
ARC
  8
_0-0_
  6
CONTINUOUS
 62
    7
 10
163.79787225947837
 20
109.73854713853586
 40
0.2999999999999998
 50
90
 51
179.99999999999963
  0
LINE
  8
_0-0_
  6
CONTINUOUS
 62
    7
 10
163.49787225947819
 20
109.73854713853586
 11
163.49787225947819
 21
75.258971688558063
  0
LINE
  8
_0-0_
  6
CONTINUOUS
 62
    7
 10
163.49787225947819
 20
75.258971688558063
 11
163.49787225947819
 21
71.74633017425765
  0
ARC
  8
_0-0_
  6
CONTINUOUS
 62
    7
 10
170.62719090169674
 20
70.349018582398344
 40
0.2999999999999998
 50
267.99999999999977
 51
358.99999999999989
  0
LINE
  8
_0-0_
  6
CONTINUOUS
 62
    7
 10
170.92181730089749
 20
70.038547138536046
 11
164.94552301442434
 21
70.247243933728782
  0
LINE
  8
_0-0_
  6
CONTINUOUS
 62
    7
 10
184.06878208844512
 20
70.333311416604715
 11
183.50301738909013
 21
102.74594933469632
  0
ARC
  8
_0-0_
  6
CONTINUOUS
 62
    7
 10
184.36873639699218
 20
70.338547138535773
 40
0.2999999999999998
 50
180.99999999999997
 51
270
  0
ARC
  8
_0-0_
  6
CONTINUOUS
 62
    7
 10
185.49787225947796
 20
71.538547138536046
 40
1.5
 50
270
 51
0
  0
LINE
  8
_0-0_
  6
CONTINUOUS
 62
    7
 10
186.99787225947796
 20
109.73854713853586
 11
186.99787225947796
 21
71.538547138536046
  0
ARC
  8
_0-0_
  6
CONTINUOUS
 62
    7
 10
186.69787225947778
 20
109.73854713853586
 40
0.2999999999999998
 50
0.0000000000000127
 51
90.000000000000043
  0
LINE
  8
_0-0_
  6
CONTINUOUS
 62
    7
 10
170.92181730089749
 20
70.038547138536046
 11
185.49787225947796
 21
70.038547138536046
  0
LINE
  8
_0-0_
  6
CONTINUOUS
 62
    7
 10
186.69787225947778
 20
110.03854713853605
 11
163.79787225947837
 21
110.03854713853605
  0
LINE
  8
_0-0_
  6
CONTINUOUS
 62
    7
 10
182.84787225947741
 20
110.03854713853605
 11
182.27052199028833
 21
111.03854713853605
  0
LINE
  8
_0-0_
  6
CONTINUOUS
 62
    7
 10
182.27052199028833
 20
111.03854713853605
 11
177.49787225947682
 21
111.2886711122236
  0
LINE
  8
_0-0_
  6
CONTINUOUS
 62
    7
 10
172.14787225947828
 20
110.03854713853605
 11
172.72522252866736
 21
111.03854713853605
  0
LINE
  8
_0-0_
  6
CONTINUOUS
 62
    7
 10
177.49787225947682
 20
111.2886711122236
 11
172.72522252866736
 21
111.03854713853605
  0
CIRCLE
  8
_0-0_
  6
CONTINUOUS
 62
    7
 10
107.64324015154932
 20
32.363078606721217
 40
2
  0
CIRCLE
  8
_0-0_
  6
CONTINUOUS
 62
    7
 10
107.64324015154932
 20
32.363078606721217
 40
1.7000000476837158
  0
CIRCLE
  8
_0-0_
  6
CONTINUOUS
 62
    7
 10
52.3338155853545
 20
100.03854713853622
 40
2
  0
CIRCLE
  8
_0-0_
  6
CONTINUOUS
 62
    7
 10
52.3338155853545
 20
100.03854713853622
 40
1.7000000476837158
  0
LINE
  8
_0-0_
  6
CONTINUOUS
 62
    7
 10
175.62287225947819
 20
97.640713517397558
 11
175.62287225947819
 21
103.04071361276499
  0
LINE
  8
_0-0_
  6
CONTINUOUS
 62
    7
 10
174.99787225947819
 20
97.640713517397558
 11
174.99787225947819
 21
103.04071361276499
  0
LINE
  8
_0-0_
  6
CONTINUOUS
 62
    7
 10
174.37287225947819
 20
97.640713517397558
 11
174.37287225947819
 21
103.04071361276499
  0
LINE
  8
_0-0_
  6
CONTINUOUS
 62
    7
 10
173.74787225947819
 20
97.640713517397558
 11
173.74787225947819
 21
103.04071361276499
  0
LINE
  8
_0-0_
  6
CONTINUOUS
 62
    7
 10
173.12287225947819
 20
97.640713517397558
 11
173.12287225947819
 21
103.04071361276499
  0
LINE
  8
_0-0_
  6
CONTINUOUS
 62
    7
 10
182.49787225947819
 20
97.640713517397558
 11
182.49787225947819
 21
103.04071361276499
  0
LINE
  8
_0-0_
  6
CONTINUOUS
 62
    7
 10
182.49787225947819
 20
97.640713517397558
 11
181.89787235484562
 21
97.040713612764989
  0
LINE
  8
_0-0_
  6
CONTINUOUS
 62
    7
 10
173.09787216411075
 20
97.040713612764989
 11
181.89787235484562
 21
97.040713612764989
  0
LINE
  8
_0-0_
  6
CONTINUOUS
 62
    7
 10
172.49787225947819
 20
97.640713517397558
 11
172.49787225947819
 21
103.04071361276499
  0
LINE
  8
_0-0_
  6
CONTINUOUS
 62
    7
 10
173.09787216411075
 20
97.040713612764989
 11
172.49787225947819
 21
97.640713517397558
  0
LINE
  8
_0-0_
  6
CONTINUOUS
 62
    7
 10
182.49787225947819
 20
97.640713517397558
 11
172.49787225947819
 21
97.640713517397558
  0
LINE
  8
_0-0_
  6
CONTINUOUS
 62
    7
 10
179.99787225947819
 20
88.595171431863378
 11
179.99787225947819
 21
91.481922845208715
  0
LINE
  8
_0-0_
  6
CONTINUOUS
 62
    7
 10
179.99787225947819
 20
91.481922845208715
 11
177.49787225947819
 21
92.925298551881383
  0
LINE
  8
_0-0_
  6
CONTINUOUS
 62
    7
 10
177.49787225947819
 20
92.925298551881383
 11
174.99787225947819
 21
91.481922845208715
  0
LINE
  8
_0-0_
  6
CONTINUOUS
 62
    7
 10
174.99787225947819
 20
91.481922845208715
 11
174.99787225947819
 21
88.595171431863378
  0
LINE
  8
_0-0_
  6
CONTINUOUS
 62
    7
 10
174.99787225947819
 20
88.595171431863378
 11
177.49787225947819
 21
87.151795725190709
  0
LINE
  8
_0-0_
  6
CONTINUOUS
 62
    7
 10
177.49787225947819
 20
87.151795725190709
 11
179.99787225947819
 21
88.595171431863378
  0
CIRCLE
  8
_0-0_
  6
CONTINUOUS
 62
    7
 10
177.49787225947819
 20
90.038547138536046
 40
5
  0
LINE
  8
_0-1_
  6
PHANTOM1
 62
  152
 10
2.3338155853543867
 20
167.22758516985596
 11
2.3338155853543867
 21
61.494363693345861
  0
LINE
  8
_0-1_
  6
PHANTOM1
 62
  152
 10
42.333815585354387
 20
167.22758516985596
 11
42.333815585354387
 21
61.494363693345861
  0
LINE
  8
_0-1_
  6
PHANTOM1
 62
  152
 10
115.60357695746484
 20
150.03854713853605
 11
42.333815585354387
 21
150.03854713853605
  0
LINE
  8
_0-1_
  6
PHANTOM1
 62
  152
 10
115.60357695746484
 20
110.03854713853605
 11
42.333815585354387
 21
110.03854713853605
  0
LINE
  8
_0-1_
  6
PHANTOM1
 62
  152
 10
157.49787225947819
 20
150.03854713853605
 11
157.49787225947819
 21
110.03854713853605
  0
LINE
  8
_0-1_
  6
PHANTOM1
 62
  152
 10
157.49787225947819
 20
110.03854713853605
 11
197.49787225947819
 21
110.03854713853605
  0
LINE
  8
_0-1_
  6
PHANTOM1
 62
  152
 10
197.49787225947819
 20
150.03854713853605
 11
197.49787225947819
 21
110.03854713853605
  0
LINE
  8
_0-1_
  6
PHANTOM1
 62
  152
 10
157.49787225947819
 20
150.03854713853605
 11
197.49787225947819
 21
150.03854713853605
  0
ARC
  8
_0-1_
  6
DASHED2
 62
  152
 10
107.64324015154932
 20
32.363078606721217
 40
3
 50
89.999999999999986
 51
180
  0
LINE
  8
_0-1_
  6
DASHED2
 62
  152
 10
104.64324015154932
 20
2.6630786067209442
 11
104.64324015154932
 21
32.363078606721217
  0
ARC
  8
_0-1_
  6
DASHED2
 62
  152
 10
104.34324015154937
 20
2.6630786067209442
 40
0.2999999999999998
 50
270
 51
0
  0
LINE
  8
_0-1_
  6
DASHED2
 62
  152
 10
137.34324015154937
 20
35.363078606721217
 11
107.64324015154932
 21
35.363078606721217
  0
ARC
  8
_0-1_
  6
DASHED2
 62
  152
 10
137.34324015154937
 20
35.663078606720944
 40
0.2999999999999998
 50
270
 51
0
  0
LINE
  8
ADD_LINE
  6
DOT
 62
  152
 10
114.68577623704061
 20
25.320542521230607
 11
118.07988878588742
 21
21.926429972383346
  0
LINE
  8
_0-1_
  6
CENTER1
 62
  152
 10
109.10561865517013
 20
16.346272390512866
 11
123.18660559341436
 21
30.427259328757998
  0
LINE
  8
_0-1_
  6
CENTER1
 62
  152
 10
97.643240151549321
 20
42.363078606720762
 11
122.39324015154932
 21
17.613078606721217
  0
ARC
  8
_0-1_
  6
DASHED2
 62
  152
 10
52.3338155853545
 20
100.0385471385365
 40
3
 50
89.999999999999986
 51
180
  0
LINE
  8
_0-1_
  6
DASHED2
 62
  152
 10
49.3338155853545
 20
70.338547138536228
 11
49.3338155853545
 21
100.0385471385365
  0
ARC
  8
_0-1_
  6
DASHED2
 62
  152
 10
49.033815585354546
 20
70.338547138536228
 40
0.2999999999999998
 50
270
 51
0
  0
LINE
  8
_0-1_
  6
DASHED2
 62
  152
 10
82.033815585354546
 20
103.0385471385365
 11
52.3338155853545
 21
103.0385471385365
  0
ARC
  8
_0-1_
  6
DASHED2
 62
  152
 10
82.033815585354546
 20
103.33854713853623
 40
0.2999999999999998
 50
270
 51
0
  0
LINE
  8
ADD_LINE
  6
DOT
 62
  152
 10
59.376351670845793
 20
92.996011053045891
 11
62.770464219692599
 21
89.60189850419863
  0
LINE
  8
_0-1_
  6
CENTER1
 62
  152
 10
42.333815585354387
 20
110.03854713853605
 11
67.0838155853545
 21
85.288547138536501
  0
LINE
  8
_0-1_
  6
CENTER1
 62
  152
 10
53.796194088975312
 20
84.021740922328149
 11
67.877181027219535
 21
98.102727860573282
  0
LINE
  8
_0-1_
  6
CENTER1
 62
  152
 10
40.815485010190969
 20
90.038547138536501
 11
50.965602921348932
 21
90.038547138536501
  0
LINE
  8
_0-1_
  6
CENTER1
 62
  152
 10
55.3338155853545
 20
100.0385471385365
 11
49.3338155853545
 21
100.0385471385365
  0
LINE
  8
_0-1_
  6
CENTER1
 62
  152
 10
52.3338155853545
 20
97.038547138536501
 11
52.3338155853545
 21
103.0385471385365
  0
LINE
  8
_0-1_
  6
CENTER1
 62
  152
 10
96.124909576385903
 20
22.363078606721217
 11
106.27502748754375
 21
22.363078606721217
  0
LINE
  8
_0-1_
  6
CENTER1
 62
  152
 10
107.64324015154932
 20
29.363078606721217
 11
107.64324015154932
 21
35.363078606721217
  0
LINE
  8
_0-1_
  6
CENTER1
 62
  152
 10
110.64324015154932
 20
32.363078606721217
 11
104.64324015154932
 21
32.363078606721217
  0
LINE
  8
_0-1_
  6
CENTER1
 62
  152
 10
117.64324015154932
 20
44.788947523055583
 11
117.64324015154932
 21
33.490307402607584
  0
LINE
  8
_0-1_
  6
CENTER1
 62
  152
 10
195.76146827912783
 20
42.363078606721217
 11
195.76146827912783
 21
2.3630786067212171
  0
LINE
  8
_0-1_
  6
CENTER1
 62
  152
 10
200.95581182583862
 20
22.363078606721217
 11
190.51633798580144
 21
22.363078606721217
  0
LINE
  8
_0-1_
  6
CENTER1
 62
  152
 10
182.69221580618898
 20
90.038547138536046
 11
172.2527419661518
 21
90.038547138536046
  0
LINE
  8
ADD_LINE
  6
DOT
 62
  152
 10
177.49787225947819
 20
110.03854713853605
 11
178.20497904064575
 21
110.74565391970361
  0
LINE
  8
ADD_LINE
  6
DOT
 62
  152
 10
176.79076547827242
 20
110.74565391970361
 11
177.49787225945909
 21
110.03854713851695
  0
LINE
  8
_0-1_
  6
DASHED2
 62
  152
 10
180.49787225947819
 20
117.59071380349985
 11
180.04787221179447
 21
118.04071361276499
  0
LINE
  8
_0-1_
  6
DASHED2
 62
  152
 10
174.9478723071619
 20
118.04071361276499
 11
180.04787221179447
 21
118.04071361276499
  0
LINE
  8
_0-1_
  6
DASHED2
 62
  152
 10
174.9478723071619
 20
118.04071361276499
 11
174.49787225947819
 21
117.59071380349985
  0
LINE
  8
_0-1_
  6
DASHED2
 62
  152
 10
180.49787225947819
 20
117.59071380349985
 11
174.49787225947819
 21
117.59071380349985
  0
LINE
  8
_0-1_
  6
DASHED2
 62
  152
 10
180.9978365584376
 20
117.23854406200087
 11
173.99800176269775
 21
117.23857002414286
  0
LINE
  8
_0-1_
  6
DASHED2
 62
  152
 10
173.99800176269775
 20
117.23857002414286
 11
170.81915678117787
 21
115.40330505897361
  0
LINE
  8
_0-1_
  6
DASHED2
 62
  152
 10
170.49791828755281
 20
113.63854704314952
 11
172.4104637198667
 21
113.63854704314952
  0
LINE
  8
_0-1_
  6
DASHED2
 62
  152
 10
170.81915678117787
 20
115.40330505897361
 11
170.49791828755281
 21
113.63854704314952
  0
LINE
  8
_0-1_
  6
DASHED2
 62
  152
 10
180.99775461240745
 20
117.23857002414286
 11
184.17659959392734
 21
115.40330505897361
  0
LINE
  8
_0-1_
  6
DASHED2
 62
  152
 10
184.4978380875524
 20
113.63854704314952
 11
182.5852926552385
 21
113.63854704314952
  0
LINE
  8
_0-1_
  6
DASHED2
 62
  152
 10
184.17659959392734
 20
115.40330505897361
 11
184.4978380875524
 21
113.63854704314952
  0
LINE
  8
_0-1_
  6
DASHED2
 62
  152
 10
182.58535406731164
 20
113.63854704314952
 11
182.32285010996577
 21
110.63852546936403
  0
LINE
  8
_0-1_
  6
DASHED2
 62
  152
 10
172.4104637198667
 20
113.63854704314952
 11
172.6728944089524
 21
110.63855861694162
  0
LINE
  8
_0-1_
  6
DASHED2
 62
  152
 10
172.6728944089524
 20
110.63855861694162
 11
182.32285010996577
 21
110.63852546936403
  0
LINE
  8
_0-1_
  6
DASHED2
 62
  152
 10
174.49787225947819
 20
117.59071380349985
 11
174.49787225947819
 21
103.04071361276499
  0
LINE
  8
_0-1_
  6
DASHED2
 62
  152
 10
174.9478723071619
 20
103.04071361276499
 11
174.9478723071619
 21
118.04071361276499
  0
LINE
  8
_0-1_
  6
DASHED2
 62
  152
 10
180.04787221179447
 20
103.04071361276499
 11
180.04787221179447
 21
118.04071361276499
  0
LINE
  8
_0-1_
  6
DASHED2
 62
  152
 10
180.49787225947819
 20
117.59071380349985
 11
180.49787225947819
 21
103.04071361276499
  0
LINE
  8
_0-1_
  6
CENTER1
 62
  152
 10
177.49787225947819
 20
119.70879585711259
 11
177.49787225947819
 21
70.038547138536046
  0
LINE
  8
_0-1_
  6
DASHED2
 62
  152
 10
59.3338155853545
 20
117.58854732927136
 11
59.3338155853545
 21
103.0385471385365
  0
LINE
  8
_0-1_
  6
DASHED2
 62
  152
 10
59.783815633038216
 20
103.0385471385365
 11
59.783815633038216
 21
118.0385471385365
  0
LINE
  8
_0-1_
  6
DASHED2
 62
  152
 10
64.883815537670785
 20
103.0385471385365
 11
64.883815537670785
 21
118.0385471385365
  0
LINE
  8
_0-1_
  6
DASHED2
 62
  152
 10
65.3338155853545
 20
117.58854732927136
 11
65.3338155853545
 21
103.0385471385365
  0
LINE
  8
_0-1_
  6
DASHED2
 62
  152
 10
59.783815633038216
 20
118.0385471385365
 11
59.3338155853545
 21
117.58854732927136
  0
LINE
  8
_0-1_
  6
DASHED2
 62
  152
 10
65.3338155853545
 20
117.58854732927136
 11
59.3338155853545
 21
117.58854732927136
  0
LINE
  8
_0-1_
  6
DASHED2
 62
  152
 10
59.783815633038216
 20
118.0385471385365
 11
64.883815537670785
 21
118.0385471385365
  0
LINE
  8
_0-1_
  6
DASHED2
 62
  152
 10
65.3338155853545
 20
117.58854732927136
 11
64.883815537670785
 21
118.0385471385365
  0
LINE
  8
_0-1_
  6
DASHED2
 62
  152
 10
60.4588155853545
 20
97.638547043169069
 11
60.4588155853545
 21
103.0385471385365
  0
LINE
  8
_0-1_
  6
DASHED2
 62
  152
 10
59.8338155853545
 20
97.638547043169069
 11
59.8338155853545
 21
103.0385471385365
  0
LINE
  8
_0-1_
  6
DASHED2
 62
  152
 10
59.2088155853545
 20
97.638547043169069
 11
59.2088155853545
 21
103.0385471385365
  0
LINE
  8
_0-1_
  6
DASHED2
 62
  152
 10
58.5838155853545
 20
97.638547043169069
 11
58.5838155853545
 21
103.0385471385365
  0
LINE
  8
_0-1_
  6
DASHED2
 62
  152
 10
57.9588155853545
 20
97.638547043169069
 11
57.9588155853545
 21
103.0385471385365
  0
LINE
  8
_0-1_
  6
DASHED2
 62
  152
 10
67.3338155853545
 20
97.638547043169069
 11
67.3338155853545
 21
103.0385471385365
  0
LINE
  8
_0-1_
  6
DASHED2
 62
  152
 10
67.3338155853545
 20
97.638547043169069
 11
66.733815680721932
 21
97.038547138536501
  0
LINE
  8
_0-1_
  6
DASHED2
 62
  152
 10
57.933815489987069
 20
97.038547138536501
 11
66.733815680721932
 21
97.038547138536501
  0
LINE
  8
_0-1_
  6
DASHED2
 62
  152
 10
57.3338155853545
 20
97.638547043169069
 11
57.3338155853545
 21
103.0385471385365
  0
LINE
  8
_0-1_
  6
DASHED2
 62
  152
 10
57.933815489987069
 20
97.038547138536501
 11
57.3338155853545
 21
97.638547043169069
  0
LINE
  8
_0-1_
  6
DASHED2
 62
  152
 10
67.3338155853545
 20
97.638547043169069
 11
57.3338155853545
 21
97.638547043169069
  0
LINE
  8
_0-1_
  6
DASHED2
 62
  152
 10
69.8338155853545
 20
117.23857002414286
 11
54.8338155853545
 21
117.23857002414286
  0
LINE
  8
_0-1_
  6
DASHED2
 62
  152
 10
54.8338155853545
 20
117.23857002414286
 11
54.8338155853545
 21
110.63855861714285
  0
LINE
  8
_0-1_
  6
DASHED2
 62
  152
 10
69.8338155853545
 20
110.63855861714285
 11
54.8338155853545
 21
110.63855861714285
  0
LINE
  8
_0-1_
  6
DASHED2
 62
  152
 10
69.8338155853545
 20
117.23857002414286
 11
69.8338155853545
 21
110.63855861714285
  0
LINE
  8
_0-1_
  6
DASHED2
 62
  152
 10
69.8338155853545
 20
113.63854704314281
 11
54.8338155853545
 21
113.63854704314281
  0
LINE
  8
_0-1_
  6
CENTER1
 62
  152
 10
62.3338155853545
 20
119.09089771666129
 11
62.3338155853545
 21
96.360430725439301
  0
LINE
  8
_0-1_
  6
DASHED2
 62
  152
 10
34.783815394619637
 20
87.038547138536501
 11
49.3338155853545
 21
87.038547138536501
  0
LINE
  8
_0-1_
  6
DASHED2
 62
  152
 10
49.3338155853545
 20
87.488547186220217
 11
34.3338155853545
 21
87.488547186220217
  0
LINE
  8
_0-1_
  6
DASHED2
 62
  152
 10
49.3338155853545
 20
92.588547090852785
 11
34.3338155853545
 21
92.588547090852785
  0
LINE
  8
_0-1_
  6
DASHED2
 62
  152
 10
34.783815394619637
 20
93.038547138536501
 11
49.3338155853545
 21
93.038547138536501
  0
LINE
  8
_0-1_
  6
DASHED2
 62
  152
 10
34.3338155853545
 20
87.488547186220217
 11
34.783815394619637
 21
87.038547138536501
  0
LINE
  8
_0-1_
  6
DASHED2
 62
  152
 10
34.783815394619637
 20
93.038547138536501
 11
34.783815394619637
 21
87.038547138536501
  0
LINE
  8
_0-1_
  6
DASHED2
 62
  152
 10
34.3338155853545
 20
87.488547186220217
 11
34.3338155853545
 21
92.588547090852785
  0
LINE
  8
_0-1_
  6
DASHED2
 62
  152
 10
34.783815394619637
 20
93.038547138536501
 11
34.3338155853545
 21
92.588547090852785
  0
LINE
  8
_0-1_
  6
DASHED2
 62
  152
 10
54.733815680721932
 20
88.163547138536501
 11
49.3338155853545
 21
88.163547138536501
  0
LINE
  8
_0-1_
  6
DASHED2
 62
  152
 10
54.733815680721932
 20
87.538547138536501
 11
49.3338155853545
 21
87.538547138536501
  0
LINE
  8
_0-1_
  6
DASHED2
 62
  152
 10
54.733815680721932
 20
86.913547138536501
 11
49.3338155853545
 21
86.913547138536501
  0
LINE
  8
_0-1_
  6
DASHED2
 62
  152
 10
54.733815680721932
 20
86.288547138536501
 11
49.3338155853545
 21
86.288547138536501
  0
LINE
  8
_0-1_
  6
DASHED2
 62
  152
 10
54.733815680721932
 20
85.663547138536501
 11
49.3338155853545
 21
85.663547138536501
  0
LINE
  8
_0-1_
  6
DASHED2
 62
  152
 10
54.733815680721932
 20
95.038547138536501
 11
49.3338155853545
 21
95.038547138536501
  0
LINE
  8
_0-1_
  6
DASHED2
 62
  152
 10
54.733815680721932
 20
95.038547138536501
 11
55.3338155853545
 21
94.438547233903932
  0
LINE
  8
_0-1_
  6
DASHED2
 62
  152
 10
55.3338155853545
 20
85.638547043169069
 11
55.3338155853545
 21
94.438547233903932
  0
LINE
  8
_0-1_
  6
DASHED2
 62
  152
 10
54.733815680721932
 20
85.038547138536501
 11
49.3338155853545
 21
85.038547138536501
  0
LINE
  8
_0-1_
  6
DASHED2
 62
  152
 10
55.3338155853545
 20
85.638547043169069
 11
54.733815680721932
 21
85.038547138536501
  0
LINE
  8
_0-1_
  6
DASHED2
 62
  152
 10
54.733815680721932
 20
95.038547138536501
 11
54.733815680721932
 21
85.038547138536501
  0
LINE
  8
_0-1_
  6
DASHED2
 62
  152
 10
35.133792699748142
 20
97.538547138536501
 11
35.133792699748142
 21
82.538547138536501
  0
LINE
  8
_0-1_
  6
DASHED2
 62
  152
 10
35.133792699748142
 20
82.538547138536501
 11
41.733804106748153
 21
82.538547138536501
  0
LINE
  8
_0-1_
  6
DASHED2
 62
  152
 10
41.733804106748153
 20
97.538547138536501
 11
41.733804106748153
 21
82.538547138536501
  0
LINE
  8
_0-1_
  6
DASHED2
 62
  152
 10
35.133792699748142
 20
97.538547138536501
 11
41.733804106748153
 21
97.538547138536501
  0
LINE
  8
_0-1_
  6
DASHED2
 62
  152
 10
38.733815680748194
 20
97.538547138536501
 11
38.733815680748194
 21
82.538547138536501
  0
LINE
  8
_0-1_
  6
CONTINUOUS
 62
  152
 10
139.1237034652379
 20
95.338547329270909
 11
139.1237034652379
 21
104.73854694780118
  0
LINE
  8
_0-1_
  6
CONTINUOUS
 62
  152
 10
139.4121478948739
 20
98.33854709085233
 11
149.4121478948739
 21
98.33854709085233
  0
LINE
  8
_0-1_
  6
CONTINUOUS
 62
  152
 10
139.4121478948739
 20
101.73854718621976
 11
149.4121478948739
 21
101.73854718621976
  0
LINE
  8
_0-1_
  6
CONTINUOUS
 62
  152
 10
149.11214770413903
 20
98.038547138536046
 11
149.11214770413903
 21
102.03854713853605
  0
LINE
  8
ADD_LINE
  6
DOT
 62
    9
 10
139.4121478948739
 20
100.03854713853605
 11
140.11925467606056
 21
100.74565391972271
  0
LINE
  8
ADD_LINE
  6
DOT
 62
    9
 10
139.4121478948739
 20
100.03854713853605
 11
140.11925467606056
 21
99.331440357349379
  0
LINE
  8
_0-1_
  6
CONTINUOUS
 62
   56
 10
139.1237034652379
 20
95.338547329270909
 11
139.4121478948739
 21
95.338547329270909
  0
LINE
  8
_0-1_
  6
CONTINUOUS
 62
   56
 10
139.1237034652379
 20
104.73854694780118
 11
139.4121478948739
 21
104.73854694780118
  0
LINE
  8
_0-1_
  6
CONTINUOUS
 62
   56
 10
139.4121478948739
 20
102.03854713853605
 11
149.11214770413903
 21
102.03854713853605
  0
LINE
  8
_0-1_
  6
CONTINUOUS
 62
   56
 10
149.4121478948739
 20
101.73854718621976
 11
149.11214770413903
 21
102.03854713853605
  0
LINE
  8
_0-1_
  6
CONTINUOUS
 62
   56
 10
149.4121478948739
 20
98.33854709085233
 11
149.4121478948739
 21
101.73854718621976
  0
LINE
  8
_0-1_
  6
CONTINUOUS
 62
   56
 10
149.4121478948739
 20
98.33854709085233
 11
149.11214770413903
 21
98.038547138536046
  0
LINE
  8
_0-1_
  6
CONTINUOUS
 62
   56
 10
139.4121478948739
 20
98.038547138536046
 11
149.11214770413903
 21
98.038547138536046
  0
ARC
  8
_0-1_
  6
CONTINUOUS
 62
   56
 10
143.01214779950647
 20
100.03854713853605
 40
6.0999999046325684
 50
129.60191345214844
 51
230.3980712890625
  0
LINE
  8
_0-1_
  6
CONTINUOUS
 62
   56
 10
139.41214789483791
 20
95.338547329270909
 11
139.41214789483791
 21
104.73854694780118
  0
LINE
  8
_0-1_
  6
CENTER1
 62
  152
 10
122.89439726353004
 20
100.03854713853605
 11
193.05845473609986
 21
100.03854713853605
  0
LINE
  8
_0-1_
  6
CENTER1
 62
  152
 10
127.69691506823796
 20
106.59806668107717
 11
127.69691506823796
 21
93.063698322354867
  0
LINE
  8
_0-1_
  6
CONTINUOUS
 62
   56
 10
129.79691497287052
 20
99.618547151649068
 11
129.79691497287052
 21
100.45854712542302
  0
LINE
  8
_0-1_
  6
CONTINUOUS
 62
   56
 10
127.27691508135098
 20
102.13854704316861
 11
128.11691505512493
 21
102.13854704316861
  0
LINE
  8
_0-1_
  6
CONTINUOUS
 62
   56
 10
125.59691516360539
 20
99.618547151649068
 11
125.59691516360539
 21
100.45854712542302
  0
LINE
  8
_0-1_
  6
CONTINUOUS
 62
   56
 10
127.27691508135098
 20
97.938547233903478
 11
128.11691505512493
 21
97.938547233903478
  0
LINE
  8
_0-1_
  6
CONTINUOUS
 62
   56
 10
128.11691505512493
 20
101.2985471289993
 11
128.11691505512493
 21
102.13854704316861
  0
LINE
  8
_0-1_
  6
CONTINUOUS
 62
   56
 10
128.95691505870121
 20
100.45854712542302
 11
129.79691497287052
 21
100.45854712542302
  0
LINE
  8
_0-1_
  6
CONTINUOUS
 62
   56
 10
128.95691505870121
 20
99.618547151649068
 11
129.79691497287052
 21
99.618547151649068
  0
LINE
  8
_0-1_
  6
CONTINUOUS
 62
   56
 10
128.11691505512493
 20
98.778547148072789
 11
128.11691505512493
 21
97.938547233903478
  0
LINE
  8
_0-1_
  6
CONTINUOUS
 62
   56
 10
127.27691508135098
 20
98.778547148072789
 11
127.27691508135098
 21
97.938547233903478
  0
LINE
  8
_0-1_
  6
CONTINUOUS
 62
   56
 10
126.4369150777747
 20
99.618547151649068
 11
125.59691516360539
 21
99.618547151649068
  0
LINE
  8
_0-1_
  6
CONTINUOUS
 62
   56
 10
126.4369150777747
 20
100.45854712542302
 11
125.59691516360539
 21
100.45854712542302
  0
LINE
  8
_0-1_
  6
CONTINUOUS
 62
   56
 10
127.27691508135098
 20
101.2985471289993
 11
127.27691508135098
 21
102.13854704316861
  0
CIRCLE
  8
_0-1_
  6
CONTINUOUS
 62
   56
 10
127.69691506823796
 20
100.03854713853605
 40
4.6999998092651367
  0
ARC
  8
_0-1_
  6
CONTINUOUS
 62
   56
 10
128.95691505870121
 20
101.2985471289993
 40
0.8399999737739563
 50
180
 51
270
  0
ARC
  8
_0-1_
  6
CONTINUOUS
 62
   56
 10
128.95691505870121
 20
98.778547148072789
 40
0.8399999737739563
 50
90
 51
180
  0
ARC
  8
_0-1_
  6
CONTINUOUS
 62
   56
 10
126.4369150777747
 20
98.778547148072789
 40
0.8399999737739563
 50
0
 51
90
  0
ARC
  8
_0-1_
  6
CONTINUOUS
 62
   56
 10
126.4369150777747
 20
101.2985471289993
 40
0.8399999737739563
 50
270
 51
0
  0
ENDSEC
  0
EOF
