  0
SECTION
  2
HEADER
  9
$ACADVER
  1
AC1009
  9
$INSBASE
 10
0
 20
0
 30
0
  9
$EXTMIN
 10
0
 20
0
  9
$EXTMAX
 10
1189
 20
841
  9
$LIMMIN
 10
0
 20
0
  9
$LIMMAX
 10
1189
 20
841
  9
$LTSCALE
 40
1
  0
ENDSEC
  0
SECTION
  2
TABLES
  0
TABLE
  2
LTYPE
 70
     9
  0
LTYPE
  2
CONTINUOUS
 70
    64
  3
実線
 72
    65
 73
     0
 40
0.0
  0
LTYPE
  2
DASHED1
 70
    64
  3
--  --  --  --  --  --  --  --  
 72
    65
 73
     2
 40
2.5
 49
1.25
 49
-1.25
  0
LTYPE
  2
DASHED2
 70
    64
  3
----    ----    ----    ----    
 72
    65
 73
     2
 40
5.0
 49
2.5
 49
-2.5
  0
LTYPE
  2
DASHED3
 70
    64
  3
------  ------  ------  ------  
 72
    65
 73
     2
 40
5.0
 49
3.75
 49
-1.25
  0
LTYPE
  2
CENTER1
 70
    64
  3
----- - ----- - ----- - ----- - 
 72
    65
 73
     4
 40
10.0
 49
6.25
 49
-1.25
 49
1.25
 49
-1.25
  0
LTYPE
  2
CENTER2
 70
    64
  3
----------  --  ----------  --  
 72
    65
 73
     4
 40
20.0
 49
12.5
 49
-2.5
 49
2.5
 49
-2.5
  0
LTYPE
  2
PHANTOM1
 70
    64
  3
--- - - --- - - --- - - --- - - 
 72
    65
 73
     6
 40
10.0
 49
3.25
 49
-1.25
 49
1.25
 49
-1.25
 49
1.25
 49
-1.25
  0
LTYPE
  2
PHANTOM2
 70
    64
  3
--------  -  -  --------  -  -  
 72
    65
 73
     6
 40
20.0
 49
10.0
 49
-2.5
 49
1.25
 49
-2.5
 49
1.25
 49
-2.5
  0
LTYPE
  2
DOT
 70
    64
  3
-   -   -   -   -   -   -   -   
 72
    65
 73
     2
 40
2.5
 49
0.625
 49
-1.875
  0
LTYPE
  2
DUMMY
 70
    64
  3
ダミー
 72
    65
 73
     0
 40
0.0
  0
LTYPE
  2
RAND1
 70
    64
  3
ランダム線1
 72
    65
 73
     4
 40
10.0
 49
1.0
 49
-2.0
 49
3.0
 49
-4.0
  0
LTYPE
  2
RAND2
 70
    64
  3
ランダム線2
 72
    65
 73
     4
 40
14.0
 49
2.0
 49
-3.0
 49
4.0
 49
-5.0
  0
LTYPE
  2
RAND3
 70
    64
  3
ランダム線3
 72
    65
 73
     4
 40
18.0
 49
3.0
 49
-4.0
 49
5.0
 49
-6.0
  0
LTYPE
  2
RAND4
 70
    64
  3
ランダム線4
 72
    65
 73
     4
 40
22.0
 49
4.0
 49
-5.0
 49
6.0
 49
-7.0
  0
LTYPE
  2
RAND5
 70
    64
  3
ランダム線5
 72
    65
 73
     4
 40
26.0
 49
5.0
 49
-6.0
 49
7.0
 49
-8.0
  0
LTYPE
  2
LONG1
 70
    64
  3
----------  --  ----------  --  
 72
    65
 73
     4
 40
40.0
 49
32.5
 49
-2.5
 49
2.5
 49
-2.5
  0
LTYPE
  2
LONG2
 70
    64
  3
--------  -  -  --------  -  -  
 72
    65
 73
     6
 40
40.0
 49
30.0
 49
-2.5
 49
1.25
 49
-2.5
 49
1.25
 49
-2.5
  0
LTYPE
  2
LONG3
 70
    64
  3
+++++++++++++++..+++++++++++++++
 72
    65
 73
     2
 40
40.0
 49
37.5
 49
-2.5
  0
LTYPE
  2
LONG4
 70
    64
  3
+++++++++++++++..+++++++++++++++
 72
    65
 73
     2
 40
80.0
 49
75.0
 49
-5.0
  0
LTYPE
  2
LONG5
 70
    64
  3
----------  --  ----------  --  
 72
    65
 73
     4
 40
60.0
 49
37.5
 49
-7.5
 49
7.5
 49
-7.5
  0
LTYPE
  2
dashed
 70
   64
  3
-------   -------------   ------
 72
   65
 73
    2
 40
7.5
 49
6
 49
-1.5
  0
LTYPE
  2
dashed_spaced
 70
   64
  3
----        --------        ----
 72
   65
 73
    2
 40
12
 49
6
 49
-6
  0
LTYPE
  2
long_dashed_dotted
 70
   64
  3
------------- --- --------------
 72
   65
 73
    4
 40
15.25
 49
12
 49
-1.5
 49
0.25
 49
-1.5
  0
LTYPE
  2
long_dashed_double-dotted
 70
   64
  3
----------- --- --- ------------
 72
   65
 73
    6
 40
17
 49
12
 49
-1.5
 49
0.25
 49
-1.5
 49
0.25
 49
-1.5
  0
LTYPE
  2
long_dashed_triplicate-dotted
 70
   64
  3
--------- --- --- --- ----------
 72
   65
 73
    8
 40
18.75
 49
12
 49
-1.5
 49
0.25
 49
-1.5
 49
0.25
 49
-1.5
 49
0.25
 49
-1.5
  0
LTYPE
  2
dotted
 70
   64
  3
   -       -       -       -    
 72
   65
 73
    2
 40
1.75
 49
0.25
 49
-1.5
  0
LTYPE
  2
chain
 70
   64
  3
-------------- -- --------------
 72
   65
 73
    4
 40
18.5
 49
12
 49
-1.5
 49
3.5
 49
-1.5
  0
LTYPE
  2
chain_double_dash
 70
   64
  3
------------ -- -- -------------
 72
   65
 73
    6
 40
23.5
 49
12
 49
-1.5
 49
3.5
 49
-1.5
 49
3.5
 49
-1.5
  0
LTYPE
  2
dashed_dotted
 70
   64
  3
-----------     -     ----------
 72
   65
 73
    4
 40
9.25
 49
6
 49
-1.5
 49
0.25
 49
-1.5
  0
LTYPE
  2
double-dashed_dotted
 70
   64
  3
------   -----------   -   -----
 72
   65
 73
    6
 40
16.75
 49
6
 49
-1.5
 49
6
 49
-1.5
 49
0.25
 49
-1.5
  0
LTYPE
  2
dashed_double-dotted
 70
   64
  3
---------    -    -    ---------
 72
   65
 73
    6
 40
11
 49
6
 49
-1.5
 49
0.25
 49
-1.5
 49
0.25
 49
-1.5
  0
LTYPE
  2
double-dashed_double-dotted
 70
   64
  3
-----   ---------   -   -   ----
 72
   65
 73
    8
 40
18.5
 49
6
 49
-1.5
 49
6
 49
-1.5
 49
0.25
 49
-1.5
 49
0.25
 49
-1.5
  0
LTYPE
  2
dashed_triplicate-dotted
 70
   64
  3
-------    -    -    -    ------
 72
   65
 73
    8
 40
12.75
 49
6
 49
-1.5
 49
0.25
 49
-1.5
 49
0.25
 49
-1.5
 49
0.25
 49
-1.5
  0
LTYPE
  2
double-dashed_triplicate-dotted
 70
   64
  3
-----  ---------  -  -  -  -----
 72
   65
 73
   10
 40
20.25
 49
6
 49
-1.5
 49
6
 49
-1.5
 49
0.25
 49
-1.5
 49
0.25
 49
-1.5
 49
0.25
 49
-1.5
  0
LTYPE
  2
undefined
 70
   64
  3
--------------------------------
 72
   65
 73
    0
 40
0
  0
LTYPE
  2
_
 70
   64
  3
                                
 72
   65
 73
    0
 40
0
  0
LTYPE
  2
__18
 70
   64
  3
                                
 72
   65
 73
    0
 40
0
  0
LTYPE
  2
__19
 70
   64
  3
                                
 72
   65
 73
    0
 40
0
  0
LTYPE
  2
__20
 70
   64
  3
                                
 72
   65
 73
    0
 40
0
  0
LTYPE
  2
__21
 70
   64
  3
                                
 72
   65
 73
    0
 40
0
  0
LTYPE
  2
__22
 70
   64
  3
                                
 72
   65
 73
    0
 40
0
  0
LTYPE
  2
__23
 70
   64
  3
                                
 72
   65
 73
    0
 40
0
  0
LTYPE
  2
__24
 70
   64
  3
                                
 72
   65
 73
    0
 40
0
  0
LTYPE
  2
__25
 70
   64
  3
                                
 72
   65
 73
    0
 40
0
  0
LTYPE
  2
__26
 70
   64
  3
                                
 72
   65
 73
    0
 40
0
  0
LTYPE
  2
__27
 70
   64
  3
                                
 72
   65
 73
    0
 40
0
  0
LTYPE
  2
__28
 70
   64
  3
                                
 72
   65
 73
    0
 40
0
  0
LTYPE
  2
__29
 70
   64
  3
                                
 72
   65
 73
    0
 40
0
  0
LTYPE
  2
__30
 70
   64
  3
                                
 72
   65
 73
    0
 40
0
  0
LTYPE
  2
__31
 70
   64
  3
                                
 72
   65
 73
    0
 40
0
  0
LTYPE
  2
__32
 70
   64
  3
                                
 72
   65
 73
    0
 40
0
  0
ENDTAB
  0
TABLE
  2
STYLE
  5
3
100
AcDbSymbolTable
 70
     1
  0
STYLE
  5
10
100
AcDbSymbolTableRecord
100
AcDbTextStyleTableRecord
  2
STANDARD
 70
     0
 40
0.0
 41
1.0
 50
0.0
 71
     0
 42
0.2
  3
txt
  4
bigfont.shx
  0
STYLE
  5
26
100
AcDbSymbolTableRecord
100
AcDbTextStyleTableRecord
  2
TATEGAKI
 70
    68
 40
0.0
 41
1.0
 50
0.0
 71
     0
 42
1.0
  3
txt
  4
bigfont.shx
  0
ENDTAB
  0
TABLE
  2
LAYER
 70
    4
  0
LAYER
  2
_0-0_
 70
   64
 62
    7
  6
CONTINUOUS
  0
LAYER
  2
_0-1_
 70
   64
 62
    7
  6
CONTINUOUS
  0
LAYER
  2
_0-f_
 70
   64
 62
    7
  6
CONTINUOUS
  0
LAYER
  2
ADD_LINE
 70
   64
 62
    7
  6
CONTINUOUS
  0
ENDTAB
  0
ENDSEC
  0
SECTION
  2
BLOCKS
  0
ENDSEC
  0
SECTION
  2
ENTITIES
  0
TEXT
  8
_0-f_
 62
    7
 10
0.1831693819226529
 20
0.1522185379618576
 40
4.2999999999999998
 41
0.744186046511628
 50
0
  1
BL25　BL25S
  0
LINE
  8
_0-0_
  6
CONTINUOUS
 62
    7
 10
108.36756449516167
 20
15.369465147400376
 11
110.91314890743331
 21
12.823880735128739
  0
LINE
  8
_0-0_
  6
CONTINUOUS
 62
    7
 10
111.54954501050076
 20
12.823880735128739
 11
119.39843028167149
 21
20.672766006298559
  0
LINE
  8
_0-0_
  6
CONTINUOUS
 62
    7
 10
119.39843028167195
 20
21.309162109366923
 11
116.85284586940077
 21
23.85474652163856
  0
LINE
  8
_0-0_
  6
CONTINUOUS
 62
    7
 10
116.21644976633195
 20
23.854746521638106
 11
108.36756449516167
 21
16.005861250468286
  0
LINE
  8
_0-0_
  6
CONTINUOUS
 62
    7
 10
109.09252537157715
 20
15.778715189933962
 11
109.63251332878406
 21
16.318703147140411
  0
LINE
  8
_0-0_
  6
CONTINUOUS
 62
    7
 10
109.63251332878406
 20
16.318703147140411
 11
111.41188033931292
 21
14.539336136611098
  0
LINE
  8
_0-0_
  6
CONTINUOUS
 62
    7
 10
111.41188033931292
 20
14.539336136611098
 11
112.38793933676413
 21
15.515395134061862
  0
LINE
  8
_0-0_
  6
CONTINUOUS
 62
    7
 10
112.38793933676413
 20
15.515395134061862
 11
112.77397502450992
 21
15.129359446316073
  0
LINE
  8
_0-0_
  6
CONTINUOUS
 62
    7
 10
112.77397502450992
 20
15.129359446316073
 11
111.2579280698518
 21
13.61331249165886
  0
LINE
  8
_0-0_
  6
CONTINUOUS
 62
    7
 10
111.2579280698518
 20
13.61331249165886
 11
109.09252537157715
 21
15.778715189933962
  0
LINE
  8
_0-0_
  6
CONTINUOUS
 62
    7
 10
111.02519572382005
 20
17.711385542176856
 11
113.19059842209515
 21
15.545982843901299
  0
LINE
  8
_0-0_
  6
CONTINUOUS
 62
    7
 10
113.19059842209515
 20
15.545982843901299
 11
114.70703995849124
 21
17.062424380297387
  0
LINE
  8
_0-0_
  6
CONTINUOUS
 62
    7
 10
114.70703995849124
 20
17.062424380297387
 11
114.32100427074545
 21
17.448460068042721
  0
LINE
  8
_0-0_
  6
CONTINUOUS
 62
    7
 10
114.32100427074545
 20
17.448460068042721
 11
113.34263573011629
 21
16.470091527413558
  0
LINE
  8
_0-0_
  6
CONTINUOUS
 62
    7
 10
113.34263573011629
 20
16.470091527413558
 11
112.81384362571168
 21
16.99888363181816
  0
LINE
  8
_0-0_
  6
CONTINUOUS
 62
    7
 10
112.81384362571168
 20
16.99888363181816
 11
113.69891540395554
 21
17.88395541006247
  0
LINE
  8
_0-0_
  6
CONTINUOUS
 62
    7
 10
113.69891540395554
 20
17.88395541006247
 11
113.33653971289675
 21
18.246331101121712
  0
LINE
  8
_0-0_
  6
CONTINUOUS
 62
    7
 10
113.33653971289675
 20
18.246331101121712
 11
112.45146793465244
 21
17.361259322877402
  0
LINE
  8
_0-0_
  6
CONTINUOUS
 62
    7
 10
112.45146793465244
 20
17.361259322877402
 11
111.94930440730184
 21
17.86342285022846
  0
LINE
  8
_0-0_
  6
CONTINUOUS
 62
    7
 10
111.94930440730184
 20
17.86342285022846
 11
112.927672947931
 21
18.841791390857168
  0
LINE
  8
_0-0_
  6
CONTINUOUS
 62
    7
 10
112.927672947931
 20
18.841791390857168
 11
112.54163726021613
 21
19.227827078572034
  0
LINE
  8
_0-0_
  6
CONTINUOUS
 62
    7
 10
112.54163726021613
 20
19.227827078572034
 11
111.02519572382005
 21
17.711385542176856
  0
LINE
  8
_0-0_
  6
CONTINUOUS
 62
    7
 10
114.57084588956138
 20
19.96363655786871
 11
115.12249593023569
 21
20.515286598543014
  0
LINE
  8
_0-0_
  6
CONTINUOUS
 62
    7
 10
115.35381606120598
 20
19.186034890267536
 11
115.91701537521692
 21
19.74923420427848
  0
ARC
  8
_0-0_
  6
CONTINUOUS
 62
    7
 10
111.23134695896704
 20
13.142078786662921
 40
0.45
 50
224.99999999999733
 51
314.99999999999733
  0
ARC
  8
_0-0_
  6
CONTINUOUS
 62
    7
 10
108.68576254669586
 20
15.687663198934104
 40
0.45
 50
134.99999999999733
 51
224.99999999999733
  0
ARC
  8
_0-0_
  6
CONTINUOUS
 62
    7
 10
116.53464781786613
 20
23.536548470103924
 40
0.45
 50
44.999999999997343
 51
134.99999999999736
  0
ARC
  8
_0-0_
  6
CONTINUOUS
 62
    7
 10
119.08023223013777
 20
20.990964057832741
 40
0.45
 50
314.99999999999739
 51
44.999999999997407
  0
ARC
  8
_0-0_
  6
CONTINUOUS
 62
    7
 10
116.56448167592305
 20
21.085268796003845
 40
3.598479516746071
 50
209.21600247589029
 51
240.78399752410445
  0
ARC
  8
_0-0_
  6
CONTINUOUS
 62
    7
 10
121.05867977022751
 20
25.579466890299216
 40
9.1391084247164951
 50
221.78919008197005
 51
228.21080991802472
  0
ARC
  8
_0-0_
  6
CONTINUOUS
 62
    7
 10
115.18270043507971
 20
18.71674760745708
 40
0.8582684495079203
 50
244.11812031409119
 51
298.77089632224846
  0
ARC
  8
_0-0_
  6
CONTINUOUS
 62
    7
 10
114.75041111870939
 20
19.386478865101424
 40
1.654354451944509
 50
300.73070722357443
 51
329.26929277642017
  0
ARC
  8
_0-0_
  6
CONTINUOUS
 62
    7
 10
115.42014237635374
 20
18.954189548730653
 40
0.8582684495079208
 50
331.22910367774625
 51
25.881879685903506
  0
ARC
  8
_0-0_
  6
CONTINUOUS
 62
    7
 10
113.05162118780652
 20
17.57240830788777
 40
3.5984795167460706
 50
29.216002475890285
 51
37.223758552799296
  0
ARC
  8
_0-0_
  6
CONTINUOUS
 62
    7
 10
115.37301328618639
 20
18.763876697624426
 40
0.2487944796307745
 50
243.78093483258604
 51
26.219065167408917
  0
ARC
  8
_0-0_
  6
CONTINUOUS
 62
    7
 10
114.38861668239031
 20
18.186539035410249
 40
1.389460976329945
 50
29.644741742151687
 51
46.000075600872307
  0
ARC
  8
_0-0_
  6
CONTINUOUS
 62
    7
 10
115.95035094840102
 20
19.748273301420056
 40
1.389460976329945
 50
224.28077569259216
 51
240.35525825784293
  0
ARC
  8
_0-0_
  6
CONTINUOUS
 62
    7
 10
114.24308957754317
 20
19.893800406268099
 40
0.2487944796307745
 50
63.780934832585942
 51
206.21906516740873
  0
ARC
  8
_0-0_
  6
CONTINUOUS
 62
    7
 10
115.2274861813388
 20
20.471138068481821
 40
1.389460976329945
 50
209.64474174215169
 51
225.7192243074025
  0
ARC
  8
_0-0_
  6
CONTINUOUS
 62
    7
 10
113.66575191532854
 20
18.909403802472013
 40
1.389460976329945
 50
49.352810002798243
 51
60.355258257843005
  0
ARC
  8
_0-0_
  6
CONTINUOUS
 62
    7
 10
114.4334024286494
 20
19.94092949643499
 40
0.8582684495079208
 50
64.118120314091172
 51
118.77089632224848
  0
ARC
  8
_0-0_
  6
CONTINUOUS
 62
    7
 10
113.05162118780652
 20
17.57240830788777
 40
3.5984795167460706
 50
54.866322719818235
 51
60.783997524104386
  0
ARC
  8
_0-0_
  6
CONTINUOUS
 62
    7
 10
114.86569174502063
 20
19.271198238790646
 40
1.654354451944509
 50
120.73070722357447
 51
149.26929277642023
  0
ARC
  8
_0-0_
  6
CONTINUOUS
 62
    7
 10
114.19596048737583
 20
19.703487555161416
 40
0.8582684495079203
 50
151.2291036777462
 51
205.8818796859035
  0
ARC
  8
_0-0_
  6
CONTINUOUS
 62
    7
 10
118.46231275423668
 20
22.983099874317475
 40
3.598479516746071
 50
209.21600247589029
 51
240.78399752410445
  0
ARC
  8
_0-0_
  6
CONTINUOUS
 62
    7
 10
122.9565108485416
 20
27.47729796861239
 40
9.1391084247164951
 50
221.78919008197005
 51
228.21080991802472
  0
ARC
  8
_0-0_
  6
CONTINUOUS
 62
    7
 10
110.45525417182523
 20
14.976041291897843
 40
9.1391084247164951
 50
41.789190081970006
 51
48.21080991802468
  0
ARC
  8
_0-0_
  6
CONTINUOUS
 62
    7
 10
117.27084436450002
 20
20.661707775938055
 40
0.2487944796307745
 50
243.78093483258604
 51
26.219065167408917
  0
ARC
  8
_0-0_
  6
CONTINUOUS
 62
    7
 10
116.64824219702302
 20
21.284309943415053
 40
1.654354451944509
 50
300.73070722357443
 51
329.26929277642017
  0
ARC
  8
_0-0_
  6
CONTINUOUS
 62
    7
 10
117.31797345466782
 20
20.852020627044737
 40
0.8582684495079208
 50
331.22910367774625
 51
25.881879685903506
  0
ARC
  8
_0-0_
  6
CONTINUOUS
 62
    7
 10
117.08053151339334
 20
20.614578685770255
 40
0.8582684495079203
 50
244.11812031409119
 51
298.77089632224846
  0
ARC
  8
_0-0_
  6
CONTINUOUS
 62
    7
 10
114.94945226612015
 20
19.470239386201399
 40
3.5984795167460706
 50
29.216002475890285
 51
60.783997524104386
  0
ARC
  8
_0-0_
  6
CONTINUOUS
 62
    7
 10
116.28644776070439
 20
20.084370113723423
 40
1.389460976329945
 50
29.644741742151666
 51
45.71922430740247
  0
ARC
  8
_0-0_
  6
CONTINUOUS
 62
    7
 10
117.84818202671465
 20
21.646104379733686
 40
1.389460976329945
 50
224.28077569259216
 51
240.35525825784293
  0
ARC
  8
_0-0_
  6
CONTINUOUS
 62
    7
 10
117.12531725965289
 20
22.36896914679545
 40
1.389460976329945
 50
209.64474174215169
 51
225.7192243074025
  0
ARC
  8
_0-0_
  6
CONTINUOUS
 62
    7
 10
116.1409206558568
 20
21.791631484580819
 40
0.2487944796307745
 50
63.780934832585942
 51
206.21906516740873
  0
ARC
  8
_0-0_
  6
CONTINUOUS
 62
    7
 10
115.56358299364217
 20
20.807234880785188
 40
1.389460976329945
 50
44.280775692592208
 51
60.355258257843012
  0
ARC
  8
_0-0_
  6
CONTINUOUS
 62
    7
 10
116.76352282333426
 20
21.169029317103821
 40
1.654354451944509
 50
120.73070722357447
 51
149.26929277642023
  0
ARC
  8
_0-0_
  6
CONTINUOUS
 62
    7
 10
116.093791565689
 20
21.601318633474591
 40
0.8582684495079203
 50
151.2291036777462
 51
205.8818796859035
  0
ARC
  8
_0-0_
  6
CONTINUOUS
 62
    7
 10
116.33123350696349
 20
21.838760574749074
 40
0.8582684495079208
 50
64.118120314091172
 51
118.77089632224848
  0
LINE
  8
_0-0_
  6
CONTINUOUS
 62
    7
 10
118.16853129434992
 20
35.88632277608184
 11
118.16853129434992
 21
34.553779722451225
  0
LINE
  8
_0-0_
  6
CONTINUOUS
 62
    7
 10
118.16853129434992
 20
35.720051249251071
 11
126.16853129435037
 21
35.720051249251071
  0
LINE
  8
_0-0_
  6
CONTINUOUS
 62
    7
 10
126.16853129435037
 20
35.88632277608184
 11
118.16853129434992
 21
35.88632277608184
  0
LINE
  8
_0-0_
  6
CONTINUOUS
 62
    7
 10
126.16853129435037
 20
35.88632277608184
 11
126.16853129435037
 21
34.553779722451225
  0
LINE
  8
_0-0_
  6
CONTINUOUS
 62
    7
 10
127.36853129434928
 20
34.553779722451225
 11
98.668531294349464
 21
34.553779722451225
  0
LINE
  8
_0-0_
  6
CONTINUOUS
 62
    7
 10
99.168531294349918
 20
34.553779722451225
 11
99.168531294349918
 21
35.88632277608184
  0
LINE
  8
_0-0_
  6
CONTINUOUS
 62
    7
 10
99.168531294349918
 20
35.88632277608184
 11
107.16853129434992
 21
35.88632277608184
  0
LINE
  8
_0-0_
  6
CONTINUOUS
 62
    7
 10
107.16853129434992
 20
35.88632277608184
 11
107.16853129434992
 21
34.553779722451225
  0
LINE
  8
_0-0_
  6
CONTINUOUS
 62
    7
 10
107.16853129434992
 20
35.720051249251071
 11
99.168531294349918
 21
35.720051249251071
  0
LINE
  8
_0-0_
  6
CONTINUOUS
 62
    7
 10
97.668531294349464
 20
33.553779722451225
 11
97.668531294349464
 21
4.8537797224509518
  0
LINE
  8
_0-0_
  6
CONTINUOUS
 62
    7
 10
97.968531294349646
 20
4.5537797224512246
 11
105.51167704485704
 21
4.5537797224512246
  0
LINE
  8
_0-0_
  6
CONTINUOUS
 62
    7
 10
108.34010416960325
 20
5.7253525977050117
 11
126.49695841909613
 21
23.882206847196983
  0
LINE
  8
_0-0_
  6
CONTINUOUS
 62
    7
 10
127.66853129434946
 20
26.710633971943196
 11
127.66853129434946
 21
34.253779722451043
  0
LINE
  8
_0-0_
  6
CONTINUOUS
 62
    7
 10
96.50225976758054
 20
6.0537797224516794
 11
97.668531294349918
 21
6.0537797224516794
  0
LINE
  8
_0-0_
  6
CONTINUOUS
 62
    7
 10
96.668531294380841
 20
6.0537797224516794
 11
96.668531294380841
 21
14.053779722451679
  0
LINE
  8
_0-0_
  6
CONTINUOUS
 62
    7
 10
96.50225976758054
 20
14.053779722451679
 11
96.50225976758054
 21
6.0537797224516794
  0
LINE
  8
_0-0_
  6
CONTINUOUS
 62
    7
 10
96.50225976758054
 20
14.053779722451679
 11
97.668531294349918
 21
14.053779722451679
  0
LINE
  8
_0-0_
  6
CONTINUOUS
 62
    7
 10
97.668531294349918
 20
25.053779722451679
 11
96.50225976758145
 21
25.053779722451679
  0
LINE
  8
_0-0_
  6
CONTINUOUS
 62
    7
 10
96.50225976758145
 20
25.053779722451679
 11
96.50225976758145
 21
33.053779722451679
  0
LINE
  8
_0-0_
  6
CONTINUOUS
 62
    7
 10
96.50225976758145
 20
33.053779722451679
 11
97.668531294349918
 21
33.053779722451679
  0
LINE
  8
_0-0_
  6
CONTINUOUS
 62
    7
 10
96.668531294381296
 20
33.053779722451679
 11
96.668531294381296
 21
25.053779722451679
  0
CIRCLE
  8
_0-0_
  6
CONTINUOUS
 62
    7
 10
107.66853129434946
 20
24.553779722451225
 40
1.6500000000000001
  0
ARC
  8
_0-0_
  6
CONTINUOUS
 62
    7
 10
98.668531294349464
 20
33.553779722451225
 40
1
 50
90
 51
180
  0
ARC
  8
_0-0_
  6
CONTINUOUS
 62
    7
 10
105.51167704485704
 20
8.5537797224512246
 40
4
 50
270
 51
315
  0
ARC
  8
_0-0_
  6
CONTINUOUS
 62
    7
 10
123.66853129434946
 20
26.710633971943196
 40
4
 50
314.99999999999966
 51
0
  0
ARC
  8
_0-0_
  6
CONTINUOUS
 62
    7
 10
97.968531294349646
 20
4.8537797224509518
 40
0.2999999999999998
 50
180
 51
270
  0
ARC
  8
_0-0_
  6
CONTINUOUS
 62
    7
 10
127.36853129434928
 20
34.253779722451043
 40
0.2999999999999998
 50
0
 51
90
  0
LINE
  8
_0-0_
  6
CONTINUOUS
 62
    7
 10
177.62460127154884
 20
34.253779722451043
 11
177.62460127154884
 21
5.5537797224512246
  0
LINE
  8
_0-0_
  6
CONTINUOUS
 62
    7
 10
178.62460127154884
 20
4.5537797224512246
 11
188.62460127154884
 21
4.5537797224512246
  0
LINE
  8
_0-0_
  6
CONTINUOUS
 62
    7
 10
188.06963763569968
 20
4.5576634959631406
 11
187.62974640116101
 21
29.759015444382101
  0
LINE
  8
_0-0_
  6
CONTINUOUS
 62
    7
 10
187.32979209261396
 20
30.053779722451225
 11
179.91941045048372
 21
30.053779722451225
  0
LINE
  8
_0-0_
  6
CONTINUOUS
 62
    7
 10
179.61945614193667
 20
29.759015444382101
 11
179.17949711587937
 21
4.5537797224512246
  0
LINE
  8
_0-0_
  6
CONTINUOUS
 62
    7
 10
189.62460127154884
 20
5.5537797224512246
 11
189.62460127154884
 21
34.253779722451043
  0
LINE
  8
_0-0_
  6
CONTINUOUS
 62
    7
 10
189.32460127154866
 20
34.553779722451225
 11
187.37460127117413
 21
34.553779722451225
  0
LINE
  8
_0-0_
  6
CONTINUOUS
 62
    7
 10
187.37460127117413
 20
34.553779722451225
 11
186.79725100198323
 21
35.553779722451225
  0
LINE
  8
_0-0_
  6
CONTINUOUS
 62
    7
 10
186.79725100198323
 20
35.553779722451225
 11
183.62460127154884
 21
35.720051249266078
  0
LINE
  8
_0-0_
  6
CONTINUOUS
 62
    7
 10
183.62460127183351
 20
35.720051249251071
 11
180.45195154109535
 21
35.553779722420302
  0
LINE
  8
_0-0_
  6
CONTINUOUS
 62
    7
 10
180.45195154109535
 20
35.553779722420302
 11
179.87460127192355
 21
34.553779722451225
  0
LINE
  8
_0-0_
  6
CONTINUOUS
 62
    7
 10
179.99007132575446
 20
34.553779722451225
 11
177.92460127154902
 21
34.553779722451225
  0
LINE
  8
_0-0_
  6
CONTINUOUS
 62
    7
 10
179.99007132575446
 20
34.553779722451225
 11
183.74007132537429
 21
34.750308894742545
  0
LINE
  8
_0-0_
  6
CONTINUOUS
 62
    7
 10
183.74007132537429
 20
34.750308894742545
 11
187.37099840497433
 21
34.560020069762402
  0
ARC
  8
_0-0_
  6
CONTINUOUS
 62
    7
 10
189.32460127154866
 20
34.253779722451043
 40
0.2999999999999998
 50
0
 51
90.000000000000028
  0
ARC
  8
_0-0_
  6
CONTINUOUS
 62
    7
 10
177.92460127154902
 20
34.253779722451043
 40
0.2999999999999998
 50
90
 51
180
  0
ARC
  8
_0-0_
  6
CONTINUOUS
 62
    7
 10
179.91941045048372
 20
29.753779722451043
 40
0.2999999999999998
 50
90
 51
178.99999999999974
  0
ARC
  8
_0-0_
  6
CONTINUOUS
 62
    7
 10
187.32979209261396
 20
29.753779722451043
 40
0.2999999999999998
 50
1.0000000000002431
 51
90.000000000000014
  0
CIRCLE
  8
_0-0_
  6
CONTINUOUS
 62
    7
 10
183.62460127154884
 20
19.553779722451225
 40
2.0499999999999998
  0
ARC
  8
_0-0_
  6
CONTINUOUS
 62
    7
 10
178.62460127154884
 20
5.5537797224512246
 40
1
 50
180
 51
270
  0
ARC
  8
_0-0_
  6
CONTINUOUS
 62
    7
 10
188.62460127154884
 20
5.5537797224512246
 40
1
 50
270
 51
0
  0
LINE
  8
_0-0_
  6
CONTINUOUS
 62
    7
 10
42.241818635195386
 20
93.25089916024956
 11
44.787403047467023
 21
90.705314747977923
  0
LINE
  8
_0-0_
  6
CONTINUOUS
 62
    7
 10
45.423799150534478
 20
90.705314747977923
 11
53.272684421705208
 21
98.554200019147743
  0
LINE
  8
_0-0_
  6
CONTINUOUS
 62
    7
 10
53.272684421705662
 20
99.190596122216107
 11
50.72710000943448
 21
101.73618053448774
  0
LINE
  8
_0-0_
  6
CONTINUOUS
 62
    7
 10
50.090703906365661
 20
101.73618053448729
 11
42.241818635195386
 21
93.887295263317469
  0
LINE
  8
_0-0_
  6
CONTINUOUS
 62
    7
 10
42.966779511610866
 20
93.660149202783145
 11
43.50676746881777
 21
94.200137159989595
  0
LINE
  8
_0-0_
  6
CONTINUOUS
 62
    7
 10
43.50676746881777
 20
94.200137159989595
 11
45.286134479346629
 21
92.420770149460282
  0
LINE
  8
_0-0_
  6
CONTINUOUS
 62
    7
 10
45.286134479346629
 20
92.420770149460282
 11
46.262193476797847
 21
93.396829146911045
  0
LINE
  8
_0-0_
  6
CONTINUOUS
 62
    7
 10
46.262193476797847
 20
93.396829146911045
 11
46.648229164543636
 21
93.010793459165257
  0
LINE
  8
_0-0_
  6
CONTINUOUS
 62
    7
 10
46.648229164543636
 20
93.010793459165257
 11
45.132182209885514
 21
91.494746504508043
  0
LINE
  8
_0-0_
  6
CONTINUOUS
 62
    7
 10
45.132182209885514
 20
91.494746504508043
 11
42.966779511610866
 21
93.660149202783145
  0
LINE
  8
_0-0_
  6
CONTINUOUS
 62
    7
 10
44.899449863853761
 20
95.59281955502604
 11
47.064852562128863
 21
93.427416856750483
  0
LINE
  8
_0-0_
  6
CONTINUOUS
 62
    7
 10
47.064852562128863
 20
93.427416856750483
 11
48.58129409852495
 21
94.94385839314657
  0
LINE
  8
_0-0_
  6
CONTINUOUS
 62
    7
 10
48.58129409852495
 20
94.94385839314657
 11
48.195258410779161
 21
95.329894080891904
  0
LINE
  8
_0-0_
  6
CONTINUOUS
 62
    7
 10
48.195258410779161
 20
95.329894080891904
 11
47.216889870149998
 21
94.351525540262742
  0
LINE
  8
_0-0_
  6
CONTINUOUS
 62
    7
 10
47.216889870149998
 20
94.351525540262742
 11
46.688097765745397
 21
94.880317644667343
  0
LINE
  8
_0-0_
  6
CONTINUOUS
 62
    7
 10
46.688097765745397
 20
94.880317644667343
 11
47.573169543989252
 21
95.765389422911653
  0
LINE
  8
_0-0_
  6
CONTINUOUS
 62
    7
 10
47.573169543989252
 20
95.765389422911653
 11
47.210793852930465
 21
96.127765113970895
  0
LINE
  8
_0-0_
  6
CONTINUOUS
 62
    7
 10
47.210793852930465
 20
96.127765113970895
 11
46.325722074686155
 21
95.242693335726585
  0
LINE
  8
_0-0_
  6
CONTINUOUS
 62
    7
 10
46.325722074686155
 20
95.242693335726585
 11
45.823558547335551
 21
95.744856863077644
  0
LINE
  8
_0-0_
  6
CONTINUOUS
 62
    7
 10
45.823558547335551
 20
95.744856863077644
 11
46.801927087964714
 21
96.723225403706351
  0
LINE
  8
_0-0_
  6
CONTINUOUS
 62
    7
 10
46.801927087964714
 20
96.723225403706351
 11
46.415891400249848
 21
97.109261091421217
  0
LINE
  8
_0-0_
  6
CONTINUOUS
 62
    7
 10
46.415891400249848
 20
97.109261091421217
 11
44.899449863853761
 21
95.59281955502604
  0
LINE
  8
_0-0_
  6
CONTINUOUS
 62
    7
 10
48.445100029595096
 20
97.845070570717894
 11
48.9967500702694
 21
98.396720611392197
  0
LINE
  8
_0-0_
  6
CONTINUOUS
 62
    7
 10
49.228070201239689
 20
97.067468903116719
 11
49.791269515250633
 21
97.630668217127663
  0
ARC
  8
_0-0_
  6
CONTINUOUS
 62
    7
 10
45.105601099000751
 20
91.023512799512105
 40
0.45
 50
224.99999999999733
 51
314.99999999999733
  0
ARC
  8
_0-0_
  6
CONTINUOUS
 62
    7
 10
42.560016686729568
 20
93.569097211783287
 40
0.45
 50
134.99999999999733
 51
224.99999999999733
  0
ARC
  8
_0-0_
  6
CONTINUOUS
 62
    7
 10
50.408901957899843
 20
101.41798248295311
 40
0.45
 50
44.999999999997343
 51
134.99999999999736
  0
ARC
  8
_0-0_
  6
CONTINUOUS
 62
    7
 10
52.95448637017148
 20
98.872398070681925
 40
0.45
 50
314.99999999999739
 51
44.999999999997407
  0
ARC
  8
_0-0_
  6
CONTINUOUS
 62
    7
 10
50.438735815956761
 20
98.966702808853029
 40
3.598479516746071
 50
209.21600247589029
 51
240.78399752410445
  0
ARC
  8
_0-0_
  6
CONTINUOUS
 62
    7
 10
54.932933910261227
 20
103.4609009031484
 40
9.1391084247164951
 50
221.78919008197005
 51
228.21080991802472
  0
ARC
  8
_0-0_
  6
CONTINUOUS
 62
    7
 10
49.056954575113423
 20
96.598181620306264
 40
0.8582684495079203
 50
244.11812031409119
 51
298.77089632224846
  0
ARC
  8
_0-0_
  6
CONTINUOUS
 62
    7
 10
48.624665258743107
 20
97.267912877950607
 40
1.654354451944509
 50
300.73070722357443
 51
329.26929277642017
  0
ARC
  8
_0-0_
  6
CONTINUOUS
 62
    7
 10
49.294396516387451
 20
96.835623561579837
 40
0.8582684495079208
 50
331.22910367774625
 51
25.881879685903506
  0
ARC
  8
_0-0_
  6
CONTINUOUS
 62
    7
 10
46.925875327840231
 20
95.453842320736953
 40
3.5984795167460706
 50
29.216002475890285
 51
37.223758552799296
  0
ARC
  8
_0-0_
  6
CONTINUOUS
 62
    7
 10
49.247267426220105
 20
96.645310710473609
 40
0.2487944796307745
 50
243.78093483258604
 51
26.219065167408917
  0
ARC
  8
_0-0_
  6
CONTINUOUS
 62
    7
 10
48.26287082242402
 20
96.067973048259432
 40
1.389460976329945
 50
29.644741742151687
 51
46.000075600872307
  0
ARC
  8
_0-0_
  6
CONTINUOUS
 62
    7
 10
49.824605088434737
 20
97.62970731426924
 40
1.389460976329945
 50
224.28077569259216
 51
240.35525825784293
  0
ARC
  8
_0-0_
  6
CONTINUOUS
 62
    7
 10
48.117343717576887
 20
97.775234419117282
 40
0.2487944796307745
 50
63.780934832585942
 51
206.21906516740873
  0
ARC
  8
_0-0_
  6
CONTINUOUS
 62
    7
 10
49.101740321372517
 20
98.352572081331004
 40
1.389460976329945
 50
209.64474174215169
 51
225.7192243074025
  0
ARC
  8
_0-0_
  6
CONTINUOUS
 62
    7
 10
47.540006055362255
 20
96.790837815321197
 40
1.389460976329945
 50
49.352810002798243
 51
60.355258257843005
  0
ARC
  8
_0-0_
  6
CONTINUOUS
 62
    7
 10
48.307656568683115
 20
97.822363509284173
 40
0.8582684495079208
 50
64.118120314091172
 51
118.77089632224848
  0
ARC
  8
_0-0_
  6
CONTINUOUS
 62
    7
 10
46.925875327840231
 20
95.453842320736953
 40
3.5984795167460706
 50
54.866322719818235
 51
60.783997524104386
  0
ARC
  8
_0-0_
  6
CONTINUOUS
 62
    7
 10
48.73994588505434
 20
97.15263225163983
 40
1.654354451944509
 50
120.73070722357447
 51
149.26929277642023
  0
ARC
  8
_0-0_
  6
CONTINUOUS
 62
    7
 10
48.070214627409541
 20
97.5849215680106
 40
0.8582684495079203
 50
151.2291036777462
 51
205.8818796859035
  0
ARC
  8
_0-0_
  6
CONTINUOUS
 62
    7
 10
52.336566894270391
 20
100.86453388716666
 40
3.598479516746071
 50
209.21600247589029
 51
240.78399752410445
  0
ARC
  8
_0-0_
  6
CONTINUOUS
 62
    7
 10
56.830764988575311
 20
105.35873198146157
 40
9.1391084247164951
 50
221.78919008197005
 51
228.21080991802472
  0
ARC
  8
_0-0_
  6
CONTINUOUS
 62
    7
 10
44.329508311858945
 20
92.857475304747027
 40
9.1391084247164951
 50
41.789190081970006
 51
48.21080991802468
  0
ARC
  8
_0-0_
  6
CONTINUOUS
 62
    7
 10
51.145098504533735
 20
98.543141788787239
 40
0.2487944796307745
 50
243.78093483258604
 51
26.219065167408917
  0
ARC
  8
_0-0_
  6
CONTINUOUS
 62
    7
 10
50.522496337056737
 20
99.165743956264237
 40
1.654354451944509
 50
300.73070722357443
 51
329.26929277642017
  0
ARC
  8
_0-0_
  6
CONTINUOUS
 62
    7
 10
51.192227594701535
 20
98.733454639893921
 40
0.8582684495079208
 50
331.22910367774625
 51
25.881879685903506
  0
ARC
  8
_0-0_
  6
CONTINUOUS
 62
    7
 10
50.954785653427052
 20
98.496012698619438
 40
0.8582684495079203
 50
244.11812031409119
 51
298.77089632224846
  0
ARC
  8
_0-0_
  6
CONTINUOUS
 62
    7
 10
48.82370640615386
 20
97.351673399050583
 40
3.5984795167460706
 50
29.216002475890285
 51
60.783997524104386
  0
ARC
  8
_0-0_
  6
CONTINUOUS
 62
    7
 10
50.160701900738104
 20
97.965804126572607
 40
1.389460976329945
 50
29.644741742151666
 51
45.71922430740247
  0
ARC
  8
_0-0_
  6
CONTINUOUS
 62
    7
 10
51.722436166748366
 20
99.527538392582869
 40
1.389460976329945
 50
224.28077569259216
 51
240.35525825784293
  0
ARC
  8
_0-0_
  6
CONTINUOUS
 62
    7
 10
50.999571399686602
 20
100.25040315964463
 40
1.389460976329945
 50
209.64474174215169
 51
225.7192243074025
  0
ARC
  8
_0-0_
  6
CONTINUOUS
 62
    7
 10
50.015174795890516
 20
99.673065497430002
 40
0.2487944796307745
 50
63.780934832585942
 51
206.21906516740873
  0
ARC
  8
_0-0_
  6
CONTINUOUS
 62
    7
 10
49.437837133675885
 20
98.688668893634372
 40
1.389460976329945
 50
44.280775692592208
 51
60.355258257843012
  0
ARC
  8
_0-0_
  6
CONTINUOUS
 62
    7
 10
50.637776963367969
 20
99.050463329953004
 40
1.654354451944509
 50
120.73070722357447
 51
149.26929277642023
  0
ARC
  8
_0-0_
  6
CONTINUOUS
 62
    7
 10
49.968045705722716
 20
99.482752646323775
 40
0.8582684495079203
 50
151.2291036777462
 51
205.8818796859035
  0
ARC
  8
_0-0_
  6
CONTINUOUS
 62
    7
 10
50.205487646997199
 20
99.720194587598257
 40
0.8582684495079208
 50
64.118120314091172
 51
118.77089632224848
  0
LINE
  8
_0-0_
  6
CONTINUOUS
 62
    7
 10
52.042785434383632
 20
113.76775678893102
 11
52.042785434383632
 21
112.43521373530041
  0
LINE
  8
_0-0_
  6
CONTINUOUS
 62
    7
 10
52.042785434383632
 20
113.60148526210025
 11
60.042785434384086
 21
113.60148526210025
  0
LINE
  8
_0-0_
  6
CONTINUOUS
 62
    7
 10
60.042785434384086
 20
113.76775678893102
 11
52.042785434383632
 21
113.76775678893102
  0
LINE
  8
_0-0_
  6
CONTINUOUS
 62
    7
 10
60.042785434384086
 20
113.76775678893102
 11
60.042785434384086
 21
112.43521373530041
  0
LINE
  8
_0-0_
  6
CONTINUOUS
 62
    7
 10
61.242785434382995
 20
112.43521373530041
 11
32.542785434383177
 21
112.43521373530041
  0
LINE
  8
_0-0_
  6
CONTINUOUS
 62
    7
 10
33.042785434383632
 20
112.43521373530041
 11
33.042785434383632
 21
113.76775678893102
  0
LINE
  8
_0-0_
  6
CONTINUOUS
 62
    7
 10
33.042785434383632
 20
113.76775678893102
 11
41.042785434383632
 21
113.76775678893102
  0
LINE
  8
_0-0_
  6
CONTINUOUS
 62
    7
 10
41.042785434383632
 20
113.76775678893102
 11
41.042785434383632
 21
112.43521373530041
  0
LINE
  8
_0-0_
  6
CONTINUOUS
 62
    7
 10
41.042785434383632
 20
113.60148526210025
 11
33.042785434383632
 21
113.60148526210025
  0
LINE
  8
_0-0_
  6
CONTINUOUS
 62
    7
 10
31.542785434383177
 20
111.43521373530041
 11
31.542785434383177
 21
82.735213735300135
  0
LINE
  8
_0-0_
  6
CONTINUOUS
 62
    7
 10
31.842785434383359
 20
82.435213735300408
 11
39.385931184890751
 21
82.435213735300408
  0
LINE
  8
_0-0_
  6
CONTINUOUS
 62
    7
 10
42.214358309636964
 20
83.606786610554195
 11
60.371212559129845
 21
101.76364086004617
  0
LINE
  8
_0-0_
  6
CONTINUOUS
 62
    7
 10
61.542785434383177
 20
104.59206798479238
 11
61.542785434383177
 21
112.13521373530023
  0
LINE
  8
_0-0_
  6
CONTINUOUS
 62
    7
 10
30.376513907614253
 20
83.935213735300863
 11
31.542785434383632
 21
83.935213735300863
  0
LINE
  8
_0-0_
  6
CONTINUOUS
 62
    7
 10
30.542785434414554
 20
83.935213735300863
 11
30.542785434414554
 21
91.935213735300863
  0
LINE
  8
_0-0_
  6
CONTINUOUS
 62
    7
 10
30.376513907614253
 20
91.935213735300863
 11
30.376513907614253
 21
83.935213735300863
  0
LINE
  8
_0-0_
  6
CONTINUOUS
 62
    7
 10
30.376513907614253
 20
91.935213735300863
 11
31.542785434383632
 21
91.935213735300863
  0
LINE
  8
_0-0_
  6
CONTINUOUS
 62
    7
 10
31.542785434383632
 20
102.93521373530086
 11
30.376513907615163
 21
102.93521373530086
  0
LINE
  8
_0-0_
  6
CONTINUOUS
 62
    7
 10
30.376513907615163
 20
102.93521373530086
 11
30.376513907615163
 21
110.93521373530086
  0
LINE
  8
_0-0_
  6
CONTINUOUS
 62
    7
 10
30.376513907615163
 20
110.93521373530086
 11
31.542785434383632
 21
110.93521373530086
  0
LINE
  8
_0-0_
  6
CONTINUOUS
 62
    7
 10
30.542785434415009
 20
110.93521373530086
 11
30.542785434415009
 21
102.93521373530086
  0
CIRCLE
  8
_0-0_
  6
CONTINUOUS
 62
    7
 10
41.542785434383177
 20
102.43521373530041
 40
1.6500000000000001
  0
ARC
  8
_0-0_
  6
CONTINUOUS
 62
    7
 10
32.542785434383177
 20
111.43521373530041
 40
1
 50
90
 51
180
  0
ARC
  8
_0-0_
  6
CONTINUOUS
 62
    7
 10
39.385931184890751
 20
86.435213735300408
 40
4
 50
270
 51
315
  0
ARC
  8
_0-0_
  6
CONTINUOUS
 62
    7
 10
57.542785434383177
 20
104.59206798479238
 40
4
 50
314.99999999999966
 51
0
  0
ARC
  8
_0-0_
  6
CONTINUOUS
 62
    7
 10
31.842785434383359
 20
82.735213735300135
 40
0.2999999999999998
 50
180
 51
270
  0
ARC
  8
_0-0_
  6
CONTINUOUS
 62
    7
 10
61.242785434382995
 20
112.13521373530023
 40
0.2999999999999998
 50
0
 51
90
  0
LINE
  8
_0-0_
  6
CONTINUOUS
 62
    7
 10
111.4988554115825
 20
112.13521373530023
 11
111.4988554115825
 21
83.435213735300408
  0
LINE
  8
_0-0_
  6
CONTINUOUS
 62
    7
 10
112.4988554115825
 20
82.435213735300408
 11
122.4988554115825
 21
82.435213735300408
  0
LINE
  8
_0-0_
  6
CONTINUOUS
 62
    7
 10
121.94389177573333
 20
82.439097508812324
 11
121.50400054119467
 21
107.64044945723128
  0
LINE
  8
_0-0_
  6
CONTINUOUS
 62
    7
 10
121.20404623264761
 20
107.93521373530041
 11
113.79366459051738
 21
107.93521373530041
  0
LINE
  8
_0-0_
  6
CONTINUOUS
 62
    7
 10
113.49371028197032
 20
107.64044945723128
 11
113.05375125591303
 21
82.435213735300408
  0
LINE
  8
_0-0_
  6
CONTINUOUS
 62
    7
 10
123.4988554115825
 20
83.435213735300408
 11
123.4988554115825
 21
112.13521373530023
  0
LINE
  8
_0-0_
  6
CONTINUOUS
 62
    7
 10
123.19885541158231
 20
112.43521373530041
 11
121.24885541120778
 21
112.43521373530041
  0
LINE
  8
_0-0_
  6
CONTINUOUS
 62
    7
 10
121.24885541120778
 20
112.43521373530041
 11
120.67150514201688
 21
113.43521373530041
  0
LINE
  8
_0-0_
  6
CONTINUOUS
 62
    7
 10
120.67150514201688
 20
113.43521373530041
 11
117.4988554115825
 21
113.60148526211526
  0
LINE
  8
_0-0_
  6
CONTINUOUS
 62
    7
 10
117.49885541186717
 20
113.60148526210025
 11
114.32620568112901
 21
113.43521373526949
  0
LINE
  8
_0-0_
  6
CONTINUOUS
 62
    7
 10
114.32620568112901
 20
113.43521373526949
 11
113.74885541195721
 21
112.43521373530041
  0
LINE
  8
_0-0_
  6
CONTINUOUS
 62
    7
 10
113.86432546578811
 20
112.43521373530041
 11
111.79885541158268
 21
112.43521373530041
  0
LINE
  8
_0-0_
  6
CONTINUOUS
 62
    7
 10
113.86432546578811
 20
112.43521373530041
 11
117.61432546540794
 21
112.63174290759173
  0
LINE
  8
_0-0_
  6
CONTINUOUS
 62
    7
 10
117.61432546540794
 20
112.63174290759173
 11
121.24525254500799
 21
112.44145408261159
  0
ARC
  8
_0-0_
  6
CONTINUOUS
 62
    7
 10
123.19885541158231
 20
112.13521373530023
 40
0.2999999999999998
 50
0
 51
90.000000000000028
  0
ARC
  8
_0-0_
  6
CONTINUOUS
 62
    7
 10
111.79885541158268
 20
112.13521373530023
 40
0.2999999999999998
 50
90
 51
180
  0
ARC
  8
_0-0_
  6
CONTINUOUS
 62
    7
 10
113.79366459051738
 20
107.63521373530023
 40
0.2999999999999998
 50
90
 51
178.99999999999974
  0
ARC
  8
_0-0_
  6
CONTINUOUS
 62
    7
 10
121.20404623264761
 20
107.63521373530023
 40
0.2999999999999998
 50
1.0000000000002431
 51
90.000000000000014
  0
ARC
  8
_0-0_
  6
CONTINUOUS
 62
    7
 10
112.4988554115825
 20
83.435213735300408
 40
1
 50
180
 51
270
  0
ARC
  8
_0-0_
  6
CONTINUOUS
 62
    7
 10
122.4988554115825
 20
83.435213735300408
 40
1
 50
270
 51
0
  0
LINE
  8
_0-0_
  6
CONTINUOUS
 62
    7
 10
118.9988554115825
 20
96.569188347059651
 11
118.9988554115825
 21
98.301239123541279
  0
LINE
  8
_0-0_
  6
CONTINUOUS
 62
    7
 10
118.9988554115825
 20
98.301239123541279
 11
117.4988554115825
 21
99.167264511782093
  0
LINE
  8
_0-0_
  6
CONTINUOUS
 62
    7
 10
117.4988554115825
 20
99.167264511782093
 11
115.9988554115825
 21
98.301239123541279
  0
LINE
  8
_0-0_
  6
CONTINUOUS
 62
    7
 10
115.9988554115825
 20
98.301239123541279
 11
115.9988554115825
 21
96.569188347059651
  0
LINE
  8
_0-0_
  6
CONTINUOUS
 62
    7
 10
115.9988554115825
 20
96.569188347059651
 11
117.4988554115825
 21
95.703162958818837
  0
LINE
  8
_0-0_
  6
CONTINUOUS
 62
    7
 10
117.4988554115825
 20
95.703162958818837
 11
118.9988554115825
 21
96.569188347059651
  0
CIRCLE
  8
_0-0_
  6
CONTINUOUS
 62
    7
 10
117.4988554115825
 20
97.435213735300465
 40
3.5
  0
LINE
  8
_0-0_
  6
CONTINUOUS
 62
    7
 10
120.65390641158268
 20
117.09661373530071
 11
119.78024241158249
 21
117.41460373530049
  0
LINE
  8
_0-0_
  6
CONTINUOUS
 62
    7
 10
119.0962024115824
 20
117.53521373530066
 11
115.90150941158248
 21
117.53521373530066
  0
LINE
  8
_0-0_
  6
CONTINUOUS
 62
    7
 10
115.21746941158239
 20
117.41460373530049
 11
114.34380541158265
 21
117.09661373530071
  0
ARC
  8
_0-0_
  6
CONTINUOUS
 62
    7
 10
119.0962024115824
 20
115.53521373530066
 40
2
 50
69.999999999999972
 51
90
  0
ARC
  8
_0-0_
  6
CONTINUOUS
 62
    7
 10
115.90150941158248
 20
115.53521373530066
 40
2
 50
90
 51
110
  0
ARC
  8
_0-0_
  6
CONTINUOUS
 62
    7
 10
119.79885541158268
 20
114.74738373530045
 40
2.5
 50
348.17822799457855
 51
69.999999999999929
  0
LINE
  8
_0-0_
  6
CONTINUOUS
 62
    7
 10
121.0703933183749
 20
114.23521373530048
 11
122.24582943905006
 21
114.23521373530048
  0
ARC
  8
_0-0_
  6
CONTINUOUS
 62
    7
 10
115.19885541158277
 20
114.74738373530045
 40
2.5
 50
110.00000000000003
 51
191.82177200542145
  0
LINE
  8
_0-0_
  6
CONTINUOUS
 62
    7
 10
112.75188138411539
 20
114.23521373530048
 11
113.92731850479049
 21
114.23521373530048
  0
LINE
  8
_0-0_
  6
CONTINUOUS
 62
    7
 10
114.20016896983935
 20
113.216911747697
 11
113.92731850479049
 21
114.23521373530048
  0
LINE
  8
_0-0_
  6
CONTINUOUS
 62
    7
 10
121.0703933183749
 20
114.23521373530048
 11
120.79754253634036
 21
113.21691056467898
  0
LINE
  8
_0-0_
  6
CONTINUOUS
 62
    7
 10
116.33218878465226
 20
104.43521373530041
 11
116.33218878465226
 21
107.93521373530041
  0
LINE
  8
_0-0_
  6
CONTINUOUS
 62
    7
 10
115.7488554115825
 20
104.43521373530041
 11
115.7488554115825
 21
107.93521373530041
  0
LINE
  8
_0-0_
  6
CONTINUOUS
 62
    7
 10
115.16552215772202
 20
104.43521373530041
 11
115.16552215772202
 21
107.93521373530041
  0
LINE
  8
_0-0_
  6
CONTINUOUS
 62
    7
 10
114.58218866544297
 20
104.43521373530041
 11
114.58218866544297
 21
107.93521373530041
  0
LINE
  8
_0-0_
  6
CONTINUOUS
 62
    7
 10
120.9988554115825
 20
104.43521373530041
 11
120.9988554115825
 21
107.93521373530041
  0
LINE
  8
_0-0_
  6
CONTINUOUS
 62
    7
 10
120.9988554115825
 20
104.43521373530041
 11
120.4988554115825
 21
103.93521373530041
  0
LINE
  8
_0-0_
  6
CONTINUOUS
 62
    7
 10
114.4988554115825
 20
103.93521373530041
 11
120.4988554115825
 21
103.93521373530041
  0
LINE
  8
_0-0_
  6
CONTINUOUS
 62
    7
 10
113.9988554115825
 20
104.43521373530041
 11
113.9988554115825
 21
107.93521373530041
  0
LINE
  8
_0-0_
  6
CONTINUOUS
 62
    7
 10
114.4988554115825
 20
103.93521373530041
 11
113.9988554115825
 21
104.43521373530041
  0
LINE
  8
_0-0_
  6
CONTINUOUS
 62
    7
 10
120.9988554115825
 20
104.43521373530041
 11
113.9988554115825
 21
104.43521373530041
  0
LINE
  8
_0-0_
  6
CONTINUOUS
 62
    7
 10
115.79885536389878
 20
117.93521373530041
 11
119.19885545926621
 21
117.93521373530041
  0
LINE
  8
_0-0_
  6
CONTINUOUS
 62
    7
 10
119.4988554115825
 20
117.63521354456554
 11
119.19885545926621
 21
117.93521373530041
  0
LINE
  8
_0-0_
  6
CONTINUOUS
 62
    7
 10
115.79885536389878
 20
117.93521373530041
 11
115.4988554115825
 21
117.63521354456554
  0
LINE
  8
_0-0_
  6
CONTINUOUS
 62
    7
 10
119.4988554115825
 20
117.63521354456554
 11
115.4988554115825
 21
117.63521354456554
  0
LINE
  8
_0-0_
  6
CONTINUOUS
 62
    7
 10
115.4988554115825
 20
117.63521354456554
 11
115.4988554115825
 21
117.49426191140145
  0
LINE
  8
_0-0_
  6
CONTINUOUS
 62
    7
 10
115.79885536389878
 20
117.53257753453556
 11
115.79885536389878
 21
117.93521373530041
  0
LINE
  8
_0-0_
  6
CONTINUOUS
 62
    7
 10
119.19885545926621
 20
117.53257758593008
 11
119.19885545926621
 21
117.93521373530041
  0
LINE
  8
_0-0_
  6
CONTINUOUS
 62
    7
 10
119.4988554115825
 20
117.63521354456554
 11
119.4988554115825
 21
117.49426211693674
  0
LINE
  8
_0-0_
  6
CONTINUOUS
 62
    7
 10
44.842785386699461
 20
117.93521373530041
 11
48.242785482066893
 21
117.93521373530041
  0
LINE
  8
_0-0_
  6
CONTINUOUS
 62
    7
 10
48.542785434383177
 20
117.63521354456554
 11
48.242785482066893
 21
117.93521373530041
  0
LINE
  8
_0-0_
  6
CONTINUOUS
 62
    7
 10
44.842785386699461
 20
117.93521373530041
 11
44.542785434383177
 21
117.63521354456554
  0
LINE
  8
_0-0_
  6
CONTINUOUS
 62
    7
 10
48.542785434383177
 20
117.63521354456554
 11
44.542785434383177
 21
117.63521354456554
  0
LINE
  8
_0-0_
  6
CONTINUOUS
 62
    7
 10
44.542785434383177
 20
117.63521354456554
 11
44.542785434383177
 21
117.53521373530066
  0
LINE
  8
_0-0_
  6
CONTINUOUS
 62
    7
 10
44.842785386699461
 20
117.53521373530066
 11
44.842785386699461
 21
117.93521373530041
  0
LINE
  8
_0-0_
  6
CONTINUOUS
 62
    7
 10
48.242785482066893
 20
117.53521373530066
 11
48.242785482066893
 21
117.93521373530041
  0
LINE
  8
_0-0_
  6
CONTINUOUS
 62
    7
 10
48.542785434383177
 20
117.63521354456554
 11
48.542785434383177
 21
117.53521373530066
  0
LINE
  8
_0-0_
  6
CONTINUOUS
 62
    7
 10
26.042785434383177
 20
95.735213687616692
 11
26.042785434383177
 21
99.135213782984124
  0
LINE
  8
_0-0_
  6
CONTINUOUS
 62
    7
 10
26.34278562511804
 20
99.435213735300408
 11
26.042785434383177
 21
99.135213782984124
  0
LINE
  8
_0-0_
  6
CONTINUOUS
 62
    7
 10
26.042785434383177
 20
95.735213687616692
 11
26.34278562511804
 21
95.435213735300408
  0
LINE
  8
_0-0_
  6
CONTINUOUS
 62
    7
 10
26.34278562511804
 20
99.435213735300408
 11
26.34278562511804
 21
95.435213735300408
  0
LINE
  8
_0-0_
  6
CONTINUOUS
 62
    7
 10
26.34278562511804
 20
95.435213735300408
 11
26.442785434382927
 21
95.435213735300408
  0
LINE
  8
_0-0_
  6
CONTINUOUS
 62
    7
 10
26.442785434382927
 20
95.735213687616692
 11
26.042785434383177
 21
95.735213687616692
  0
LINE
  8
_0-0_
  6
CONTINUOUS
 62
    7
 10
26.442785434382927
 20
99.135213782984124
 11
26.042785434383177
 21
99.135213782984124
  0
LINE
  8
_0-0_
  6
CONTINUOUS
 62
    7
 10
26.34278562511804
 20
99.435213735300408
 11
26.442785434382927
 21
99.435213735300408
  0
LINE
  8
_0-1_
  6
CENTER1
 62
  152
 10
95.516854538942312
 20
19.553779722451225
 11
104.0531125090896
 21
19.553779722451225
  0
LINE
  8
_0-1_
  6
CENTER1
 62
  152
 10
107.66853129434946
 20
21.553779722451225
 11
107.66853129434946
 21
27.553779722451225
  0
LINE
  8
_0-1_
  6
CENTER1
 62
  152
 10
112.66853129434946
 20
27.632636920038465
 11
112.66853129434946
 21
36.569927143816756
  0
LINE
  8
_0-1_
  6
CENTER1
 62
  152
 10
110.66853129434946
 20
24.553779722451225
 11
104.66853129434946
 21
24.553779722451225
  0
LINE
  8
_0-1_
  6
DASHED2
 62
  152
 10
102.16853129434946
 20
30.053779722451225
 11
127.36853129434928
 21
30.053779722451225
  0
LINE
  8
_0-1_
  6
CENTER1
 62
  152
 10
119.92123170981438
 20
24.377547949781444
 11
107.30229225627397
 21
11.758608496240583
  0
LINE
  8
_0-1_
  6
DASHED2
 62
  152
 10
102.16853129434946
 20
30.053779722451225
 11
102.16853129434946
 21
4.8537797224509518
  0
ARC
  8
_0-1_
  6
DASHED2
 62
  152
 10
127.36853129434928
 20
30.353779722450952
 40
0.2999999999999998
 50
270
 51
0
  0
ARC
  8
_0-1_
  6
DASHED2
 62
  152
 10
101.86853129434928
 20
4.8537797224509518
 40
0.2999999999999998
 50
270
 51
0
  0
LINE
  8
_0-1_
  6
CENTER1
 62
  152
 10
183.62460127154884
 20
4.5537797224512246
 11
183.62460127154884
 21
35.720051249266078
  0
LINE
  8
_0-1_
  6
CENTER1
 62
  152
 10
186.76152536679785
 20
19.553779722451225
 11
180.44736018436345
 21
19.553779722451225
  0
LINE
  8
_0-1_
  6
CENTER1
 62
  152
 10
29.391108678976025
 20
97.435213735300408
 11
37.927366649123314
 21
97.435213735300408
  0
LINE
  8
_0-1_
  6
CENTER1
 62
  152
 10
41.542785434383177
 20
99.435213735300408
 11
41.542785434383177
 21
105.43521373530041
  0
LINE
  8
_0-1_
  6
CENTER1
 62
  152
 10
44.542785434383177
 20
102.43521373530041
 11
38.542785434383177
 21
102.43521373530041
  0
LINE
  8
_0-1_
  6
DASHED2
 62
  152
 10
36.042785434383177
 20
107.93521373530041
 11
61.242785434382995
 21
107.93521373530041
  0
LINE
  8
_0-1_
  6
DASHED2
 62
  152
 10
36.042785434383177
 20
107.93521373530041
 11
36.042785434383177
 21
82.735213735300135
  0
ARC
  8
_0-1_
  6
DASHED2
 62
  152
 10
61.242785434382995
 20
108.23521373530014
 40
0.2999999999999998
 50
270
 51
0
  0
ARC
  8
_0-1_
  6
DASHED2
 62
  152
 10
35.742785434382995
 20
82.735213735300135
 40
0.2999999999999998
 50
270
 51
0
  0
LINE
  8
_0-1_
  6
CENTER1
 62
  152
 10
120.63577950683151
 20
97.435213735300408
 11
114.3216143243971
 21
97.435213735300408
  0
LINE
  8
_0-1_
  6
PHANTOM1
 62
  152
 10
104.9988554115825
 20
112.43521373530041
 11
129.9988554115825
 21
112.43521373530041
  0
LINE
  8
_0-1_
  6
PHANTOM1
 62
  152
 10
129.9988554115825
 20
112.43521373530041
 11
129.9988554115825
 21
137.43521373530041
  0
LINE
  8
_0-1_
  6
PHANTOM1
 62
  152
 10
129.9988554115825
 20
137.43521373530041
 11
104.9988554115825
 21
137.43521373530041
  0
LINE
  8
_0-1_
  6
PHANTOM1
 62
  152
 10
104.9988554115825
 20
137.43521373530041
 11
104.9988554115825
 21
112.43521373530041
  0
LINE
  8
_0-1_
  6
PHANTOM1
 62
  152
 10
79.349225188606852
 20
112.43521373530041
 11
31.542785434383291
 21
112.43521373530041
  0
LINE
  8
_0-1_
  6
PHANTOM1
 62
  152
 10
79.349225188606852
 20
137.43521373530041
 11
31.542785434383291
 21
137.43521373530041
  0
LINE
  8
_0-1_
  6
PHANTOM1
 62
  152
 10
31.542785434383291
 20
64.74684283744989
 11
31.542785434383291
 21
152.54985256880627
  0
LINE
  8
_0-1_
  6
PHANTOM1
 62
  152
 10
6.5427854343832905
 20
64.74684283744989
 11
6.5427854343832905
 21
152.54985256880627
  0
LINE
  8
ADD_LINE
  6
DOT
 62
  152
 10
117.4988554115825
 20
112.43521373530064
 11
118.20596219275006
 21
113.14232051646809
  0
LINE
  8
ADD_LINE
  6
DOT
 62
  152
 10
116.79174863037673
 20
113.14232051646809
 11
117.4988554115634
 21
112.43521373528142
  0
LINE
  8
ADD_LINE
  6
DOT
 62
  152
 10
117.4988554115825
 20
107.93521373530041
 11
116.79174863039583
 21
108.64232051648696
  0
LINE
  8
ADD_LINE
  6
DOT
 62
  152
 10
117.4988554115825
 20
107.93521373530041
 11
118.20596219276916
 21
108.64232051648696
  0
LINE
  8
_0-1_
  6
CENTER1
 62
  152
 10
117.4988554115825
 20
82.435213735300408
 11
117.4988554115825
 21
118.28170260203103
  0
LINE
  8
_0-1_
  6
DASHED2
 62
  152
 10
115.4988554115825
 20
117.49426191140145
 11
115.4988554115825
 21
107.93521373530041
  0
LINE
  8
_0-1_
  6
DASHED2
 62
  152
 10
115.79885536389878
 20
107.93521373530041
 11
115.79885536389878
 21
117.53257753453556
  0
LINE
  8
_0-1_
  6
DASHED2
 62
  152
 10
119.19885545926621
 20
107.93521373530041
 11
119.19885545926621
 21
117.53257758593008
  0
LINE
  8
_0-1_
  6
DASHED2
 62
  152
 10
119.4988554115825
 20
117.49426211693674
 11
119.4988554115825
 21
107.93521373530041
  0
LINE
  8
_0-1_
  6
CENTER1
 62
  152
 10
46.542785434383177
 20
102.41533424983652
 11
46.542785434383177
 21
118.52483157767642
  0
LINE
  8
_0-1_
  6
DASHED2
 62
  152
 10
51.542785434383177
 20
117.53521373530066
 11
51.542785434383177
 21
113.03521373530066
  0
LINE
  8
_0-1_
  6
DASHED2
 62
  152
 10
46.542785434383177
 20
107.93521373530041
 11
45.83567865319651
 21
108.64232051648696
  0
LINE
  8
_0-1_
  6
DASHED2
 62
  152
 10
46.542785434383177
 20
107.93521373530041
 11
47.249892215569844
 21
108.64232051648696
  0
LINE
  8
_0-1_
  6
DASHED2
 62
  152
 10
45.37611880745294
 20
104.43521373530041
 11
45.37611880745294
 21
107.93521373530041
  0
LINE
  8
_0-1_
  6
DASHED2
 62
  152
 10
44.792785434383177
 20
104.43521373530041
 11
44.792785434383177
 21
107.93521373530041
  0
LINE
  8
_0-1_
  6
DASHED2
 62
  152
 10
44.209452180522703
 20
104.43521373530041
 11
44.209452180522703
 21
107.93521373530041
  0
LINE
  8
_0-1_
  6
DASHED2
 62
  152
 10
43.62611868824365
 20
104.43521373530041
 11
43.62611868824365
 21
107.93521373530041
  0
LINE
  8
_0-1_
  6
DASHED2
 62
  152
 10
50.042785434383177
 20
104.43521373530041
 11
50.042785434383177
 21
107.93521373530041
  0
LINE
  8
_0-1_
  6
DASHED2
 62
  152
 10
50.042785434383177
 20
104.43521373530041
 11
49.542785434383177
 21
103.93521373530041
  0
LINE
  8
_0-1_
  6
DASHED2
 62
  152
 10
43.542785434383177
 20
103.93521373530041
 11
49.542785434383177
 21
103.93521373530041
  0
LINE
  8
_0-1_
  6
DASHED2
 62
  152
 10
43.042785434383177
 20
104.43521373530041
 11
43.042785434383177
 21
107.93521373530041
  0
LINE
  8
_0-1_
  6
DASHED2
 62
  152
 10
43.542785434383177
 20
103.93521373530041
 11
43.042785434383177
 21
104.43521373530041
  0
LINE
  8
_0-1_
  6
DASHED2
 62
  152
 10
50.042785434383177
 20
104.43521373530041
 11
43.042785434383177
 21
104.43521373530041
  0
LINE
  8
_0-1_
  6
DASHED2
 62
  152
 10
44.542785434383177
 20
117.53521373530066
 11
44.542785434383177
 21
107.93521373530041
  0
LINE
  8
_0-1_
  6
DASHED2
 62
  152
 10
44.842785386699461
 20
107.93521373530041
 11
44.842785386699461
 21
117.53521373530066
  0
LINE
  8
_0-1_
  6
DASHED2
 62
  152
 10
48.242785482066893
 20
107.93521373530041
 11
48.242785482066893
 21
117.53521373530066
  0
LINE
  8
_0-1_
  6
DASHED2
 62
  152
 10
48.542785434383177
 20
117.53521373530066
 11
48.542785434383177
 21
107.93521373530041
  0
LINE
  8
_0-1_
  6
DASHED2
 62
  152
 10
51.542785434383177
 20
117.53521373530066
 11
41.542785434383177
 21
117.53521373530066
  0
LINE
  8
_0-1_
  6
DASHED2
 62
  152
 10
51.542785434383177
 20
114.23521373530059
 11
41.542785434383177
 21
114.23521373530059
  0
LINE
  8
_0-1_
  6
DASHED2
 62
  152
 10
51.542785434383177
 20
113.03521373530066
 11
41.542785434383177
 21
113.03521373530066
  0
LINE
  8
_0-1_
  6
DASHED2
 62
  152
 10
41.542785434383177
 20
117.53521373530066
 11
41.542785434383177
 21
113.03521373530066
  0
LINE
  8
_0-1_
  6
DASHED2
 62
  152
 10
26.442785434382927
 20
102.43521373530041
 11
30.942785434382927
 21
102.43521373530041
  0
LINE
  8
_0-1_
  6
DASHED2
 62
  152
 10
36.042785434383177
 20
97.435213735300408
 11
35.33567865319651
 21
96.728106954113741
  0
LINE
  8
_0-1_
  6
DASHED2
 62
  152
 10
36.042785434383177
 20
97.435213735300408
 11
35.33567865319651
 21
98.142320516487075
  0
LINE
  8
_0-1_
  6
DASHED2
 62
  152
 10
39.542785434383177
 20
96.268547108370171
 11
36.042785434383177
 21
96.268547108370171
  0
LINE
  8
_0-1_
  6
DASHED2
 62
  152
 10
39.542785434383177
 20
95.685213735300408
 11
36.042785434383177
 21
95.685213735300408
  0
LINE
  8
_0-1_
  6
DASHED2
 62
  152
 10
39.542785434383177
 20
95.101880481439935
 11
36.042785434383177
 21
95.101880481439935
  0
LINE
  8
_0-1_
  6
DASHED2
 62
  152
 10
39.542785434383177
 20
94.518546989160882
 11
36.042785434383177
 21
94.518546989160882
  0
LINE
  8
_0-1_
  6
DASHED2
 62
  152
 10
39.542785434383177
 20
100.93521373530041
 11
36.042785434383177
 21
100.93521373530041
  0
LINE
  8
_0-1_
  6
DASHED2
 62
  152
 10
39.542785434383177
 20
100.93521373530041
 11
40.042785434383177
 21
100.43521373530041
  0
LINE
  8
_0-1_
  6
DASHED2
 62
  152
 10
40.042785434383177
 20
94.435213735300408
 11
40.042785434383177
 21
100.43521373530041
  0
LINE
  8
_0-1_
  6
DASHED2
 62
  152
 10
39.542785434383177
 20
93.935213735300408
 11
36.042785434383177
 21
93.935213735300408
  0
LINE
  8
_0-1_
  6
DASHED2
 62
  152
 10
40.042785434383177
 20
94.435213735300408
 11
39.542785434383177
 21
93.935213735300408
  0
LINE
  8
_0-1_
  6
DASHED2
 62
  152
 10
39.542785434383177
 20
100.93521373530041
 11
39.542785434383177
 21
93.935213735300408
  0
LINE
  8
_0-1_
  6
DASHED2
 62
  152
 10
26.442785434382927
 20
102.43521373530041
 11
26.442785434382927
 21
92.435213735300408
  0
LINE
  8
_0-1_
  6
DASHED2
 62
  152
 10
29.742785434382995
 20
102.43521373530041
 11
29.742785434382995
 21
92.435213735300408
  0
LINE
  8
_0-1_
  6
DASHED2
 62
  152
 10
30.942785434382927
 20
102.43521373530041
 11
30.942785434382927
 21
92.435213735300408
  0
LINE
  8
_0-1_
  6
DASHED2
 62
  152
 10
26.442785434382927
 20
92.435213735300408
 11
30.942785434382927
 21
92.435213735300408
  0
LINE
  8
_0-1_
  6
DASHED2
 62
  152
 10
26.442785434382927
 20
95.435213735300408
 11
36.042785434383177
 21
95.435213735300408
  0
LINE
  8
_0-1_
  6
DASHED2
 62
  152
 10
36.042785434383177
 20
95.735213687616692
 11
26.442785434382927
 21
95.735213687616692
  0
LINE
  8
_0-1_
  6
DASHED2
 62
  152
 10
36.042785434383177
 20
99.135213782984124
 11
26.442785434382927
 21
99.135213782984124
  0
LINE
  8
_0-1_
  6
DASHED2
 62
  152
 10
26.442785434382927
 20
99.435213735300408
 11
36.042785434383177
 21
99.435213735300408
  0
LINE
  8
_0-1_
  6
CONTINUOUS
 62
  152
 10
95.173812534560057
 20
97.735213926035271
 11
95.173812534560057
 21
107.13521354456554
  0
LINE
  8
_0-1_
  6
CONTINUOUS
 62
  152
 10
95.462256964196058
 20
100.73521368761669
 11
105.46225696419606
 21
100.73521368761669
  0
LINE
  8
_0-1_
  6
CONTINUOUS
 62
  152
 10
95.462256964196058
 20
104.13521378298412
 11
105.46225696419606
 21
104.13521378298412
  0
LINE
  8
_0-1_
  6
CONTINUOUS
 62
  152
 10
105.16225677346119
 20
100.43521373530041
 11
105.16225677346119
 21
104.43521373530041
  0
LINE
  8
ADD_LINE
  6
DOT
 62
    9
 10
95.462256964196058
 20
102.43521373530041
 11
96.169363745382725
 21
103.14232051648708
  0
LINE
  8
ADD_LINE
  6
DOT
 62
    9
 10
95.462256964196058
 20
102.43521373530041
 11
96.169363745382725
 21
101.72810695411374
  0
LINE
  8
_0-1_
  6
CONTINUOUS
 62
   56
 10
95.173812534560057
 20
97.735213926035271
 11
95.462256964196058
 21
97.735213926035271
  0
LINE
  8
_0-1_
  6
CONTINUOUS
 62
   56
 10
95.173812534560057
 20
107.13521354456554
 11
95.462256964196058
 21
107.13521354456554
  0
LINE
  8
_0-1_
  6
CONTINUOUS
 62
   56
 10
95.462256964196058
 20
104.43521373530041
 11
105.16225677346119
 21
104.43521373530041
  0
LINE
  8
_0-1_
  6
CONTINUOUS
 62
   56
 10
105.46225696419606
 20
104.13521378298412
 11
105.16225677346119
 21
104.43521373530041
  0
LINE
  8
_0-1_
  6
CONTINUOUS
 62
   56
 10
105.46225696419606
 20
100.73521368761669
 11
105.46225696419606
 21
104.13521378298412
  0
LINE
  8
_0-1_
  6
CONTINUOUS
 62
   56
 10
105.46225696419606
 20
100.73521368761669
 11
105.16225677346119
 21
100.43521373530041
  0
LINE
  8
_0-1_
  6
CONTINUOUS
 62
   56
 10
95.462256964196058
 20
100.43521373530041
 11
105.16225677346119
 21
100.43521373530041
  0
ARC
  8
_0-1_
  6
CONTINUOUS
 62
   56
 10
99.062256868828626
 20
102.43521373530041
 40
6.0999999046325684
 50
129.60191345214844
 51
230.3980712890625
  0
LINE
  8
_0-1_
  6
CENTER1
 62
  152
 10
79.700458209519184
 20
102.43521373530041
 11
126.16926474581328
 21
102.43521373530041
  0
LINE
  8
_0-1_
  6
CONTINUOUS
 62
   56
 10
95.462256964160076
 20
97.735213926035271
 11
95.462256964160076
 21
107.13521354456554
  0
LINE
  8
_0-1_
  6
CENTER1
 62
  152
 10
85.651052661143808
 20
107.71226368373596
 11
85.651052661143808
 21
96.393198150754358
  0
LINE
  8
_0-1_
  6
CONTINUOUS
 62
   56
 10
87.751052565776376
 20
102.01521374841343
 11
87.751052565776376
 21
102.85521372218739
  0
LINE
  8
_0-1_
  6
CONTINUOUS
 62
   56
 10
85.23105267425683
 20
104.53521363993298
 11
86.071052648030786
 21
104.53521363993298
  0
LINE
  8
_0-1_
  6
CONTINUOUS
 62
   56
 10
83.55105275651124
 20
102.01521374841343
 11
83.55105275651124
 21
102.85521372218739
  0
LINE
  8
_0-1_
  6
CONTINUOUS
 62
   56
 10
85.23105267425683
 20
100.33521383066784
 11
86.071052648030786
 21
100.33521383066784
  0
LINE
  8
_0-1_
  6
CONTINUOUS
 62
   56
 10
86.071052648030786
 20
103.69521372576367
 11
86.071052648030786
 21
104.53521363993298
  0
LINE
  8
_0-1_
  6
CONTINUOUS
 62
   56
 10
86.911052651607065
 20
102.85521372218739
 11
87.751052565776376
 21
102.85521372218739
  0
LINE
  8
_0-1_
  6
CONTINUOUS
 62
   56
 10
86.911052651607065
 20
102.01521374841343
 11
87.751052565776376
 21
102.01521374841343
  0
LINE
  8
_0-1_
  6
CONTINUOUS
 62
   56
 10
86.071052648030786
 20
101.17521374483715
 11
86.071052648030786
 21
100.33521383066784
  0
LINE
  8
_0-1_
  6
CONTINUOUS
 62
   56
 10
85.23105267425683
 20
101.17521374483715
 11
85.23105267425683
 21
100.33521383066784
  0
LINE
  8
_0-1_
  6
CONTINUOUS
 62
   56
 10
84.391052670680551
 20
102.01521374841343
 11
83.55105275651124
 21
102.01521374841343
  0
LINE
  8
_0-1_
  6
CONTINUOUS
 62
   56
 10
84.391052670680551
 20
102.85521372218739
 11
83.55105275651124
 21
102.85521372218739
  0
LINE
  8
_0-1_
  6
CONTINUOUS
 62
   56
 10
85.23105267425683
 20
103.69521372576367
 11
85.23105267425683
 21
104.53521363993298
  0
CIRCLE
  8
_0-1_
  6
CONTINUOUS
 62
   56
 10
85.651052661143808
 20
102.43521373530041
 40
4.6999998092651367
  0
ARC
  8
_0-1_
  6
CONTINUOUS
 62
   56
 10
86.911052651607065
 20
103.69521372576367
 40
0.8399999737739563
 50
180
 51
270
  0
ARC
  8
_0-1_
  6
CONTINUOUS
 62
   56
 10
86.911052651607065
 20
101.17521374483715
 40
0.8399999737739563
 50
90
 51
180
  0
ARC
  8
_0-1_
  6
CONTINUOUS
 62
   56
 10
84.391052670680551
 20
101.17521374483715
 40
0.8399999737739563
 50
0
 51
90
  0
ARC
  8
_0-1_
  6
CONTINUOUS
 62
   56
 10
84.391052670680551
 20
103.69521372576367
 40
0.8399999737739563
 50
270
 51
0
  0
ENDSEC
  0
EOF
