  0
SECTION
  2
HEADER
  9
$ACADVER
  1
AC1009
  9
$INSBASE
 10
0
 20
0
 30
0
  9
$EXTMIN
 10
0
 20
0
  9
$EXTMAX
 10
1189
 20
841
  9
$LIMMIN
 10
0
 20
0
  9
$LIMMAX
 10
1189
 20
841
  9
$LTSCALE
 40
1
  0
ENDSEC
  0
SECTION
  2
TABLES
  0
TABLE
  2
LTYPE
 70
     9
  0
LTYPE
  2
CONTINUOUS
 70
    64
  3
実線
 72
    65
 73
     0
 40
0.0
  0
LTYPE
  2
DASHED1
 70
    64
  3
--  --  --  --  --  --  --  --  
 72
    65
 73
     2
 40
2.5
 49
1.25
 49
-1.25
  0
LTYPE
  2
DASHED2
 70
    64
  3
----    ----    ----    ----    
 72
    65
 73
     2
 40
5.0
 49
2.5
 49
-2.5
  0
LTYPE
  2
DASHED3
 70
    64
  3
------  ------  ------  ------  
 72
    65
 73
     2
 40
5.0
 49
3.75
 49
-1.25
  0
LTYPE
  2
CENTER1
 70
    64
  3
----- - ----- - ----- - ----- - 
 72
    65
 73
     4
 40
10.0
 49
6.25
 49
-1.25
 49
1.25
 49
-1.25
  0
LTYPE
  2
CENTER2
 70
    64
  3
----------  --  ----------  --  
 72
    65
 73
     4
 40
20.0
 49
12.5
 49
-2.5
 49
2.5
 49
-2.5
  0
LTYPE
  2
PHANTOM1
 70
    64
  3
--- - - --- - - --- - - --- - - 
 72
    65
 73
     6
 40
10.0
 49
3.25
 49
-1.25
 49
1.25
 49
-1.25
 49
1.25
 49
-1.25
  0
LTYPE
  2
PHANTOM2
 70
    64
  3
--------  -  -  --------  -  -  
 72
    65
 73
     6
 40
20.0
 49
10.0
 49
-2.5
 49
1.25
 49
-2.5
 49
1.25
 49
-2.5
  0
LTYPE
  2
DOT
 70
    64
  3
-   -   -   -   -   -   -   -   
 72
    65
 73
     2
 40
2.5
 49
0.625
 49
-1.875
  0
LTYPE
  2
DUMMY
 70
    64
  3
ダミー
 72
    65
 73
     0
 40
0.0
  0
LTYPE
  2
RAND1
 70
    64
  3
ランダム線1
 72
    65
 73
     4
 40
10.0
 49
1.0
 49
-2.0
 49
3.0
 49
-4.0
  0
LTYPE
  2
RAND2
 70
    64
  3
ランダム線2
 72
    65
 73
     4
 40
14.0
 49
2.0
 49
-3.0
 49
4.0
 49
-5.0
  0
LTYPE
  2
RAND3
 70
    64
  3
ランダム線3
 72
    65
 73
     4
 40
18.0
 49
3.0
 49
-4.0
 49
5.0
 49
-6.0
  0
LTYPE
  2
RAND4
 70
    64
  3
ランダム線4
 72
    65
 73
     4
 40
22.0
 49
4.0
 49
-5.0
 49
6.0
 49
-7.0
  0
LTYPE
  2
RAND5
 70
    64
  3
ランダム線5
 72
    65
 73
     4
 40
26.0
 49
5.0
 49
-6.0
 49
7.0
 49
-8.0
  0
LTYPE
  2
LONG1
 70
    64
  3
----------  --  ----------  --  
 72
    65
 73
     4
 40
40.0
 49
32.5
 49
-2.5
 49
2.5
 49
-2.5
  0
LTYPE
  2
LONG2
 70
    64
  3
--------  -  -  --------  -  -  
 72
    65
 73
     6
 40
40.0
 49
30.0
 49
-2.5
 49
1.25
 49
-2.5
 49
1.25
 49
-2.5
  0
LTYPE
  2
LONG3
 70
    64
  3
+++++++++++++++..+++++++++++++++
 72
    65
 73
     2
 40
40.0
 49
37.5
 49
-2.5
  0
LTYPE
  2
LONG4
 70
    64
  3
+++++++++++++++..+++++++++++++++
 72
    65
 73
     2
 40
80.0
 49
75.0
 49
-5.0
  0
LTYPE
  2
LONG5
 70
    64
  3
----------  --  ----------  --  
 72
    65
 73
     4
 40
60.0
 49
37.5
 49
-7.5
 49
7.5
 49
-7.5
  0
LTYPE
  2
dashed
 70
   64
  3
-------   -------------   ------
 72
   65
 73
    2
 40
7.5
 49
6
 49
-1.5
  0
LTYPE
  2
dashed_spaced
 70
   64
  3
----        --------        ----
 72
   65
 73
    2
 40
12
 49
6
 49
-6
  0
LTYPE
  2
long_dashed_dotted
 70
   64
  3
------------- --- --------------
 72
   65
 73
    4
 40
15.25
 49
12
 49
-1.5
 49
0.25
 49
-1.5
  0
LTYPE
  2
long_dashed_double-dotted
 70
   64
  3
----------- --- --- ------------
 72
   65
 73
    6
 40
17
 49
12
 49
-1.5
 49
0.25
 49
-1.5
 49
0.25
 49
-1.5
  0
LTYPE
  2
long_dashed_triplicate-dotted
 70
   64
  3
--------- --- --- --- ----------
 72
   65
 73
    8
 40
18.75
 49
12
 49
-1.5
 49
0.25
 49
-1.5
 49
0.25
 49
-1.5
 49
0.25
 49
-1.5
  0
LTYPE
  2
dotted
 70
   64
  3
   -       -       -       -    
 72
   65
 73
    2
 40
1.75
 49
0.25
 49
-1.5
  0
LTYPE
  2
chain
 70
   64
  3
-------------- -- --------------
 72
   65
 73
    4
 40
18.5
 49
12
 49
-1.5
 49
3.5
 49
-1.5
  0
LTYPE
  2
chain_double_dash
 70
   64
  3
------------ -- -- -------------
 72
   65
 73
    6
 40
23.5
 49
12
 49
-1.5
 49
3.5
 49
-1.5
 49
3.5
 49
-1.5
  0
LTYPE
  2
dashed_dotted
 70
   64
  3
-----------     -     ----------
 72
   65
 73
    4
 40
9.25
 49
6
 49
-1.5
 49
0.25
 49
-1.5
  0
LTYPE
  2
double-dashed_dotted
 70
   64
  3
------   -----------   -   -----
 72
   65
 73
    6
 40
16.75
 49
6
 49
-1.5
 49
6
 49
-1.5
 49
0.25
 49
-1.5
  0
LTYPE
  2
dashed_double-dotted
 70
   64
  3
---------    -    -    ---------
 72
   65
 73
    6
 40
11
 49
6
 49
-1.5
 49
0.25
 49
-1.5
 49
0.25
 49
-1.5
  0
LTYPE
  2
double-dashed_double-dotted
 70
   64
  3
-----   ---------   -   -   ----
 72
   65
 73
    8
 40
18.5
 49
6
 49
-1.5
 49
6
 49
-1.5
 49
0.25
 49
-1.5
 49
0.25
 49
-1.5
  0
LTYPE
  2
dashed_triplicate-dotted
 70
   64
  3
-------    -    -    -    ------
 72
   65
 73
    8
 40
12.75
 49
6
 49
-1.5
 49
0.25
 49
-1.5
 49
0.25
 49
-1.5
 49
0.25
 49
-1.5
  0
LTYPE
  2
double-dashed_triplicate-dotted
 70
   64
  3
-----  ---------  -  -  -  -----
 72
   65
 73
   10
 40
20.25
 49
6
 49
-1.5
 49
6
 49
-1.5
 49
0.25
 49
-1.5
 49
0.25
 49
-1.5
 49
0.25
 49
-1.5
  0
LTYPE
  2
undefined
 70
   64
  3
--------------------------------
 72
   65
 73
    0
 40
0
  0
ENDTAB
  0
TABLE
  2
STYLE
  5
3
100
AcDbSymbolTable
 70
     1
  0
STYLE
  5
10
100
AcDbSymbolTableRecord
100
AcDbTextStyleTableRecord
  2
STANDARD
 70
     0
 40
0.0
 41
1.0
 50
0.0
 71
     0
 42
0.2
  3
txt
  4
bigfont.shx
  0
STYLE
  5
26
100
AcDbSymbolTableRecord
100
AcDbTextStyleTableRecord
  2
TATEGAKI
 70
    68
 40
0.0
 41
1.0
 50
0.0
 71
     0
 42
1.0
  3
txt
  4
bigfont.shx
  0
ENDTAB
  0
TABLE
  2
LAYER
 70
    3
  0
LAYER
  2
_0-0_
 70
   64
 62
    7
  6
CONTINUOUS
  0
LAYER
  2
_0-1_
 70
   64
 62
    7
  6
CONTINUOUS
  0
LAYER
  2
ADD_LINE
 70
   64
 62
    7
  6
CONTINUOUS
  0
ENDTAB
  0
ENDSEC
  0
SECTION
  2
BLOCKS
  0
ENDSEC
  0
SECTION
  2
ENTITIES
  0
CIRCLE
  8
_0-0_
  6
CONTINUOUS
 62
    7
 10
38.520975127541305
 20
16.520013078834211
 40
3.5
  0
CIRCLE
  8
_0-0_
  6
CONTINUOUS
 62
    7
 10
38.520975127541305
 20
76.520013078834211
 40
3.5
  0
LINE
  8
_0-0_
  6
CONTINUOUS
 62
    7
 10
18.520975127541305
 20
66.520013078834211
 11
58.520975127541305
 21
66.520013078834211
  0
LINE
  8
_0-0_
  6
CONTINUOUS
 62
    7
 10
58.520975127541305
 20
51.620013078834347
 11
18.520975127541305
 21
51.620013078834347
  0
LINE
  8
_0-0_
  6
CONTINUOUS
 62
    7
 10
58.520975127541305
 20
41.420013078834302
 11
18.520975127541305
 21
41.420013078834302
  0
LINE
  8
_0-0_
  6
CONTINUOUS
 62
    7
 10
18.520975127541305
 20
26.520013078834211
 11
58.520975127541305
 21
26.520013078834211
  0
LINE
  8
_0-0_
  6
CONTINUOUS
 62
    7
 10
18.520975127541305
 20
7.5200130788342108
 11
58.520975127541305
 21
7.5200130788342108
  0
LINE
  8
_0-0_
  6
CONTINUOUS
 62
    7
 10
18.520975127541305
 20
85.520013078834211
 11
18.520975127541305
 21
7.5200130788342108
  0
LINE
  8
_0-0_
  6
CONTINUOUS
 62
    7
 10
58.520975127541305
 20
85.520013078834211
 11
18.520975127541305
 21
85.520013078834211
  0
LINE
  8
_0-0_
  6
CONTINUOUS
 62
    7
 10
58.520975127541305
 20
7.5200130788342108
 11
58.520975127541305
 21
85.520013078834211
  0
CIRCLE
  8
_0-0_
  6
CONTINUOUS
 62
    7
 10
143.84351971098556
 20
16.520013078834211
 40
3.5
  0
CIRCLE
  8
_0-0_
  6
CONTINUOUS
 62
    7
 10
103.84351971098556
 20
16.520013078834211
 40
3.5
  0
CIRCLE
  8
_0-0_
  6
CONTINUOUS
 62
    7
 10
143.84351971098556
 20
76.520013078834211
 40
3.5
  0
CIRCLE
  8
_0-0_
  6
CONTINUOUS
 62
    7
 10
103.84351971098556
 20
76.520013078834211
 40
3.5
  0
LINE
  8
_0-0_
  6
CONTINUOUS
 62
    7
 10
93.843519710985561
 20
26.520013078834211
 11
153.84351971098556
 21
26.520013078834211
  0
LINE
  8
_0-0_
  6
CONTINUOUS
 62
    7
 10
153.84351971098556
 20
41.420013078834302
 11
93.843519710985561
 21
41.420013078834302
  0
LINE
  8
_0-0_
  6
CONTINUOUS
 62
    7
 10
153.84351971098556
 20
51.620013078834347
 11
93.843519710985561
 21
51.620013078834347
  0
LINE
  8
_0-0_
  6
CONTINUOUS
 62
    7
 10
93.843519710985561
 20
66.520013078834211
 11
153.84351971098556
 21
66.520013078834211
  0
LINE
  8
_0-0_
  6
CONTINUOUS
 62
    7
 10
153.84351971098556
 20
7.5200130788342108
 11
153.84351971098556
 21
85.520013078834211
  0
LINE
  8
_0-0_
  6
CONTINUOUS
 62
    7
 10
93.843519710985561
 20
7.5200130788342108
 11
153.84351971098556
 21
7.5200130788342108
  0
LINE
  8
_0-0_
  6
CONTINUOUS
 62
    7
 10
93.843519710985561
 20
85.520013078834211
 11
93.843519710985561
 21
7.5200130788342108
  0
LINE
  8
_0-0_
  6
CONTINUOUS
 62
    7
 10
153.84351971098556
 20
85.520013078834211
 11
93.843519710985561
 21
85.520013078834211
  0
CIRCLE
  8
_0-0_
  6
CONTINUOUS
 62
    7
 10
261.75252406405008
 20
16.520013078834211
 40
3.5
  0
CIRCLE
  8
_0-0_
  6
CONTINUOUS
 62
    7
 10
201.75252406405008
 20
16.520013078834211
 40
3.5
  0
CIRCLE
  8
_0-0_
  6
CONTINUOUS
 62
    7
 10
261.75252406405008
 20
76.520013078834211
 40
3.5
  0
CIRCLE
  8
_0-0_
  6
CONTINUOUS
 62
    7
 10
201.75252406405008
 20
76.520013078834211
 40
3.5
  0
LINE
  8
_0-0_
  6
CONTINUOUS
 62
    7
 10
191.75252406405008
 20
66.520013078834211
 11
271.75252406405008
 21
66.520013078834211
  0
LINE
  8
_0-0_
  6
CONTINUOUS
 62
    7
 10
271.75252406405008
 20
51.620013078834347
 11
191.75252406405008
 21
51.620013078834347
  0
LINE
  8
_0-0_
  6
CONTINUOUS
 62
    7
 10
271.75252406405008
 20
41.420013078834302
 11
191.75252406405008
 21
41.420013078834302
  0
LINE
  8
_0-0_
  6
CONTINUOUS
 62
    7
 10
191.75252406405008
 20
26.520013078834211
 11
271.75252406405008
 21
26.520013078834211
  0
LINE
  8
_0-0_
  6
CONTINUOUS
 62
    7
 10
271.75252406405008
 20
85.520013078834211
 11
271.75252406405008
 21
7.5200130788342108
  0
LINE
  8
_0-0_
  6
CONTINUOUS
 62
    7
 10
191.75252406405008
 20
85.520013078834211
 11
271.75252406405008
 21
85.520013078834211
  0
LINE
  8
_0-0_
  6
CONTINUOUS
 62
    7
 10
191.75252406405008
 20
7.5200130788342108
 11
191.75252406405008
 21
85.520013078834211
  0
LINE
  8
_0-0_
  6
CONTINUOUS
 62
    7
 10
271.75252406405008
 20
7.5200130788342108
 11
191.75252406405008
 21
7.5200130788342108
  0
ARC
  8
_0-0_
  6
CONTINUOUS
 62
    7
 10
321.40176709521785
 20
46.520013078834211
 40
0.3000000000000113
 50
315.00000000000097
 51
44.999999999998067
  0
ARC
  8
_0-0_
  6
CONTINUOUS
 62
    7
 10
321.7017670952178
 20
47.068541216258211
 40
0.2999999999999999
 50
180
 51
225.00000000000034
  0
ARC
  8
_0-0_
  6
CONTINUOUS
 62
    7
 10
321.7017670952178
 20
45.971484941410438
 40
0.2999999999999999
 50
134.99999999999935
 51
180.00000000000003
  0
ARC
  8
_0-0_
  6
CONTINUOUS
 62
    7
 10
326.40176707501797
 20
32.520013078834211
 40
0.3000000000000113
 50
135.00000000000097
 51
224.99999999999812
  0
ARC
  8
_0-0_
  6
CONTINUOUS
 62
    7
 10
326.10176707501779
 20
31.971484941410438
 40
0.2999999999999999
 50
0
 51
45.000000000000362
  0
ARC
  8
_0-0_
  6
CONTINUOUS
 62
    7
 10
326.10176707501779
 20
33.068541216258211
 40
0.2999999999999999
 50
314.99999999999932
 51
0.000000000000019
  0
ARC
  8
_0-0_
  6
CONTINUOUS
 62
    7
 10
311.40176709521785
 20
32.520013078834211
 40
0.3000000000000113
 50
315.00000000000193
 51
44.999999999999034
  0
ARC
  8
_0-0_
  6
CONTINUOUS
 62
    7
 10
311.7017670952178
 20
31.971484941410438
 40
0.2999999999999999
 50
134.99999999999963
 51
180
  0
ARC
  8
_0-0_
  6
CONTINUOUS
 62
    7
 10
311.7017670952178
 20
33.068541216258211
 40
0.2999999999999999
 50
179.99999999999997
 51
225.00000000000065
  0
ARC
  8
_0-0_
  6
CONTINUOUS
 62
    7
 10
325.90176708511791
 20
8.0200130788342108
 40
0.5
 50
270
 51
0
  0
ARC
  8
_0-0_
  6
CONTINUOUS
 62
    7
 10
320.90176708511791
 20
8.0200130788342108
 40
0.5
 50
180
 51
270
  0
ARC
  8
_0-0_
  6
CONTINUOUS
 62
    7
 10
319.90176708511791
 20
26.020013078834211
 40
0.5
 50
0
 51
90
  0
ARC
  8
_0-0_
  6
CONTINUOUS
 62
    7
 10
311.90176708511791
 20
27.020013078834211
 40
0.5
 50
180
 51
270
  0
ARC
  8
_0-0_
  6
CONTINUOUS
 62
    7
 10
320.90176708511791
 20
40.727119860020878
 40
0.5
 50
314.99999999999994
 51
0.0000000000000063
  0
ARC
  8
_0-0_
  6
CONTINUOUS
 62
    7
 10
319.19466030393124
 20
39.020013078834211
 40
0.5
 50
270.00000000000006
 51
315.00000000000006
  0
ARC
  8
_0-0_
  6
CONTINUOUS
 62
    7
 10
315.50176708511782
 20
39.020013078834211
 40
0.5
 50
180
 51
270
  0
ARC
  8
_0-0_
  6
CONTINUOUS
 62
    7
 10
314.50176708511782
 20
40.51099608445935
 40
0.5
 50
0.0000000000000254
 51
63.434948822921946
  0
ARC
  8
_0-0_
  6
CONTINUOUS
 62
    7
 10
313.68373309636792
 20
40.920013078834302
 40
0.5
 50
63.434948822921804
 51
90
  0
ARC
  8
_0-0_
  6
CONTINUOUS
 62
    7
 10
311.90176708511791
 20
40.920013078834302
 40
0.5
 50
90
 51
180
  0
ARC
  8
_0-0_
  6
CONTINUOUS
 62
    7
 10
320.40176708511791
 20
16.520013078834211
 40
0.3000000000000113
 50
315.00000000000193
 51
44.999999999999034
  0
ARC
  8
_0-0_
  6
CONTINUOUS
 62
    7
 10
320.70176708511787
 20
15.971484941410438
 40
0.2999999999999999
 50
134.99999999999963
 51
180
  0
ARC
  8
_0-0_
  6
CONTINUOUS
 62
    7
 10
320.70176708511787
 20
17.068541216258211
 40
0.2999999999999999
 50
179.99999999999997
 51
225.00000000000065
  0
ARC
  8
_0-0_
  6
CONTINUOUS
 62
    7
 10
326.40176707501797
 20
60.520013078834211
 40
0.3000000000000113
 50
135.0000000000019
 51
224.99999999999903
  0
ARC
  8
_0-0_
  6
CONTINUOUS
 62
    7
 10
326.10176707501779
 20
61.068541216258211
 40
0.2999999999999999
 50
314.99999999999966
 51
0
  0
ARC
  8
_0-0_
  6
CONTINUOUS
 62
    7
 10
326.10176707501779
 20
59.971484941410438
 40
0.2999999999999999
 50
0
 51
45.000000000000661
  0
ARC
  8
_0-0_
  6
CONTINUOUS
 62
    7
 10
311.40176709521785
 20
60.520013078834211
 40
0.3000000000000113
 50
315.00000000000097
 51
44.999999999998067
  0
ARC
  8
_0-0_
  6
CONTINUOUS
 62
    7
 10
311.7017670952178
 20
61.068541216258211
 40
0.2999999999999999
 50
180
 51
225.00000000000034
  0
ARC
  8
_0-0_
  6
CONTINUOUS
 62
    7
 10
311.7017670952178
 20
59.971484941410438
 40
0.2999999999999999
 50
134.99999999999935
 51
180.00000000000003
  0
ARC
  8
_0-0_
  6
CONTINUOUS
 62
    7
 10
325.90176708511791
 20
85.020013078834211
 40
0.5
 50
0
 51
90
  0
ARC
  8
_0-0_
  6
CONTINUOUS
 62
    7
 10
320.90176708511791
 20
85.020013078834211
 40
0.5
 50
90
 51
180
  0
ARC
  8
_0-0_
  6
CONTINUOUS
 62
    7
 10
319.90176708511791
 20
67.020013078834211
 40
0.5
 50
270
 51
0
  0
ARC
  8
_0-0_
  6
CONTINUOUS
 62
    7
 10
311.90176708511791
 20
66.020013078834211
 40
0.5
 50
90
 51
180
  0
ARC
  8
_0-0_
  6
CONTINUOUS
 62
    7
 10
320.90176708511791
 20
52.312906297647771
 40
0.5
 50
0
 51
45.00000000000005
  0
ARC
  8
_0-0_
  6
CONTINUOUS
 62
    7
 10
319.19466030393124
 20
54.020013078834211
 40
0.5
 50
44.99999999999995
 51
89.999999999999943
  0
ARC
  8
_0-0_
  6
CONTINUOUS
 62
    7
 10
315.50176708511782
 20
54.020013078834211
 40
0.5
 50
90
 51
180
  0
ARC
  8
_0-0_
  6
CONTINUOUS
 62
    7
 10
314.50176708511782
 20
52.529030073209299
 40
0.5
 50
296.56505117707803
 51
0
  0
ARC
  8
_0-0_
  6
CONTINUOUS
 62
    7
 10
313.68373309636792
 20
52.120013078834347
 40
0.5
 50
270
 51
296.5650511770782
  0
ARC
  8
_0-0_
  6
CONTINUOUS
 62
    7
 10
311.90176708511791
 20
52.120013078834347
 40
0.5
 50
180
 51
270
  0
ARC
  8
_0-0_
  6
CONTINUOUS
 62
    7
 10
320.40176708511791
 20
76.520013078834211
 40
0.3000000000000113
 50
315.00000000000097
 51
44.999999999998067
  0
ARC
  8
_0-0_
  6
CONTINUOUS
 62
    7
 10
320.70176708511787
 20
77.068541216258211
 40
0.2999999999999999
 50
180
 51
225.00000000000034
  0
ARC
  8
_0-0_
  6
CONTINUOUS
 62
    7
 10
320.70176708511787
 20
75.971484941410438
 40
0.2999999999999999
 50
134.99999999999935
 51
180.00000000000003
  0
LINE
  8
_0-0_
  6
CONTINUOUS
 62
    7
 10
326.1896350406617
 20
32.732145113190256
 11
326.31389910937361
 21
32.856409181902166
  0
LINE
  8
_0-0_
  6
CONTINUOUS
 62
    7
 10
326.1896350406617
 20
32.307881044478393
 11
326.31389910937361
 21
32.183616975766256
  0
LINE
  8
_0-0_
  6
CONTINUOUS
 62
    7
 10
325.90176708511791
 20
85.520013078834211
 11
320.90176708511791
 21
85.520013078834211
  0
LINE
  8
_0-0_
  6
CONTINUOUS
 62
    7
 10
326.40176708511791
 20
61.068541216258211
 11
326.40176708511791
 21
85.020013078834211
  0
LINE
  8
_0-0_
  6
CONTINUOUS
 62
    7
 10
326.1896350406617
 20
60.732145113190256
 11
326.31389910937361
 21
60.856409181902166
  0
LINE
  8
_0-0_
  6
CONTINUOUS
 62
    7
 10
326.31389910937361
 20
60.183616975766256
 11
326.1896350406617
 21
60.307881044478393
  0
LINE
  8
_0-0_
  6
CONTINUOUS
 62
    7
 10
326.40176708511791
 20
8.0200130788342108
 11
326.40176708511791
 21
59.971484941410438
  0
LINE
  8
_0-0_
  6
CONTINUOUS
 62
    7
 10
320.90176708511791
 20
7.5200130788342108
 11
325.90176708511791
 21
7.5200130788342108
  0
LINE
  8
_0-0_
  6
CONTINUOUS
 62
    7
 10
320.40176708511791
 20
15.971484941410438
 11
320.40176708511791
 21
8.0200130788342108
  0
LINE
  8
_0-0_
  6
CONTINUOUS
 62
    7
 10
320.61389911947373
 20
16.307881044478393
 11
320.48963505076182
 21
16.183616975766256
  0
LINE
  8
_0-0_
  6
CONTINUOUS
 62
    7
 10
320.48963505076182
 20
16.856409181902166
 11
320.61389911947373
 21
16.732145113190256
  0
LINE
  8
_0-0_
  6
CONTINUOUS
 62
    7
 10
320.40176708511791
 20
26.020013078834211
 11
320.40176708511791
 21
17.068541216258211
  0
LINE
  8
_0-0_
  6
CONTINUOUS
 62
    7
 10
311.90176708511791
 20
26.520013078834211
 11
319.90176708511791
 21
26.520013078834211
  0
LINE
  8
_0-0_
  6
CONTINUOUS
 62
    7
 10
311.40176708511791
 20
31.971484941410438
 11
311.40176708511791
 21
27.020013078834211
  0
LINE
  8
_0-0_
  6
CONTINUOUS
 62
    7
 10
311.61389912957367
 20
32.307881044478393
 11
311.48963506086176
 21
32.183616975766256
  0
LINE
  8
_0-0_
  6
CONTINUOUS
 62
    7
 10
311.48963506086176
 20
32.856409181902166
 11
311.61389912957367
 21
32.732145113190256
  0
LINE
  8
_0-0_
  6
CONTINUOUS
 62
    7
 10
311.40176708511791
 20
40.920013078834302
 11
311.40176708511791
 21
33.068541216258211
  0
LINE
  8
_0-0_
  6
CONTINUOUS
 62
    7
 10
313.68373309636792
 20
41.420013078834302
 11
311.90176708511791
 21
41.420013078834302
  0
LINE
  8
_0-0_
  6
CONTINUOUS
 62
    7
 10
314.72537388286793
 20
40.958209679959339
 11
313.90733989411802
 21
41.36722667433429
  0
LINE
  8
_0-0_
  6
CONTINUOUS
 62
    7
 10
315.00176708511782
 20
39.020013078834211
 11
315.00176708511782
 21
40.51099608445935
  0
LINE
  8
_0-0_
  6
CONTINUOUS
 62
    7
 10
319.19466030393124
 20
38.520013078834211
 11
315.50176708511782
 21
38.520013078834211
  0
LINE
  8
_0-0_
  6
CONTINUOUS
 62
    7
 10
321.25532047571124
 20
40.373566469427544
 11
319.54821369452458
 21
38.666459688240877
  0
LINE
  8
_0-0_
  6
CONTINUOUS
 62
    7
 10
321.40176708511791
 20
45.971484941410438
 11
321.40176708511791
 21
40.727119860020878
  0
LINE
  8
_0-0_
  6
CONTINUOUS
 62
    7
 10
321.61389912957367
 20
46.307881044478393
 11
321.48963506086176
 21
46.183616975766256
  0
LINE
  8
_0-0_
  6
CONTINUOUS
 62
    7
 10
321.48963506086176
 20
46.856409181902166
 11
321.61389912957367
 21
46.732145113190256
  0
LINE
  8
_0-0_
  6
CONTINUOUS
 62
    7
 10
321.40176708511791
 20
52.312906297647771
 11
321.40176708511791
 21
47.068541216258211
  0
LINE
  8
_0-0_
  6
CONTINUOUS
 62
    7
 10
319.54821369452458
 20
54.373566469427544
 11
321.25532047571124
 21
52.666459688241105
  0
LINE
  8
_0-0_
  6
CONTINUOUS
 62
    7
 10
315.50176708511782
 20
54.520013078834211
 11
319.19466030393124
 21
54.520013078834211
  0
LINE
  8
_0-0_
  6
CONTINUOUS
 62
    7
 10
315.00176708511782
 20
52.529030073209299
 11
315.00176708511782
 21
54.020013078834211
  0
LINE
  8
_0-0_
  6
CONTINUOUS
 62
    7
 10
313.90733989411802
 20
51.672799483334359
 11
314.72537388286793
 21
52.08181647770931
  0
LINE
  8
_0-0_
  6
CONTINUOUS
 62
    7
 10
311.90176708511791
 20
51.620013078834347
 11
313.68373309636792
 21
51.620013078834347
  0
LINE
  8
_0-0_
  6
CONTINUOUS
 62
    7
 10
311.40176708511791
 20
59.971484941410438
 11
311.40176708511791
 21
52.120013078834347
  0
LINE
  8
_0-0_
  6
CONTINUOUS
 62
    7
 10
311.61389912957367
 20
60.307881044478393
 11
311.48963506086176
 21
60.183616975766256
  0
LINE
  8
_0-0_
  6
CONTINUOUS
 62
    7
 10
311.48963506086176
 20
60.856409181902166
 11
311.61389912957367
 21
60.732145113190256
  0
LINE
  8
_0-0_
  6
CONTINUOUS
 62
    7
 10
311.40176708511791
 20
66.020013078834211
 11
311.40176708511791
 21
61.068541216258211
  0
LINE
  8
_0-0_
  6
CONTINUOUS
 62
    7
 10
319.90176708511791
 20
66.520013078834211
 11
311.90176708511791
 21
66.520013078834211
  0
LINE
  8
_0-0_
  6
CONTINUOUS
 62
    7
 10
320.40176708511791
 20
75.971484941410438
 11
320.40176708511791
 21
67.020013078834211
  0
LINE
  8
_0-0_
  6
CONTINUOUS
 62
    7
 10
320.61389911947373
 20
76.307881044478393
 11
320.48963505076182
 21
76.183616975766256
  0
LINE
  8
_0-0_
  6
CONTINUOUS
 62
    7
 10
320.48963505076182
 20
76.856409181902166
 11
320.61389911947373
 21
76.732145113190256
  0
LINE
  8
_0-0_
  6
CONTINUOUS
 62
    7
 10
320.40176708511791
 20
85.020013078834211
 11
320.40176708511791
 21
77.068541216258211
  0
TEXT
  8
_0-0_
 62
    7
 10
6.4832853132120363
 20
94.360303313592738
 40
5
 41
1
 50
0
  1
BF4T-L40
  0
TEXT
  8
_0-0_
 62
    7
 10
81.490602672212162
 20
94.167565024875785
 40
5
 41
1
 50
0
  1
BF4T-L60
  0
TEXT
  8
_0-0_
 62
    7
 10
179.78712991783959
 20
94.456672457951186
 40
5
 41
1
 50
0
  1
BF4T-L80
  0
LINE
  8
_0-1_
  6
CENTER1
 62
  152
 10
38.520975127541305
 20
85.520013078834211
 11
38.520975127541305
 21
7.5200130788342108
  0
LINE
  8
_0-1_
  6
CENTER1
 62
  152
 10
58.520975127541305
 20
76.520013078834211
 11
18.520975127541305
 21
76.520013078834211
  0
LINE
  8
_0-1_
  6
CENTER1
 62
  152
 10
18.520975127541305
 20
46.520013078834211
 11
58.520975127541305
 21
46.520013078834211
  0
LINE
  8
_0-1_
  6
CENTER1
 62
  152
 10
58.520975127541305
 20
16.520013078834211
 11
18.520975127541305
 21
16.520013078834211
  0
LINE
  8
_0-1_
  6
CENTER1
 62
  152
 10
143.84351971098556
 20
85.520013078834211
 11
143.84351971098556
 21
7.5200130788342108
  0
LINE
  8
_0-1_
  6
CENTER1
 62
  152
 10
103.84351971098556
 20
7.5200130788342108
 11
103.84351971098556
 21
85.520013078834211
  0
LINE
  8
_0-1_
  6
CENTER1
 62
  152
 10
153.84351971098556
 20
16.520013078834211
 11
93.843519710985561
 21
16.520013078834211
  0
LINE
  8
_0-1_
  6
CENTER1
 62
  152
 10
93.843519710985561
 20
46.520013078834211
 11
153.84351971098556
 21
46.520013078834211
  0
LINE
  8
_0-1_
  6
CENTER1
 62
  152
 10
153.84351971098556
 20
76.520013078834211
 11
93.843519710985561
 21
76.520013078834211
  0
LINE
  8
_0-1_
  6
CENTER1
 62
  152
 10
261.75252406405008
 20
7.5200130788342108
 11
261.75252406405008
 21
85.520013078834211
  0
LINE
  8
_0-1_
  6
CENTER1
 62
  152
 10
201.75252406405008
 20
85.520013078834211
 11
201.75252406405008
 21
7.5200130788342108
  0
LINE
  8
_0-1_
  6
CENTER1
 62
  152
 10
271.75252406405008
 20
76.520013078834211
 11
191.75252406405008
 21
76.520013078834211
  0
LINE
  8
_0-1_
  6
CENTER1
 62
  152
 10
191.75252406405008
 20
46.520013078834211
 11
271.75252406405008
 21
46.520013078834211
  0
LINE
  8
_0-1_
  6
CENTER1
 62
  152
 10
271.75252406405008
 20
16.520013078834211
 11
191.75252406405008
 21
16.520013078834211
  0
LINE
  8
_0-1_
  6
CENTER1
 62
  152
 10
327.57321945300083
 20
16.520013078834211
 11
319.59978287658674
 21
16.520013078834211
  0
LINE
  8
_0-1_
  6
CENTER1
 62
  152
 10
326.69226342167559
 20
32.520013078834211
 11
311.13395228350856
 21
32.520013078834211
  0
LINE
  8
_0-1_
  6
CENTER1
 62
  152
 10
311.40176708511791
 20
46.520013078834211
 11
327.57321945300083
 21
46.520013078834211
  0
LINE
  8
_0-1_
  6
CENTER1
 62
  152
 10
326.69226342167559
 20
60.520013078834211
 11
311.13395228350856
 21
60.520013078834211
  0
LINE
  8
_0-1_
  6
CENTER1
 62
  152
 10
319.59978287658674
 20
76.520013078834211
 11
327.57321945300083
 21
76.520013078834211
  0
ENDSEC
  0
EOF
