  0
SECTION
  2
HEADER
  9
$ACADVER
  1
AC1009
  9
$INSBASE
 10
0
 20
0
 30
0
  9
$EXTMIN
 10
0
 20
0
  9
$EXTMAX
 10
1189
 20
841
  9
$LIMMIN
 10
0
 20
0
  9
$LIMMAX
 10
1189
 20
841
  9
$LTSCALE
 40
1
  0
ENDSEC
  0
SECTION
  2
TABLES
  0
TABLE
  2
LTYPE
 70
     9
  0
LTYPE
  2
CONTINUOUS
 70
    64
  3
実線
 72
    65
 73
     0
 40
0.0
  0
LTYPE
  2
DASHED1
 70
    64
  3
--  --  --  --  --  --  --  --  
 72
    65
 73
     2
 40
2.5
 49
1.25
 49
-1.25
  0
LTYPE
  2
DASHED2
 70
    64
  3
----    ----    ----    ----    
 72
    65
 73
     2
 40
5.0
 49
2.5
 49
-2.5
  0
LTYPE
  2
DASHED3
 70
    64
  3
------  ------  ------  ------  
 72
    65
 73
     2
 40
5.0
 49
3.75
 49
-1.25
  0
LTYPE
  2
CENTER1
 70
    64
  3
----- - ----- - ----- - ----- - 
 72
    65
 73
     4
 40
10.0
 49
6.25
 49
-1.25
 49
1.25
 49
-1.25
  0
LTYPE
  2
CENTER2
 70
    64
  3
----------  --  ----------  --  
 72
    65
 73
     4
 40
20.0
 49
12.5
 49
-2.5
 49
2.5
 49
-2.5
  0
LTYPE
  2
PHANTOM1
 70
    64
  3
--- - - --- - - --- - - --- - - 
 72
    65
 73
     6
 40
10.0
 49
3.25
 49
-1.25
 49
1.25
 49
-1.25
 49
1.25
 49
-1.25
  0
LTYPE
  2
PHANTOM2
 70
    64
  3
--------  -  -  --------  -  -  
 72
    65
 73
     6
 40
20.0
 49
10.0
 49
-2.5
 49
1.25
 49
-2.5
 49
1.25
 49
-2.5
  0
LTYPE
  2
DOT
 70
    64
  3
-   -   -   -   -   -   -   -   
 72
    65
 73
     2
 40
2.5
 49
0.625
 49
-1.875
  0
LTYPE
  2
DUMMY
 70
    64
  3
ダミー
 72
    65
 73
     0
 40
0.0
  0
LTYPE
  2
RAND1
 70
    64
  3
ランダム線1
 72
    65
 73
     4
 40
10.0
 49
1.0
 49
-2.0
 49
3.0
 49
-4.0
  0
LTYPE
  2
RAND2
 70
    64
  3
ランダム線2
 72
    65
 73
     4
 40
14.0
 49
2.0
 49
-3.0
 49
4.0
 49
-5.0
  0
LTYPE
  2
RAND3
 70
    64
  3
ランダム線3
 72
    65
 73
     4
 40
18.0
 49
3.0
 49
-4.0
 49
5.0
 49
-6.0
  0
LTYPE
  2
RAND4
 70
    64
  3
ランダム線4
 72
    65
 73
     4
 40
22.0
 49
4.0
 49
-5.0
 49
6.0
 49
-7.0
  0
LTYPE
  2
RAND5
 70
    64
  3
ランダム線5
 72
    65
 73
     4
 40
26.0
 49
5.0
 49
-6.0
 49
7.0
 49
-8.0
  0
LTYPE
  2
LONG1
 70
    64
  3
----------  --  ----------  --  
 72
    65
 73
     4
 40
40.0
 49
32.5
 49
-2.5
 49
2.5
 49
-2.5
  0
LTYPE
  2
LONG2
 70
    64
  3
--------  -  -  --------  -  -  
 72
    65
 73
     6
 40
40.0
 49
30.0
 49
-2.5
 49
1.25
 49
-2.5
 49
1.25
 49
-2.5
  0
LTYPE
  2
LONG3
 70
    64
  3
+++++++++++++++..+++++++++++++++
 72
    65
 73
     2
 40
40.0
 49
37.5
 49
-2.5
  0
LTYPE
  2
LONG4
 70
    64
  3
+++++++++++++++..+++++++++++++++
 72
    65
 73
     2
 40
80.0
 49
75.0
 49
-5.0
  0
LTYPE
  2
LONG5
 70
    64
  3
----------  --  ----------  --  
 72
    65
 73
     4
 40
60.0
 49
37.5
 49
-7.5
 49
7.5
 49
-7.5
  0
LTYPE
  2
dashed
 70
   64
  3
-------   -------------   ------
 72
   65
 73
    2
 40
7.5
 49
6
 49
-1.5
  0
LTYPE
  2
dashed_spaced
 70
   64
  3
----        --------        ----
 72
   65
 73
    2
 40
12
 49
6
 49
-6
  0
LTYPE
  2
long_dashed_dotted
 70
   64
  3
------------- --- --------------
 72
   65
 73
    4
 40
15.25
 49
12
 49
-1.5
 49
0.25
 49
-1.5
  0
LTYPE
  2
long_dashed_double-dotted
 70
   64
  3
----------- --- --- ------------
 72
   65
 73
    6
 40
17
 49
12
 49
-1.5
 49
0.25
 49
-1.5
 49
0.25
 49
-1.5
  0
LTYPE
  2
long_dashed_triplicate-dotted
 70
   64
  3
--------- --- --- --- ----------
 72
   65
 73
    8
 40
18.75
 49
12
 49
-1.5
 49
0.25
 49
-1.5
 49
0.25
 49
-1.5
 49
0.25
 49
-1.5
  0
LTYPE
  2
dotted
 70
   64
  3
   -       -       -       -    
 72
   65
 73
    2
 40
1.75
 49
0.25
 49
-1.5
  0
LTYPE
  2
chain
 70
   64
  3
-------------- -- --------------
 72
   65
 73
    4
 40
18.5
 49
12
 49
-1.5
 49
3.5
 49
-1.5
  0
LTYPE
  2
chain_double_dash
 70
   64
  3
------------ -- -- -------------
 72
   65
 73
    6
 40
23.5
 49
12
 49
-1.5
 49
3.5
 49
-1.5
 49
3.5
 49
-1.5
  0
LTYPE
  2
dashed_dotted
 70
   64
  3
-----------     -     ----------
 72
   65
 73
    4
 40
9.25
 49
6
 49
-1.5
 49
0.25
 49
-1.5
  0
LTYPE
  2
double-dashed_dotted
 70
   64
  3
------   -----------   -   -----
 72
   65
 73
    6
 40
16.75
 49
6
 49
-1.5
 49
6
 49
-1.5
 49
0.25
 49
-1.5
  0
LTYPE
  2
dashed_double-dotted
 70
   64
  3
---------    -    -    ---------
 72
   65
 73
    6
 40
11
 49
6
 49
-1.5
 49
0.25
 49
-1.5
 49
0.25
 49
-1.5
  0
LTYPE
  2
double-dashed_double-dotted
 70
   64
  3
-----   ---------   -   -   ----
 72
   65
 73
    8
 40
18.5
 49
6
 49
-1.5
 49
6
 49
-1.5
 49
0.25
 49
-1.5
 49
0.25
 49
-1.5
  0
LTYPE
  2
dashed_triplicate-dotted
 70
   64
  3
-------    -    -    -    ------
 72
   65
 73
    8
 40
12.75
 49
6
 49
-1.5
 49
0.25
 49
-1.5
 49
0.25
 49
-1.5
 49
0.25
 49
-1.5
  0
LTYPE
  2
double-dashed_triplicate-dotted
 70
   64
  3
-----  ---------  -  -  -  -----
 72
   65
 73
   10
 40
20.25
 49
6
 49
-1.5
 49
6
 49
-1.5
 49
0.25
 49
-1.5
 49
0.25
 49
-1.5
 49
0.25
 49
-1.5
  0
LTYPE
  2
undefined
 70
   64
  3
--------------------------------
 72
   65
 73
    0
 40
0
  0
LTYPE
  2
_
 70
   64
  3
                                
 72
   65
 73
    0
 40
0
  0
LTYPE
  2
__18
 70
   64
  3
                                
 72
   65
 73
    0
 40
0
  0
LTYPE
  2
__19
 70
   64
  3
                                
 72
   65
 73
    0
 40
0
  0
LTYPE
  2
__20
 70
   64
  3
                                
 72
   65
 73
    0
 40
0
  0
LTYPE
  2
__21
 70
   64
  3
                                
 72
   65
 73
    0
 40
0
  0
LTYPE
  2
__22
 70
   64
  3
                                
 72
   65
 73
    0
 40
0
  0
LTYPE
  2
__23
 70
   64
  3
                                
 72
   65
 73
    0
 40
0
  0
LTYPE
  2
__24
 70
   64
  3
                                
 72
   65
 73
    0
 40
0
  0
LTYPE
  2
__25
 70
   64
  3
                                
 72
   65
 73
    0
 40
0
  0
LTYPE
  2
__26
 70
   64
  3
                                
 72
   65
 73
    0
 40
0
  0
LTYPE
  2
__27
 70
   64
  3
                                
 72
   65
 73
    0
 40
0
  0
LTYPE
  2
__28
 70
   64
  3
                                
 72
   65
 73
    0
 40
0
  0
LTYPE
  2
__29
 70
   64
  3
                                
 72
   65
 73
    0
 40
0
  0
LTYPE
  2
__30
 70
   64
  3
                                
 72
   65
 73
    0
 40
0
  0
LTYPE
  2
__31
 70
   64
  3
                                
 72
   65
 73
    0
 40
0
  0
LTYPE
  2
__32
 70
   64
  3
                                
 72
   65
 73
    0
 40
0
  0
ENDTAB
  0
TABLE
  2
STYLE
  5
3
100
AcDbSymbolTable
 70
     1
  0
STYLE
  5
10
100
AcDbSymbolTableRecord
100
AcDbTextStyleTableRecord
  2
STANDARD
 70
     0
 40
0.0
 41
1.0
 50
0.0
 71
     0
 42
0.2
  3
txt
  4
bigfont.shx
  0
STYLE
  5
26
100
AcDbSymbolTableRecord
100
AcDbTextStyleTableRecord
  2
TATEGAKI
 70
    68
 40
0.0
 41
1.0
 50
0.0
 71
     0
 42
1.0
  3
txt
  4
bigfont.shx
  0
ENDTAB
  0
TABLE
  2
LAYER
 70
    4
  0
LAYER
  2
_0-0_
 70
   64
 62
    7
  6
CONTINUOUS
  0
LAYER
  2
_0-1_
 70
   64
 62
    7
  6
CONTINUOUS
  0
LAYER
  2
_0-2_
 70
   64
 62
    7
  6
CONTINUOUS
  0
LAYER
  2
ADD_LINE
 70
   64
 62
    7
  6
CONTINUOUS
  0
ENDTAB
  0
ENDSEC
  0
SECTION
  2
BLOCKS
  0
ENDSEC
  0
SECTION
  2
ENTITIES
  0
LINE
  8
_0-0_
  6
CONTINUOUS
 62
    7
 10
336.29106468749154
 20
80.117250557737009
 11
331.29106468749154
 21
80.117250557737009
  0
LINE
  8
_0-0_
  6
CONTINUOUS
 62
    7
 10
330.79106468749154
 20
79.617250557737009
 11
330.79106468749154
 21
71.665778695161009
  0
LINE
  8
_0-0_
  6
CONTINUOUS
 62
    7
 10
330.87893265313545
 20
71.453646660804964
 11
331.00319672184736
 21
71.329382592093054
  0
LINE
  8
_0-0_
  6
CONTINUOUS
 62
    7
 10
331.00319672184736
 20
70.905118523381191
 11
330.87893265313545
 21
70.780854454669281
  0
LINE
  8
_0-0_
  6
CONTINUOUS
 62
    7
 10
330.79106468749154
 20
70.568722420313236
 11
330.79106468749154
 21
61.617250557737009
  0
LINE
  8
_0-0_
  6
CONTINUOUS
 62
    7
 10
330.29106468749154
 20
61.117250557737009
 11
322.29106468749154
 21
61.117250557737009
  0
LINE
  8
_0-0_
  6
CONTINUOUS
 62
    7
 10
321.79106468749154
 20
60.617250557737009
 11
321.79106468749154
 21
55.665778695161009
  0
LINE
  8
_0-0_
  6
CONTINUOUS
 62
    7
 10
321.87893266323562
 20
55.453646660804964
 11
322.00319673194753
 21
55.329382592093054
  0
LINE
  8
_0-0_
  6
CONTINUOUS
 62
    7
 10
322.00319673194753
 20
54.905118523381191
 11
321.87893266323562
 21
54.780854454669281
  0
LINE
  8
_0-0_
  6
CONTINUOUS
 62
    7
 10
321.79106468749154
 20
54.568722420313236
 11
321.79106468749154
 21
46.717250557737145
  0
LINE
  8
_0-0_
  6
CONTINUOUS
 62
    7
 10
322.29106468749154
 20
46.217250557737145
 11
324.07303069874155
 21
46.217250557737145
  0
LINE
  8
_0-0_
  6
CONTINUOUS
 62
    7
 10
324.29663749649166
 20
46.270036962237157
 11
325.11467148524133
 21
46.679053956612108
  0
LINE
  8
_0-0_
  6
CONTINUOUS
 62
    7
 10
325.39106468749145
 20
47.126267552112097
 11
325.39106468749145
 21
48.617250557737009
  0
LINE
  8
_0-0_
  6
CONTINUOUS
 62
    7
 10
325.89106468749145
 20
49.117250557737009
 11
329.58395790630487
 21
49.117250557737009
  0
LINE
  8
_0-0_
  6
CONTINUOUS
 62
    7
 10
329.93751129689821
 20
48.970803948330342
 11
331.64461807808465
 21
47.263697167143903
  0
LINE
  8
_0-0_
  6
CONTINUOUS
 62
    7
 10
331.79106468749154
 20
46.910143776550569
 11
331.79106468749154
 21
41.665778695161009
  0
LINE
  8
_0-0_
  6
CONTINUOUS
 62
    7
 10
331.87893266323562
 20
41.453646660804964
 11
332.00319673194753
 21
41.329382592093054
  0
LINE
  8
_0-0_
  6
CONTINUOUS
 62
    7
 10
332.00319673194753
 20
40.905118523381191
 11
331.87893266323562
 21
40.780854454669281
  0
LINE
  8
_0-0_
  6
CONTINUOUS
 62
    7
 10
331.79106468749154
 20
40.568722420313236
 11
331.79106468749154
 21
35.324357338923676
  0
LINE
  8
_0-0_
  6
CONTINUOUS
 62
    7
 10
331.64461807808465
 20
34.970803948330342
 11
329.93751129689821
 21
33.263697167143903
  0
LINE
  8
_0-0_
  6
CONTINUOUS
 62
    7
 10
329.58395790630487
 20
33.117250557737009
 11
325.89106468749145
 21
33.117250557737009
  0
LINE
  8
_0-0_
  6
CONTINUOUS
 62
    7
 10
325.39106468749145
 20
33.617250557737009
 11
325.39106468749145
 21
35.108233563362148
  0
LINE
  8
_0-0_
  6
CONTINUOUS
 62
    7
 10
325.11467148524133
 20
35.555447158862137
 11
324.29663749649166
 21
35.964464153237088
  0
LINE
  8
_0-0_
  6
CONTINUOUS
 62
    7
 10
324.07303069874155
 20
36.0172505577371
 11
322.29106468749154
 21
36.0172505577371
  0
LINE
  8
_0-0_
  6
CONTINUOUS
 62
    7
 10
321.79106468749154
 20
35.5172505577371
 11
321.79106468749154
 21
27.665778695161009
  0
LINE
  8
_0-0_
  6
CONTINUOUS
 62
    7
 10
321.87893266323562
 20
27.453646660804964
 11
322.00319673194753
 21
27.329382592093054
  0
LINE
  8
_0-0_
  6
CONTINUOUS
 62
    7
 10
322.00319673194753
 20
26.905118523381191
 11
321.87893266323562
 21
26.780854454669281
  0
LINE
  8
_0-0_
  6
CONTINUOUS
 62
    7
 10
321.79106468749154
 20
26.568722420313236
 11
321.79106468749154
 21
21.617250557737009
  0
LINE
  8
_0-0_
  6
CONTINUOUS
 62
    7
 10
322.29106468749154
 20
21.117250557737009
 11
330.29106468749154
 21
21.117250557737009
  0
LINE
  8
_0-0_
  6
CONTINUOUS
 62
    7
 10
330.79106468749154
 20
20.617250557737009
 11
330.79106468749154
 21
11.665778695161009
  0
LINE
  8
_0-0_
  6
CONTINUOUS
 62
    7
 10
330.87893265313545
 20
11.453646660804964
 11
331.00319672184736
 21
11.329382592093054
  0
LINE
  8
_0-0_
  6
CONTINUOUS
 62
    7
 10
331.00319672184736
 20
10.905118523381191
 11
330.87893265313545
 21
10.780854454669281
  0
LINE
  8
_0-0_
  6
CONTINUOUS
 62
    7
 10
330.79106468749154
 20
10.568722420313236
 11
330.79106468749154
 21
2.6172505577370089
  0
LINE
  8
_0-0_
  6
CONTINUOUS
 62
    7
 10
331.29106468749154
 20
2.1172505577370089
 11
336.29106468749154
 21
2.1172505577370089
  0
LINE
  8
_0-0_
  6
CONTINUOUS
 62
    7
 10
336.79106468749154
 20
2.6172505577370089
 11
336.79106468749154
 21
54.568722420313236
  0
LINE
  8
_0-0_
  6
CONTINUOUS
 62
    7
 10
336.70319671174747
 20
54.780854454669281
 11
336.57893264303556
 21
54.905118523381191
  0
LINE
  8
_0-0_
  6
CONTINUOUS
 62
    7
 10
336.57893264303556
 20
55.329382592093054
 11
336.70319671174747
 21
55.453646660804964
  0
LINE
  8
_0-0_
  6
CONTINUOUS
 62
    7
 10
336.79106468749154
 20
55.665778695161009
 11
336.79106468749154
 21
79.617250557737009
  0
LINE
  8
_0-0_
  6
CONTINUOUS
 62
    7
 10
336.57893264303556
 20
26.905118523381191
 11
336.70319671174747
 21
26.780854454669281
  0
LINE
  8
_0-0_
  6
CONTINUOUS
 62
    7
 10
336.57893264303556
 20
27.329382592093054
 11
336.70319671174747
 21
27.453646660804964
  0
ARC
  8
_0-0_
  6
CONTINUOUS
 62
    7
 10
331.79106469759148
 20
41.117250557737009
 40
0.3000000000000113
 50
315.00000000000097
 51
44.999999999998067
  0
ARC
  8
_0-0_
  6
CONTINUOUS
 62
    7
 10
332.09106469759143
 20
41.665778695161009
 40
0.2999999999999999
 50
180
 51
225.00000000000034
  0
ARC
  8
_0-0_
  6
CONTINUOUS
 62
    7
 10
332.09106469759143
 20
40.568722420313236
 40
0.2999999999999999
 50
134.99999999999935
 51
180.00000000000003
  0
ARC
  8
_0-0_
  6
CONTINUOUS
 62
    7
 10
336.79106467739138
 20
27.117250557737009
 40
0.3000000000000113
 50
135.00000000000097
 51
224.99999999999812
  0
ARC
  8
_0-0_
  6
CONTINUOUS
 62
    7
 10
336.49106467739142
 20
26.568722420313236
 40
0.2999999999999999
 50
0
 51
45.000000000000362
  0
ARC
  8
_0-0_
  6
CONTINUOUS
 62
    7
 10
336.49106467739142
 20
27.665778695161009
 40
0.2999999999999999
 50
314.99999999999932
 51
0.000000000000019
  0
ARC
  8
_0-0_
  6
CONTINUOUS
 62
    7
 10
321.79106469759148
 20
27.117250557737009
 40
0.3000000000000113
 50
315.00000000000193
 51
44.999999999999034
  0
ARC
  8
_0-0_
  6
CONTINUOUS
 62
    7
 10
322.09106469759143
 20
26.568722420313236
 40
0.2999999999999999
 50
134.99999999999963
 51
180
  0
ARC
  8
_0-0_
  6
CONTINUOUS
 62
    7
 10
322.09106469759143
 20
27.665778695161009
 40
0.2999999999999999
 50
179.99999999999997
 51
225.00000000000065
  0
ARC
  8
_0-0_
  6
CONTINUOUS
 62
    7
 10
336.29106468749154
 20
2.6172505577370089
 40
0.5
 50
270
 51
0
  0
ARC
  8
_0-0_
  6
CONTINUOUS
 62
    7
 10
331.29106468749154
 20
2.6172505577370089
 40
0.5
 50
180
 51
270
  0
ARC
  8
_0-0_
  6
CONTINUOUS
 62
    7
 10
330.29106468749154
 20
20.617250557737009
 40
0.5
 50
0
 51
90
  0
ARC
  8
_0-0_
  6
CONTINUOUS
 62
    7
 10
322.29106468749154
 20
21.617250557737009
 40
0.5
 50
180
 51
270
  0
ARC
  8
_0-0_
  6
CONTINUOUS
 62
    7
 10
331.29106468749154
 20
35.324357338923676
 40
0.5
 50
314.99999999999994
 51
0.0000000000000063
  0
ARC
  8
_0-0_
  6
CONTINUOUS
 62
    7
 10
329.58395790630487
 20
33.617250557737009
 40
0.5
 50
270.00000000000006
 51
315.00000000000006
  0
ARC
  8
_0-0_
  6
CONTINUOUS
 62
    7
 10
325.89106468749145
 20
33.617250557737009
 40
0.5
 50
180
 51
270
  0
ARC
  8
_0-0_
  6
CONTINUOUS
 62
    7
 10
324.89106468749145
 20
35.108233563362148
 40
0.5
 50
0.0000000000000254
 51
63.434948822921946
  0
ARC
  8
_0-0_
  6
CONTINUOUS
 62
    7
 10
324.07303069874155
 20
35.5172505577371
 40
0.5
 50
63.434948822921804
 51
90
  0
ARC
  8
_0-0_
  6
CONTINUOUS
 62
    7
 10
322.29106468749154
 20
35.5172505577371
 40
0.5
 50
90
 51
180
  0
ARC
  8
_0-0_
  6
CONTINUOUS
 62
    7
 10
330.79106468749154
 20
11.117250557737009
 40
0.3000000000000113
 50
315.00000000000193
 51
44.999999999999034
  0
ARC
  8
_0-0_
  6
CONTINUOUS
 62
    7
 10
331.0910646874915
 20
10.568722420313236
 40
0.2999999999999999
 50
134.99999999999963
 51
180
  0
ARC
  8
_0-0_
  6
CONTINUOUS
 62
    7
 10
331.0910646874915
 20
11.665778695161009
 40
0.2999999999999999
 50
179.99999999999997
 51
225.00000000000065
  0
ARC
  8
_0-0_
  6
CONTINUOUS
 62
    7
 10
336.79106467739138
 20
55.117250557737009
 40
0.3000000000000113
 50
135.0000000000019
 51
224.99999999999903
  0
ARC
  8
_0-0_
  6
CONTINUOUS
 62
    7
 10
336.49106467739142
 20
55.665778695161009
 40
0.2999999999999999
 50
314.99999999999966
 51
0
  0
ARC
  8
_0-0_
  6
CONTINUOUS
 62
    7
 10
336.49106467739142
 20
54.568722420313236
 40
0.2999999999999999
 50
0
 51
45.000000000000661
  0
ARC
  8
_0-0_
  6
CONTINUOUS
 62
    7
 10
321.79106469759148
 20
55.117250557737009
 40
0.3000000000000113
 50
315.00000000000097
 51
44.999999999998067
  0
ARC
  8
_0-0_
  6
CONTINUOUS
 62
    7
 10
322.09106469759143
 20
55.665778695161009
 40
0.2999999999999999
 50
180
 51
225.00000000000034
  0
ARC
  8
_0-0_
  6
CONTINUOUS
 62
    7
 10
322.09106469759143
 20
54.568722420313236
 40
0.2999999999999999
 50
134.99999999999935
 51
180.00000000000003
  0
ARC
  8
_0-0_
  6
CONTINUOUS
 62
    7
 10
336.29106468749154
 20
79.617250557737009
 40
0.5
 50
0
 51
90
  0
ARC
  8
_0-0_
  6
CONTINUOUS
 62
    7
 10
331.29106468749154
 20
79.617250557737009
 40
0.5
 50
90
 51
180
  0
ARC
  8
_0-0_
  6
CONTINUOUS
 62
    7
 10
330.29106468749154
 20
61.617250557737009
 40
0.5
 50
270
 51
0
  0
ARC
  8
_0-0_
  6
CONTINUOUS
 62
    7
 10
322.29106468749154
 20
60.617250557737009
 40
0.5
 50
90
 51
180
  0
ARC
  8
_0-0_
  6
CONTINUOUS
 62
    7
 10
331.29106468749154
 20
46.910143776550569
 40
0.5
 50
0
 51
45.00000000000005
  0
ARC
  8
_0-0_
  6
CONTINUOUS
 62
    7
 10
329.58395790630487
 20
48.617250557737009
 40
0.5
 50
44.99999999999995
 51
89.999999999999943
  0
ARC
  8
_0-0_
  6
CONTINUOUS
 62
    7
 10
325.89106468749145
 20
48.617250557737009
 40
0.5
 50
90
 51
180
  0
ARC
  8
_0-0_
  6
CONTINUOUS
 62
    7
 10
324.89106468749145
 20
47.126267552112097
 40
0.5
 50
296.56505117707803
 51
0
  0
ARC
  8
_0-0_
  6
CONTINUOUS
 62
    7
 10
324.07303069874155
 20
46.717250557737145
 40
0.5
 50
270
 51
296.5650511770782
  0
ARC
  8
_0-0_
  6
CONTINUOUS
 62
    7
 10
322.29106468749154
 20
46.717250557737145
 40
0.5
 50
180
 51
270
  0
ARC
  8
_0-0_
  6
CONTINUOUS
 62
    7
 10
330.79106468749154
 20
71.117250557737009
 40
0.3000000000000113
 50
315.00000000000097
 51
44.999999999998067
  0
ARC
  8
_0-0_
  6
CONTINUOUS
 62
    7
 10
331.0910646874915
 20
71.665778695161009
 40
0.2999999999999999
 50
180
 51
225.00000000000034
  0
ARC
  8
_0-0_
  6
CONTINUOUS
 62
    7
 10
331.0910646874915
 20
70.568722420313236
 40
0.2999999999999999
 50
134.99999999999935
 51
180.00000000000003
  0
LINE
  8
_0-0_
  6
CONTINUOUS
 62
    7
 10
295.50841795901653
 20
80.117250557737009
 11
211.50841795901653
 21
80.117250557737009
  0
LINE
  8
_0-0_
  6
CONTINUOUS
 62
    7
 10
211.50841795901653
 20
80.117250557737009
 11
211.50841795901653
 21
2.1172505577370089
  0
LINE
  8
_0-0_
  6
CONTINUOUS
 62
    7
 10
211.50841795901653
 20
2.1172505577370089
 11
295.50841795901653
 21
2.1172505577370089
  0
LINE
  8
_0-0_
  6
CONTINUOUS
 62
    7
 10
295.50841795901653
 20
2.1172505577370089
 11
295.50841795901653
 21
80.117250557737009
  0
LINE
  8
_0-0_
  6
CONTINUOUS
 62
    7
 10
295.50841795901653
 20
61.117250557737009
 11
211.50841795901653
 21
61.117250557737009
  0
LINE
  8
_0-0_
  6
CONTINUOUS
 62
    7
 10
295.50841795901653
 20
46.217250557737145
 11
211.50841795901653
 21
46.217250557737145
  0
LINE
  8
_0-0_
  6
CONTINUOUS
 62
    7
 10
295.50841795901653
 20
36.0172505577371
 11
211.50841795901653
 21
36.0172505577371
  0
LINE
  8
_0-0_
  6
CONTINUOUS
 62
    7
 10
295.50841795901653
 20
21.117250557737009
 11
211.50841795901653
 21
21.117250557737009
  0
CIRCLE
  8
_0-0_
  6
CONTINUOUS
 62
    7
 10
283.50841795901653
 20
11.117250557737009
 40
3.5
  0
CIRCLE
  8
_0-0_
  6
CONTINUOUS
 62
    7
 10
223.50841795901653
 20
11.117250557737009
 40
3.5
  0
CIRCLE
  8
_0-0_
  6
CONTINUOUS
 62
    7
 10
283.50841795901653
 20
71.117250557737009
 40
3.5
  0
CIRCLE
  8
_0-0_
  6
CONTINUOUS
 62
    7
 10
223.50841795901653
 20
71.117250557737009
 40
3.5
  0
CIRCLE
  8
_0-0_
  6
CONTINUOUS
 62
    7
 10
219.50841795901653
 20
27.117250557737009
 40
3.2999999523162842
  0
CIRCLE
  8
_0-0_
  6
CONTINUOUS
 62
    7
 10
219.50841795901653
 20
55.117250557737009
 40
3.2999999523162842
  0
CIRCLE
  8
_0-0_
  6
CONTINUOUS
 62
    7
 10
287.50841795901653
 20
27.117250557737009
 40
3.2999999523162842
  0
CIRCLE
  8
_0-0_
  6
CONTINUOUS
 62
    7
 10
287.50841795901653
 20
55.117250557737009
 40
3.2999999523162842
  0
LINE
  8
_0-0_
  6
CONTINUOUS
 62
    7
 10
173.07852166636741
 20
2.1172505577370089
 11
109.07852166636741
 21
2.1172505577370089
  0
LINE
  8
_0-0_
  6
CONTINUOUS
 62
    7
 10
109.07852166636741
 20
2.1172505577370089
 11
109.07852166636741
 21
80.117250557737009
  0
LINE
  8
_0-0_
  6
CONTINUOUS
 62
    7
 10
109.07852166636741
 20
80.117250557737009
 11
173.07852166636741
 21
80.117250557737009
  0
LINE
  8
_0-0_
  6
CONTINUOUS
 62
    7
 10
173.07852166636741
 20
80.117250557737009
 11
173.07852166636741
 21
2.1172505577370089
  0
LINE
  8
_0-0_
  6
CONTINUOUS
 62
    7
 10
109.07852166636741
 20
36.0172505577371
 11
173.07852166636741
 21
36.0172505577371
  0
LINE
  8
_0-0_
  6
CONTINUOUS
 62
    7
 10
109.07852166636741
 20
46.217250557737145
 11
173.07852166636741
 21
46.217250557737145
  0
LINE
  8
_0-0_
  6
CONTINUOUS
 62
    7
 10
173.07852166636741
 20
61.117250557737009
 11
109.07852166636741
 21
61.117250557737009
  0
LINE
  8
_0-0_
  6
CONTINUOUS
 62
    7
 10
109.07852166636741
 20
21.117250557737009
 11
173.07852166636741
 21
21.117250557737009
  0
CIRCLE
  8
_0-0_
  6
CONTINUOUS
 62
    7
 10
161.07852166636741
 20
11.117250557737009
 40
3.5
  0
CIRCLE
  8
_0-0_
  6
CONTINUOUS
 62
    7
 10
121.07852166636741
 20
11.117250557737009
 40
3.5
  0
CIRCLE
  8
_0-0_
  6
CONTINUOUS
 62
    7
 10
161.07852166636741
 20
71.117250557737009
 40
3.5
  0
CIRCLE
  8
_0-0_
  6
CONTINUOUS
 62
    7
 10
121.07852166636741
 20
71.117250557737009
 40
3.5
  0
CIRCLE
  8
_0-0_
  6
CONTINUOUS
 62
    7
 10
117.07852166636741
 20
27.117250557737009
 40
3.2999999523162842
  0
CIRCLE
  8
_0-0_
  6
CONTINUOUS
 62
    7
 10
117.07852166636741
 20
55.117250557737009
 40
3.2999999523162842
  0
CIRCLE
  8
_0-0_
  6
CONTINUOUS
 62
    7
 10
165.07852166636741
 20
27.117250557737009
 40
3.2999999523162842
  0
CIRCLE
  8
_0-0_
  6
CONTINUOUS
 62
    7
 10
165.07852166636741
 20
55.117250557737009
 40
3.2999999523162842
  0
LINE
  8
_0-0_
  6
CONTINUOUS
 62
    7
 10
15.790215274990032
 20
61.117250557737009
 11
59.790215274990032
 21
61.117250557737009
  0
LINE
  8
_0-0_
  6
CONTINUOUS
 62
    7
 10
15.790215274990032
 20
46.217250557737145
 11
59.790215274990032
 21
46.217250557737145
  0
LINE
  8
_0-0_
  6
CONTINUOUS
 62
    7
 10
15.790215274990032
 20
36.0172505577371
 11
59.790215274990032
 21
36.0172505577371
  0
LINE
  8
_0-0_
  6
CONTINUOUS
 62
    7
 10
15.790215274990032
 20
21.117250557737009
 11
59.790215274990032
 21
21.117250557737009
  0
LINE
  8
_0-0_
  6
CONTINUOUS
 62
    7
 10
15.790215274990032
 20
80.117250557737009
 11
15.790215274990032
 21
2.1172505577370089
  0
LINE
  8
_0-0_
  6
CONTINUOUS
 62
    7
 10
15.790215274990032
 20
2.1172505577370089
 11
59.790215274990032
 21
2.1172505577370089
  0
LINE
  8
_0-0_
  6
CONTINUOUS
 62
    7
 10
59.790215274990032
 20
2.1172505577370089
 11
59.790215274990032
 21
80.117250557737009
  0
LINE
  8
_0-0_
  6
CONTINUOUS
 62
    7
 10
59.790215274990032
 20
80.117250557737009
 11
15.790215274990032
 21
80.117250557737009
  0
CIRCLE
  8
_0-0_
  6
CONTINUOUS
 62
    7
 10
37.790215274990032
 20
11.117250557737009
 40
3.5
  0
CIRCLE
  8
_0-0_
  6
CONTINUOUS
 62
    7
 10
37.790215274990032
 20
71.117250557737009
 40
3.5
  0
CIRCLE
  8
_0-0_
  6
CONTINUOUS
 62
    7
 10
23.790215274990032
 20
27.117250557737009
 40
3.2999999523162842
  0
CIRCLE
  8
_0-0_
  6
CONTINUOUS
 62
    7
 10
23.790215274990032
 20
55.117250557737009
 40
3.2999999523162842
  0
CIRCLE
  8
_0-0_
  6
CONTINUOUS
 62
    7
 10
51.790215274990032
 20
55.117250557737009
 40
3.2999999523162842
  0
CIRCLE
  8
_0-0_
  6
CONTINUOUS
 62
    7
 10
51.790215274990032
 20
27.117250557737009
 40
3.2999999523162842
  0
LINE
  8
_0-0_
  6
CONTINUOUS
 62
    7
 10
336.29106468749154
 20
202.27673879361498
 11
331.29106468749154
 21
202.27673879361498
  0
LINE
  8
_0-0_
  6
CONTINUOUS
 62
    7
 10
330.79106468749154
 20
201.77673879361498
 11
330.79106468749154
 21
193.82526693103898
  0
LINE
  8
_0-0_
  6
CONTINUOUS
 62
    7
 10
330.87893265313545
 20
193.61313489668294
 11
331.00319672184736
 21
193.48887082797103
  0
LINE
  8
_0-0_
  6
CONTINUOUS
 62
    7
 10
331.00319672184736
 20
193.06460675925916
 11
330.87893265313545
 21
192.94034269054725
  0
LINE
  8
_0-0_
  6
CONTINUOUS
 62
    7
 10
330.79106468749154
 20
192.72821065619121
 11
330.79106468749154
 21
183.77673879361498
  0
LINE
  8
_0-0_
  6
CONTINUOUS
 62
    7
 10
330.29106468749154
 20
183.27673879361498
 11
322.29106468749154
 21
183.27673879361498
  0
LINE
  8
_0-0_
  6
CONTINUOUS
 62
    7
 10
321.79106468749154
 20
182.77673879361498
 11
321.79106468749154
 21
177.82526693103898
  0
LINE
  8
_0-0_
  6
CONTINUOUS
 62
    7
 10
321.87893266323562
 20
177.61313489668294
 11
322.00319673194753
 21
177.48887082797103
  0
LINE
  8
_0-0_
  6
CONTINUOUS
 62
    7
 10
322.00319673194753
 20
177.06460675925916
 11
321.87893266323562
 21
176.94034269054725
  0
LINE
  8
_0-0_
  6
CONTINUOUS
 62
    7
 10
321.79106468749154
 20
176.72821065619121
 11
321.79106468749154
 21
168.87673879361512
  0
LINE
  8
_0-0_
  6
CONTINUOUS
 62
    7
 10
322.29106468749154
 20
168.37673879361512
 11
324.07303069874155
 21
168.37673879361512
  0
LINE
  8
_0-0_
  6
CONTINUOUS
 62
    7
 10
324.29663749649166
 20
168.42952519811513
 11
325.11467148524133
 21
168.83854219249008
  0
LINE
  8
_0-0_
  6
CONTINUOUS
 62
    7
 10
325.39106468749145
 20
169.28575578799007
 11
325.39106468749145
 21
170.77673879361498
  0
LINE
  8
_0-0_
  6
CONTINUOUS
 62
    7
 10
325.89106468749145
 20
171.27673879361498
 11
329.58395790630487
 21
171.27673879361498
  0
LINE
  8
_0-0_
  6
CONTINUOUS
 62
    7
 10
329.93751129689821
 20
171.13029218420832
 11
331.64461807808465
 21
169.42318540302188
  0
LINE
  8
_0-0_
  6
CONTINUOUS
 62
    7
 10
331.79106468749154
 20
169.06963201242854
 11
331.79106468749154
 21
163.82526693103898
  0
LINE
  8
_0-0_
  6
CONTINUOUS
 62
    7
 10
331.87893266323562
 20
163.61313489668294
 11
332.00319673194753
 21
163.48887082797103
  0
LINE
  8
_0-0_
  6
CONTINUOUS
 62
    7
 10
332.00319673194753
 20
163.06460675925916
 11
331.87893266323562
 21
162.94034269054725
  0
LINE
  8
_0-0_
  6
CONTINUOUS
 62
    7
 10
331.79106468749154
 20
162.72821065619121
 11
331.79106468749154
 21
157.48384557480165
  0
LINE
  8
_0-0_
  6
CONTINUOUS
 62
    7
 10
331.64461807808465
 20
157.13029218420832
 11
329.93751129689821
 21
155.42318540302188
  0
LINE
  8
_0-0_
  6
CONTINUOUS
 62
    7
 10
329.58395790630487
 20
155.27673879361498
 11
325.89106468749145
 21
155.27673879361498
  0
LINE
  8
_0-0_
  6
CONTINUOUS
 62
    7
 10
325.39106468749145
 20
155.77673879361498
 11
325.39106468749145
 21
157.26772179924012
  0
LINE
  8
_0-0_
  6
CONTINUOUS
 62
    7
 10
325.11467148524133
 20
157.71493539474011
 11
324.29663749649166
 21
158.12395238911506
  0
LINE
  8
_0-0_
  6
CONTINUOUS
 62
    7
 10
324.07303069874155
 20
158.17673879361507
 11
322.29106468749154
 21
158.17673879361507
  0
LINE
  8
_0-0_
  6
CONTINUOUS
 62
    7
 10
321.79106468749154
 20
157.67673879361507
 11
321.79106468749154
 21
149.82526693103898
  0
LINE
  8
_0-0_
  6
CONTINUOUS
 62
    7
 10
321.87893266323562
 20
149.61313489668294
 11
322.00319673194753
 21
149.48887082797103
  0
LINE
  8
_0-0_
  6
CONTINUOUS
 62
    7
 10
322.00319673194753
 20
149.06460675925916
 11
321.87893266323562
 21
148.94034269054725
  0
LINE
  8
_0-0_
  6
CONTINUOUS
 62
    7
 10
321.79106468749154
 20
148.72821065619121
 11
321.79106468749154
 21
143.77673879361498
  0
LINE
  8
_0-0_
  6
CONTINUOUS
 62
    7
 10
322.29106468749154
 20
143.27673879361498
 11
330.29106468749154
 21
143.27673879361498
  0
LINE
  8
_0-0_
  6
CONTINUOUS
 62
    7
 10
330.79106468749154
 20
142.77673879361498
 11
330.79106468749154
 21
133.82526693103898
  0
LINE
  8
_0-0_
  6
CONTINUOUS
 62
    7
 10
330.87893265313545
 20
133.61313489668294
 11
331.00319672184736
 21
133.48887082797103
  0
LINE
  8
_0-0_
  6
CONTINUOUS
 62
    7
 10
331.00319672184736
 20
133.06460675925916
 11
330.87893265313545
 21
132.94034269054725
  0
LINE
  8
_0-0_
  6
CONTINUOUS
 62
    7
 10
330.79106468749154
 20
132.72821065619121
 11
330.79106468749154
 21
124.77673879361498
  0
LINE
  8
_0-0_
  6
CONTINUOUS
 62
    7
 10
331.29106468749154
 20
124.27673879361498
 11
336.29106468749154
 21
124.27673879361498
  0
LINE
  8
_0-0_
  6
CONTINUOUS
 62
    7
 10
336.79106468749154
 20
124.77673879361498
 11
336.79106468749154
 21
176.72821065619121
  0
LINE
  8
_0-0_
  6
CONTINUOUS
 62
    7
 10
336.70319671174747
 20
176.94034269054725
 11
336.57893264303556
 21
177.06460675925916
  0
LINE
  8
_0-0_
  6
CONTINUOUS
 62
    7
 10
336.57893264303556
 20
177.48887082797103
 11
336.70319671174747
 21
177.61313489668294
  0
LINE
  8
_0-0_
  6
CONTINUOUS
 62
    7
 10
336.79106468749154
 20
177.82526693103898
 11
336.79106468749154
 21
201.77673879361498
  0
LINE
  8
_0-0_
  6
CONTINUOUS
 62
    7
 10
336.57893264303556
 20
149.06460675925916
 11
336.70319671174747
 21
148.94034269054725
  0
LINE
  8
_0-0_
  6
CONTINUOUS
 62
    7
 10
336.57893264303556
 20
149.48887082797103
 11
336.70319671174747
 21
149.61313489668294
  0
ARC
  8
_0-0_
  6
CONTINUOUS
 62
    7
 10
331.79106469759148
 20
163.27673879361498
 40
0.3000000000000113
 50
315.00000000000097
 51
44.999999999998067
  0
ARC
  8
_0-0_
  6
CONTINUOUS
 62
    7
 10
332.09106469759143
 20
163.82526693103898
 40
0.2999999999999999
 50
180
 51
225.00000000000034
  0
ARC
  8
_0-0_
  6
CONTINUOUS
 62
    7
 10
332.09106469759143
 20
162.72821065619121
 40
0.2999999999999999
 50
134.99999999999935
 51
180.00000000000003
  0
ARC
  8
_0-0_
  6
CONTINUOUS
 62
    7
 10
336.79106467739138
 20
149.27673879361498
 40
0.3000000000000113
 50
135.00000000000097
 51
224.99999999999812
  0
ARC
  8
_0-0_
  6
CONTINUOUS
 62
    7
 10
336.49106467739142
 20
148.72821065619121
 40
0.2999999999999999
 50
0
 51
45.000000000000362
  0
ARC
  8
_0-0_
  6
CONTINUOUS
 62
    7
 10
336.49106467739142
 20
149.82526693103898
 40
0.2999999999999999
 50
314.99999999999932
 51
0.000000000000019
  0
ARC
  8
_0-0_
  6
CONTINUOUS
 62
    7
 10
321.79106469759148
 20
149.27673879361498
 40
0.3000000000000113
 50
315.00000000000193
 51
44.999999999999034
  0
ARC
  8
_0-0_
  6
CONTINUOUS
 62
    7
 10
322.09106469759143
 20
148.72821065619121
 40
0.2999999999999999
 50
134.99999999999963
 51
180
  0
ARC
  8
_0-0_
  6
CONTINUOUS
 62
    7
 10
322.09106469759143
 20
149.82526693103898
 40
0.2999999999999999
 50
179.99999999999997
 51
225.00000000000065
  0
ARC
  8
_0-0_
  6
CONTINUOUS
 62
    7
 10
336.29106468749154
 20
124.77673879361498
 40
0.5
 50
270
 51
0
  0
ARC
  8
_0-0_
  6
CONTINUOUS
 62
    7
 10
331.29106468749154
 20
124.77673879361498
 40
0.5
 50
180
 51
270
  0
ARC
  8
_0-0_
  6
CONTINUOUS
 62
    7
 10
330.29106468749154
 20
142.77673879361498
 40
0.5
 50
0
 51
90
  0
ARC
  8
_0-0_
  6
CONTINUOUS
 62
    7
 10
322.29106468749154
 20
143.77673879361498
 40
0.5
 50
180
 51
270
  0
ARC
  8
_0-0_
  6
CONTINUOUS
 62
    7
 10
331.29106468749154
 20
157.48384557480165
 40
0.5
 50
314.99999999999994
 51
0.0000000000000063
  0
ARC
  8
_0-0_
  6
CONTINUOUS
 62
    7
 10
329.58395790630487
 20
155.77673879361498
 40
0.5
 50
270.00000000000006
 51
315.00000000000006
  0
ARC
  8
_0-0_
  6
CONTINUOUS
 62
    7
 10
325.89106468749145
 20
155.77673879361498
 40
0.5
 50
180
 51
270
  0
ARC
  8
_0-0_
  6
CONTINUOUS
 62
    7
 10
324.89106468749145
 20
157.26772179924012
 40
0.5
 50
0.0000000000000254
 51
63.434948822921946
  0
ARC
  8
_0-0_
  6
CONTINUOUS
 62
    7
 10
324.07303069874155
 20
157.67673879361507
 40
0.5
 50
63.434948822921804
 51
90
  0
ARC
  8
_0-0_
  6
CONTINUOUS
 62
    7
 10
322.29106468749154
 20
157.67673879361507
 40
0.5
 50
90
 51
180
  0
ARC
  8
_0-0_
  6
CONTINUOUS
 62
    7
 10
330.79106468749154
 20
133.27673879361498
 40
0.3000000000000113
 50
315.00000000000193
 51
44.999999999999034
  0
ARC
  8
_0-0_
  6
CONTINUOUS
 62
    7
 10
331.0910646874915
 20
132.72821065619121
 40
0.2999999999999999
 50
134.99999999999963
 51
180
  0
ARC
  8
_0-0_
  6
CONTINUOUS
 62
    7
 10
331.0910646874915
 20
133.82526693103898
 40
0.2999999999999999
 50
179.99999999999997
 51
225.00000000000065
  0
ARC
  8
_0-0_
  6
CONTINUOUS
 62
    7
 10
336.79106467739138
 20
177.27673879361498
 40
0.3000000000000113
 50
135.0000000000019
 51
224.99999999999903
  0
ARC
  8
_0-0_
  6
CONTINUOUS
 62
    7
 10
336.49106467739142
 20
177.82526693103898
 40
0.2999999999999999
 50
314.99999999999966
 51
0
  0
ARC
  8
_0-0_
  6
CONTINUOUS
 62
    7
 10
336.49106467739142
 20
176.72821065619121
 40
0.2999999999999999
 50
0
 51
45.000000000000661
  0
ARC
  8
_0-0_
  6
CONTINUOUS
 62
    7
 10
321.79106469759148
 20
177.27673879361498
 40
0.3000000000000113
 50
315.00000000000097
 51
44.999999999998067
  0
ARC
  8
_0-0_
  6
CONTINUOUS
 62
    7
 10
322.09106469759143
 20
177.82526693103898
 40
0.2999999999999999
 50
180
 51
225.00000000000034
  0
ARC
  8
_0-0_
  6
CONTINUOUS
 62
    7
 10
322.09106469759143
 20
176.72821065619121
 40
0.2999999999999999
 50
134.99999999999935
 51
180.00000000000003
  0
ARC
  8
_0-0_
  6
CONTINUOUS
 62
    7
 10
336.29106468749154
 20
201.77673879361498
 40
0.5
 50
0
 51
90
  0
ARC
  8
_0-0_
  6
CONTINUOUS
 62
    7
 10
331.29106468749154
 20
201.77673879361498
 40
0.5
 50
90
 51
180
  0
ARC
  8
_0-0_
  6
CONTINUOUS
 62
    7
 10
330.29106468749154
 20
183.77673879361498
 40
0.5
 50
270
 51
0
  0
ARC
  8
_0-0_
  6
CONTINUOUS
 62
    7
 10
322.29106468749154
 20
182.77673879361498
 40
0.5
 50
90
 51
180
  0
ARC
  8
_0-0_
  6
CONTINUOUS
 62
    7
 10
331.29106468749154
 20
169.06963201242854
 40
0.5
 50
0
 51
45.00000000000005
  0
ARC
  8
_0-0_
  6
CONTINUOUS
 62
    7
 10
329.58395790630487
 20
170.77673879361498
 40
0.5
 50
44.99999999999995
 51
89.999999999999943
  0
ARC
  8
_0-0_
  6
CONTINUOUS
 62
    7
 10
325.89106468749145
 20
170.77673879361498
 40
0.5
 50
90
 51
180
  0
ARC
  8
_0-0_
  6
CONTINUOUS
 62
    7
 10
324.89106468749145
 20
169.28575578799007
 40
0.5
 50
296.56505117707803
 51
0
  0
ARC
  8
_0-0_
  6
CONTINUOUS
 62
    7
 10
324.07303069874155
 20
168.87673879361512
 40
0.5
 50
270
 51
296.5650511770782
  0
ARC
  8
_0-0_
  6
CONTINUOUS
 62
    7
 10
322.29106468749154
 20
168.87673879361512
 40
0.5
 50
180
 51
270
  0
ARC
  8
_0-0_
  6
CONTINUOUS
 62
    7
 10
330.79106468749154
 20
193.27673879361498
 40
0.3000000000000113
 50
315.00000000000097
 51
44.999999999998067
  0
ARC
  8
_0-0_
  6
CONTINUOUS
 62
    7
 10
331.0910646874915
 20
193.82526693103898
 40
0.2999999999999999
 50
180
 51
225.00000000000034
  0
ARC
  8
_0-0_
  6
CONTINUOUS
 62
    7
 10
331.0910646874915
 20
192.72821065619121
 40
0.2999999999999999
 50
134.99999999999935
 51
180.00000000000003
  0
LINE
  8
_0-0_
  6
CONTINUOUS
 62
    7
 10
211.50841795901653
 20
202.27673879361498
 11
211.50841795901653
 21
124.27673879361498
  0
LINE
  8
_0-0_
  6
CONTINUOUS
 62
    7
 10
295.50841795901653
 20
124.27673879361498
 11
295.50841795901653
 21
202.27673879361498
  0
LINE
  8
_0-0_
  6
CONTINUOUS
 62
    7
 10
295.50841795901653
 20
202.27673879361498
 11
227.05088109850931
 21
202.27673879361498
  0
LINE
  8
_0-0_
  6
CONTINUOUS
 62
    7
 10
225.71691478149899
 20
202.27673879361498
 11
211.50841795901653
 21
202.27673879361498
  0
LINE
  8
_0-0_
  6
CONTINUOUS
 62
    7
 10
295.50841795901653
 20
183.27673879361498
 11
232.14191575470062
 21
183.27673879361498
  0
LINE
  8
_0-0_
  6
CONTINUOUS
 62
    7
 10
230.8079494376903
 20
183.27673879361498
 11
211.50841795901653
 21
183.27673879361498
  0
LINE
  8
_0-0_
  6
CONTINUOUS
 62
    7
 10
295.50841795901653
 20
168.37673879361512
 11
236.13435872192434
 21
168.37673879361512
  0
LINE
  8
_0-0_
  6
CONTINUOUS
 62
    7
 10
234.80039240491402
 20
168.37673879361512
 11
211.50841795901653
 21
168.37673879361512
  0
LINE
  8
_0-0_
  6
CONTINUOUS
 62
    7
 10
295.50841795901653
 20
158.17673879361507
 11
238.86744048472178
 21
158.17673879361507
  0
LINE
  8
_0-0_
  6
CONTINUOUS
 62
    7
 10
237.53347416771146
 20
158.17673879361507
 11
211.50841795901653
 21
158.17673879361507
  0
LINE
  8
_0-0_
  6
CONTINUOUS
 62
    7
 10
295.50841795901653
 20
143.27673879361498
 11
242.85988345194556
 21
143.27673879361498
  0
LINE
  8
_0-0_
  6
CONTINUOUS
 62
    7
 10
241.52591713493524
 20
143.27673879361498
 11
211.50841795901653
 21
143.27673879361498
  0
LINE
  8
_0-0_
  6
CONTINUOUS
 62
    7
 10
211.50841795901653
 20
124.27673879361498
 11
246.61695179112655
 21
124.27673879361498
  0
LINE
  8
_0-0_
  6
CONTINUOUS
 62
    7
 10
247.95091810813688
 20
124.27673879361498
 11
295.50841795901653
 21
124.27673879361498
  0
LINE
  8
_0-1_
  6
CENTER1
 62
  152
 10
337.96251705537469
 20
71.117250557737009
 11
329.98908047896037
 21
71.117250557737009
  0
LINE
  8
_0-1_
  6
CENTER1
 62
  152
 10
321.79106468749154
 20
41.117250557737009
 11
337.96251705537469
 21
41.117250557737009
  0
LINE
  8
_0-1_
  6
CENTER1
 62
  152
 10
337.96251705537469
 20
11.117250557737009
 11
329.98908047896037
 21
11.117250557737009
  0
LINE
  8
_0-1_
  6
CENTER1
 62
  152
 10
283.50841795901653
 20
76.617250557737009
 11
283.50841795901653
 21
65.617250557737009
  0
LINE
  8
_0-1_
  6
CENTER1
 62
  152
 10
287.50841795901653
 20
63.117250557737009
 11
287.50841795901653
 21
19.117250557737009
  0
LINE
  8
_0-1_
  6
CENTER1
 62
  152
 10
283.50841795901653
 20
16.617250557737009
 11
283.50841795901653
 21
5.6172505577370089
  0
LINE
  8
_0-1_
  6
CENTER1
 62
  152
 10
289.00841795901653
 20
11.117250557737009
 11
218.00841795901653
 21
11.117250557737009
  0
LINE
  8
_0-1_
  6
CENTER1
 62
  152
 10
219.50841795901653
 20
19.117250557737009
 11
219.50841795901653
 21
63.117250557737009
  0
LINE
  8
_0-1_
  6
CENTER1
 62
  152
 10
223.50841795901653
 20
65.617250557737009
 11
223.50841795901653
 21
76.617250557737009
  0
LINE
  8
_0-1_
  6
CENTER1
 62
  152
 10
218.00841795901653
 20
71.117250557737009
 11
289.00841795901653
 21
71.117250557737009
  0
LINE
  8
_0-1_
  6
CENTER1
 62
  152
 10
211.50841795901653
 20
55.117250557737009
 11
295.50841795901653
 21
55.117250557737009
  0
LINE
  8
_0-1_
  6
CENTER1
 62
  152
 10
211.50841795901653
 20
41.117250557737009
 11
295.50841795901653
 21
41.117250557737009
  0
LINE
  8
_0-1_
  6
CENTER1
 62
  152
 10
211.50841795901653
 20
27.117250557737009
 11
295.50841795901653
 21
27.117250557737009
  0
LINE
  8
_0-1_
  6
CENTER1
 62
  152
 10
223.50841795901653
 20
16.617250557737009
 11
223.50841795901653
 21
5.6172505577370089
  0
LINE
  8
_0-1_
  6
CENTER1
 62
  152
 10
166.57852166636741
 20
11.117250557737009
 11
115.57852166636741
 21
11.117250557737009
  0
LINE
  8
_0-1_
  6
CENTER1
 62
  152
 10
117.07852166636741
 20
19.117250557737009
 11
117.07852166636741
 21
35.117250557737009
  0
LINE
  8
_0-1_
  6
CENTER1
 62
  152
 10
173.07852166636741
 20
41.117250557737009
 11
109.07852166636741
 21
41.117250557737009
  0
LINE
  8
_0-1_
  6
CENTER1
 62
  152
 10
165.07852166636741
 20
47.117250557737009
 11
165.07852166636741
 21
63.117250557737009
  0
LINE
  8
_0-1_
  6
CENTER1
 62
  152
 10
161.07852166636741
 20
65.617250557737009
 11
161.07852166636741
 21
76.617250557737009
  0
LINE
  8
_0-1_
  6
CENTER1
 62
  152
 10
166.57852166636741
 20
71.117250557737009
 11
115.57852166636741
 21
71.117250557737009
  0
LINE
  8
_0-1_
  6
CENTER1
 62
  152
 10
117.07852166636741
 20
63.117250557737009
 11
117.07852166636741
 21
47.117250557737009
  0
LINE
  8
_0-1_
  6
CENTER1
 62
  152
 10
109.07852166636741
 20
55.117250557737009
 11
173.07852166636741
 21
55.117250557737009
  0
LINE
  8
_0-1_
  6
CENTER1
 62
  152
 10
121.07852166636741
 20
65.617250557737009
 11
121.07852166636741
 21
76.617250557737009
  0
LINE
  8
_0-1_
  6
CENTER1
 62
  152
 10
121.07852166636741
 20
16.617250557737009
 11
121.07852166636741
 21
5.6172505577370089
  0
LINE
  8
_0-1_
  6
CENTER1
 62
  152
 10
173.07852166636741
 20
27.117250557737009
 11
109.07852166636741
 21
27.117250557737009
  0
LINE
  8
_0-1_
  6
CENTER1
 62
  152
 10
161.07852166636741
 20
16.617250557737009
 11
161.07852166636741
 21
5.6172505577370089
  0
LINE
  8
_0-1_
  6
CENTER1
 62
  152
 10
165.07852166636741
 20
19.117250557737009
 11
165.07852166636741
 21
35.117250557737009
  0
LINE
  8
_0-1_
  6
CENTER1
 62
  152
 10
59.790215274990032
 20
55.117250557737009
 11
15.790215274990032
 21
55.117250557737009
  0
LINE
  8
_0-1_
  6
CENTER1
 62
  152
 10
59.790215274990032
 20
41.117250557737009
 11
15.790215274990032
 21
41.117250557737009
  0
LINE
  8
_0-1_
  6
CENTER1
 62
  152
 10
59.790215274990032
 20
27.117250557737009
 11
15.790215274990032
 21
27.117250557737009
  0
LINE
  8
_0-1_
  6
CENTER1
 62
  152
 10
51.790215274990032
 20
19.617250557737009
 11
51.790215274990032
 21
62.617250557737009
  0
LINE
  8
_0-1_
  6
CENTER1
 62
  152
 10
43.290215274990032
 20
71.117250557737009
 11
32.290215274990032
 21
71.117250557737009
  0
LINE
  8
_0-1_
  6
CENTER1
 62
  152
 10
37.790215274990032
 20
76.617250557737009
 11
37.790215274990032
 21
5.6172505577370089
  0
LINE
  8
_0-1_
  6
CENTER1
 62
  152
 10
43.290215274990032
 20
11.117250557737009
 11
32.290215274990032
 21
11.117250557737009
  0
LINE
  8
_0-1_
  6
CENTER1
 62
  152
 10
23.790215274990032
 20
19.617250557737009
 11
23.790215274990032
 21
62.617250557737009
  0
TEXT
  8
_0-1_
 62
    7
 10
2.7593832359923454
 20
85.696873812981039
 40
5
 41
1
 50
0
  1
BF4H-
  0
TEXT
  8
_0-1_
 62
    7
 10
96.047689627369834
 20
85.696873812981039
 40
5
 41
1
 50
0
  1
BF4H-
  0
TEXT
  8
_0-1_
 62
    7
 10
198.47758592001895
 20
85.696873812981039
 40
5
 41
1
 50
0
  1
BF4H-
  0
TEXT
  8
_0-1_
 62
    7
 10
15.259383235992345
 20
85.696873812981039
 40
5
 41
1
 50
0
  1
L44
  0
TEXT
  8
_0-1_
 62
    7
 10
108.54768962736983
 20
85.696873812981039
 40
5
 41
1
 50
0
  1
L64
  0
TEXT
  8
_0-1_
 62
    7
 10
210.97758592001895
 20
85.696873812981039
 40
5
 41
1
 50
0
  1
L84
  0
TEXT
  8
_0-1_
 62
    7
 10
198.47758592001895
 20
207.85636204885901
 40
5
 41
1
 50
0
  1
BF40
  0
LINE
  8
_0-1_
  6
CENTER1
 62
  152
 10
224.57904062703778
 20
206.52334295068363
 11
248.33607596544425
 21
117.86088003054158
  0
LINE
  8
_0-1_
  6
CENTER1
 62
  152
 10
225.91300694404811
 20
206.52334295068363
 11
249.67004228245457
 21
117.86088003054158
  0
CIRCLE
  8
_0-1_
  6
DASHED2
 62
  152
 10
23.790215274990032
 20
55.117250557737009
 40
5.5
  0
CIRCLE
  8
_0-1_
  6
DASHED2
 62
  152
 10
51.790215274990032
 20
55.117250557737009
 40
5.5
  0
CIRCLE
  8
_0-1_
  6
DASHED2
 62
  152
 10
51.790215274990032
 20
27.117250557737009
 40
5.5
  0
CIRCLE
  8
_0-1_
  6
DASHED2
 62
  152
 10
23.790215274990032
 20
27.117250557737009
 40
5.5
  0
CIRCLE
  8
_0-1_
  6
DASHED2
 62
  152
 10
117.07852166636741
 20
55.117250557737009
 40
5.5
  0
CIRCLE
  8
_0-1_
  6
DASHED2
 62
  152
 10
117.07852166636741
 20
27.117250557737009
 40
5.5
  0
CIRCLE
  8
_0-1_
  6
DASHED2
 62
  152
 10
165.07852166636741
 20
27.117250557737009
 40
5.5
  0
CIRCLE
  8
_0-1_
  6
DASHED2
 62
  152
 10
165.07852166636741
 20
55.117250557737009
 40
5.5
  0
CIRCLE
  8
_0-1_
  6
DASHED2
 62
  152
 10
219.50841795901653
 20
55.117250557737009
 40
5.5
  0
CIRCLE
  8
_0-1_
  6
DASHED2
 62
  152
 10
219.50841795901653
 20
27.117250557737009
 40
5.5
  0
CIRCLE
  8
_0-1_
  6
DASHED2
 62
  152
 10
287.50841795901653
 20
55.117250557737009
 40
5.5
  0
CIRCLE
  8
_0-1_
  6
DASHED2
 62
  152
 10
287.50841795901653
 20
27.117250557737009
 40
5.5
  0
LINE
  8
_0-1_
  6
DASHED2
 62
  152
 10
330.79106468749154
 20
60.617250557737009
 11
330.79106468749154
 21
49.617250557737009
  0
LINE
  8
_0-1_
  6
DASHED2
 62
  152
 10
336.79106468749154
 20
60.617250557737009
 11
330.79106468749154
 21
60.617250557737009
  0
LINE
  8
_0-1_
  6
DASHED2
 62
  152
 10
336.79106468749154
 20
49.617250557737009
 11
330.79106468749154
 21
49.617250557737009
  0
LINE
  8
_0-1_
  6
DASHED2
 62
  152
 10
330.79106468749154
 20
51.817250557736998
 11
321.79106468749154
 21
51.817250557736998
  0
LINE
  8
_0-1_
  6
DASHED2
 62
  152
 10
330.79106468749154
 20
58.41725055773702
 11
321.79106468749154
 21
58.41725055773702
  0
LINE
  8
_0-1_
  6
DASHED2
 62
  152
 10
330.79106468749154
 20
23.817250557736998
 11
321.79106468749154
 21
23.817250557736998
  0
LINE
  8
_0-1_
  6
DASHED2
 62
  152
 10
330.79106468749154
 20
30.41725055773702
 11
321.79106468749154
 21
30.41725055773702
  0
LINE
  8
_0-1_
  6
DASHED2
 62
  152
 10
330.79106468749154
 20
21.617250557737009
 11
330.79106468749154
 21
32.617250557737009
  0
LINE
  8
_0-1_
  6
DASHED2
 62
  152
 10
336.79106468749154
 20
32.617250557737009
 11
330.79106468749154
 21
32.617250557737009
  0
LINE
  8
_0-1_
  6
DASHED2
 62
  152
 10
336.79106468749154
 20
21.617250557737009
 11
330.79106468749154
 21
21.617250557737009
  0
LINE
  8
_0-2_
  6
CONTINUOUS
 62
   56
 10
311.24106449675668
 20
58.117250557737009
 11
310.79106468749154
 21
57.667250510053293
  0
LINE
  8
_0-2_
  6
CONTINUOUS
 62
   56
 10
310.79106468749154
 20
52.567250605420725
 11
310.79106468749154
 21
57.667250510053293
  0
LINE
  8
_0-2_
  6
CONTINUOUS
 62
   56
 10
310.79106468749154
 20
52.567250605420725
 11
311.24106449675668
 21
52.117250557737009
  0
LINE
  8
_0-2_
  6
CONTINUOUS
 62
   56
 10
311.24106449675668
 20
58.117250557737009
 11
311.24106449675668
 21
52.117250557737009
  0
LINE
  8
_0-1_
  6
CENTER1
 62
  152
 10
337.08156102404922
 20
55.117250557737009
 11
309.96242016958519
 21
55.117250557737009
  0
LINE
  8
_0-2_
  6
CONTINUOUS
 62
  152
 10
321.79106468749154
 20
57.667250510053293
 11
310.79106468749154
 21
57.667250510053293
  0
LINE
  8
_0-2_
  6
CONTINUOUS
 62
   56
 10
311.24106449675668
 20
58.117250557737009
 11
321.79106468749154
 21
58.117250557737009
  0
LINE
  8
_0-2_
  6
CONTINUOUS
 62
  152
 10
321.79106468749154
 20
52.567250605420725
 11
310.79106468749154
 21
52.567250605420725
  0
LINE
  8
_0-2_
  6
CONTINUOUS
 62
   56
 10
311.24106449675668
 20
52.117250557737009
 11
321.79106468749154
 21
52.117250557737009
  0
LINE
  8
_0-2_
  6
DASHED2
 62
    9
 10
330.79106468749154
 20
55.117250557737009
 11
330.08395790630499
 21
54.410143776550342
  0
LINE
  8
_0-2_
  6
DASHED2
 62
    9
 10
330.79106468749154
 20
55.117250557737009
 11
330.08395790630499
 21
55.824357338923676
  0
LINE
  8
_0-2_
  6
DASHED2
 62
   56
 10
336.19106478285897
 20
60.117250557737009
 11
330.79106468749154
 21
60.117250557737009
  0
LINE
  8
_0-2_
  6
DASHED2
 62
   56
 10
336.19106478285897
 20
60.117250557737009
 11
336.79106468749154
 21
59.517250653104441
  0
LINE
  8
_0-2_
  6
DASHED2
 62
   56
 10
336.79106468749154
 20
50.717250462369577
 11
336.79106468749154
 21
59.517250653104441
  0
LINE
  8
_0-2_
  6
DASHED2
 62
   56
 10
336.19106478285897
 20
50.117250557737009
 11
330.79106468749154
 21
50.117250557737009
  0
LINE
  8
_0-2_
  6
DASHED2
 62
   56
 10
336.79106468749154
 20
50.717250462369577
 11
336.19106478285897
 21
50.117250557737009
  0
LINE
  8
_0-2_
  6
DASHED2
 62
   56
 10
321.79106468749154
 20
52.117250557737009
 11
330.79106468749154
 21
52.117250557737009
  0
LINE
  8
_0-2_
  6
DASHED2
 62
   56
 10
321.79106468749154
 20
58.117250557737009
 11
330.79106468749154
 21
58.117250557737009
  0
LINE
  8
_0-2_
  6
CONTINUOUS
 62
   56
 10
311.24106449675668
 20
30.117250557737009
 11
310.79106468749154
 21
29.667250510053293
  0
LINE
  8
_0-2_
  6
CONTINUOUS
 62
   56
 10
310.79106468749154
 20
24.567250605420725
 11
310.79106468749154
 21
29.667250510053293
  0
LINE
  8
_0-2_
  6
CONTINUOUS
 62
   56
 10
310.79106468749154
 20
24.567250605420725
 11
311.24106449675668
 21
24.117250557737009
  0
LINE
  8
_0-2_
  6
CONTINUOUS
 62
   56
 10
311.24106449675668
 20
30.117250557737009
 11
311.24106449675668
 21
24.117250557737009
  0
LINE
  8
_0-2_
  6
CONTINUOUS
 62
  152
 10
321.79106468749154
 20
29.667250510053293
 11
310.79106468749154
 21
29.667250510053293
  0
LINE
  8
_0-2_
  6
CONTINUOUS
 62
   56
 10
311.24106449675668
 20
30.117250557737009
 11
321.79106468749154
 21
30.117250557737009
  0
LINE
  8
_0-2_
  6
CONTINUOUS
 62
  152
 10
321.79106468749154
 20
24.567250605420725
 11
310.79106468749154
 21
24.567250605420725
  0
LINE
  8
_0-2_
  6
CONTINUOUS
 62
   56
 10
311.24106449675668
 20
24.117250557737009
 11
321.79106468749154
 21
24.117250557737009
  0
LINE
  8
_0-2_
  6
DASHED2
 62
    9
 10
330.79106468749154
 20
27.117250557737009
 11
330.08395790630499
 21
26.410143776550342
  0
LINE
  8
_0-2_
  6
DASHED2
 62
    9
 10
330.79106468749154
 20
27.117250557737009
 11
330.08395790630499
 21
27.824357338923676
  0
LINE
  8
_0-2_
  6
DASHED2
 62
   56
 10
336.19106478285897
 20
32.117250557737009
 11
330.79106468749154
 21
32.117250557737009
  0
LINE
  8
_0-2_
  6
DASHED2
 62
   56
 10
336.19106478285897
 20
32.117250557737009
 11
336.79106468749154
 21
31.517250653104441
  0
LINE
  8
_0-2_
  6
DASHED2
 62
   56
 10
336.79106468749154
 20
22.717250462369577
 11
336.79106468749154
 21
31.517250653104441
  0
LINE
  8
_0-2_
  6
DASHED2
 62
   56
 10
336.19106478285897
 20
22.117250557737009
 11
330.79106468749154
 21
22.117250557737009
  0
LINE
  8
_0-2_
  6
DASHED2
 62
   56
 10
336.79106468749154
 20
22.717250462369577
 11
336.19106478285897
 21
22.117250557737009
  0
LINE
  8
_0-2_
  6
DASHED2
 62
   56
 10
321.79106468749154
 20
24.117250557737009
 11
330.79106468749154
 21
24.117250557737009
  0
LINE
  8
_0-2_
  6
DASHED2
 62
   56
 10
321.79106468749154
 20
30.117250557737009
 11
330.79106468749154
 21
30.117250557737009
  0
LINE
  8
_0-1_
  6
CENTER1
 62
  152
 10
337.08156102404922
 20
27.117250557737009
 11
310.32688137387856
 21
27.117250557737009
  0
ENDSEC
  0
EOF
