  0
SECTION
  2
HEADER
  9
$ACADVER
  1
AC1009
  9
$INSBASE
 10
0
 20
0
 30
0
  9
$EXTMIN
 10
0
 20
0
  9
$EXTMAX
 10
1189
 20
841
  9
$LIMMIN
 10
0
 20
0
  9
$LIMMAX
 10
1189
 20
841
  9
$LTSCALE
 40
1
  0
ENDSEC
  0
SECTION
  2
TABLES
  0
TABLE
  2
LTYPE
 70
     9
  0
LTYPE
  2
CONTINUOUS
 70
    64
  3
実線
 72
    65
 73
     0
 40
0.0
  0
LTYPE
  2
DASHED1
 70
    64
  3
--  --  --  --  --  --  --  --  
 72
    65
 73
     2
 40
2.5
 49
1.25
 49
-1.25
  0
LTYPE
  2
DASHED2
 70
    64
  3
----    ----    ----    ----    
 72
    65
 73
     2
 40
5.0
 49
2.5
 49
-2.5
  0
LTYPE
  2
DASHED3
 70
    64
  3
------  ------  ------  ------  
 72
    65
 73
     2
 40
5.0
 49
3.75
 49
-1.25
  0
LTYPE
  2
CENTER1
 70
    64
  3
----- - ----- - ----- - ----- - 
 72
    65
 73
     4
 40
10.0
 49
6.25
 49
-1.25
 49
1.25
 49
-1.25
  0
LTYPE
  2
CENTER2
 70
    64
  3
----------  --  ----------  --  
 72
    65
 73
     4
 40
20.0
 49
12.5
 49
-2.5
 49
2.5
 49
-2.5
  0
LTYPE
  2
PHANTOM1
 70
    64
  3
--- - - --- - - --- - - --- - - 
 72
    65
 73
     6
 40
10.0
 49
3.25
 49
-1.25
 49
1.25
 49
-1.25
 49
1.25
 49
-1.25
  0
LTYPE
  2
PHANTOM2
 70
    64
  3
--------  -  -  --------  -  -  
 72
    65
 73
     6
 40
20.0
 49
10.0
 49
-2.5
 49
1.25
 49
-2.5
 49
1.25
 49
-2.5
  0
LTYPE
  2
DOT
 70
    64
  3
-   -   -   -   -   -   -   -   
 72
    65
 73
     2
 40
2.5
 49
0.625
 49
-1.875
  0
LTYPE
  2
DUMMY
 70
    64
  3
ダミー
 72
    65
 73
     0
 40
0.0
  0
LTYPE
  2
RAND1
 70
    64
  3
ランダム線1
 72
    65
 73
     4
 40
10.0
 49
1.0
 49
-2.0
 49
3.0
 49
-4.0
  0
LTYPE
  2
RAND2
 70
    64
  3
ランダム線2
 72
    65
 73
     4
 40
14.0
 49
2.0
 49
-3.0
 49
4.0
 49
-5.0
  0
LTYPE
  2
RAND3
 70
    64
  3
ランダム線3
 72
    65
 73
     4
 40
18.0
 49
3.0
 49
-4.0
 49
5.0
 49
-6.0
  0
LTYPE
  2
RAND4
 70
    64
  3
ランダム線4
 72
    65
 73
     4
 40
22.0
 49
4.0
 49
-5.0
 49
6.0
 49
-7.0
  0
LTYPE
  2
RAND5
 70
    64
  3
ランダム線5
 72
    65
 73
     4
 40
26.0
 49
5.0
 49
-6.0
 49
7.0
 49
-8.0
  0
LTYPE
  2
LONG1
 70
    64
  3
----------  --  ----------  --  
 72
    65
 73
     4
 40
40.0
 49
32.5
 49
-2.5
 49
2.5
 49
-2.5
  0
LTYPE
  2
LONG2
 70
    64
  3
--------  -  -  --------  -  -  
 72
    65
 73
     6
 40
40.0
 49
30.0
 49
-2.5
 49
1.25
 49
-2.5
 49
1.25
 49
-2.5
  0
LTYPE
  2
LONG3
 70
    64
  3
+++++++++++++++..+++++++++++++++
 72
    65
 73
     2
 40
40.0
 49
37.5
 49
-2.5
  0
LTYPE
  2
LONG4
 70
    64
  3
+++++++++++++++..+++++++++++++++
 72
    65
 73
     2
 40
80.0
 49
75.0
 49
-5.0
  0
LTYPE
  2
LONG5
 70
    64
  3
----------  --  ----------  --  
 72
    65
 73
     4
 40
60.0
 49
37.5
 49
-7.5
 49
7.5
 49
-7.5
  0
LTYPE
  2
dashed
 70
   64
  3
-------   -------------   ------
 72
   65
 73
    2
 40
7.5
 49
6
 49
-1.5
  0
LTYPE
  2
dashed_spaced
 70
   64
  3
----        --------        ----
 72
   65
 73
    2
 40
12
 49
6
 49
-6
  0
LTYPE
  2
long_dashed_dotted
 70
   64
  3
------------- --- --------------
 72
   65
 73
    4
 40
15.25
 49
12
 49
-1.5
 49
0.25
 49
-1.5
  0
LTYPE
  2
long_dashed_double-dotted
 70
   64
  3
----------- --- --- ------------
 72
   65
 73
    6
 40
17
 49
12
 49
-1.5
 49
0.25
 49
-1.5
 49
0.25
 49
-1.5
  0
LTYPE
  2
long_dashed_triplicate-dotted
 70
   64
  3
--------- --- --- --- ----------
 72
   65
 73
    8
 40
18.75
 49
12
 49
-1.5
 49
0.25
 49
-1.5
 49
0.25
 49
-1.5
 49
0.25
 49
-1.5
  0
LTYPE
  2
dotted
 70
   64
  3
   -       -       -       -    
 72
   65
 73
    2
 40
1.75
 49
0.25
 49
-1.5
  0
LTYPE
  2
chain
 70
   64
  3
-------------- -- --------------
 72
   65
 73
    4
 40
18.5
 49
12
 49
-1.5
 49
3.5
 49
-1.5
  0
LTYPE
  2
chain_double_dash
 70
   64
  3
------------ -- -- -------------
 72
   65
 73
    6
 40
23.5
 49
12
 49
-1.5
 49
3.5
 49
-1.5
 49
3.5
 49
-1.5
  0
LTYPE
  2
dashed_dotted
 70
   64
  3
-----------     -     ----------
 72
   65
 73
    4
 40
9.25
 49
6
 49
-1.5
 49
0.25
 49
-1.5
  0
LTYPE
  2
double-dashed_dotted
 70
   64
  3
------   -----------   -   -----
 72
   65
 73
    6
 40
16.75
 49
6
 49
-1.5
 49
6
 49
-1.5
 49
0.25
 49
-1.5
  0
LTYPE
  2
dashed_double-dotted
 70
   64
  3
---------    -    -    ---------
 72
   65
 73
    6
 40
11
 49
6
 49
-1.5
 49
0.25
 49
-1.5
 49
0.25
 49
-1.5
  0
LTYPE
  2
double-dashed_double-dotted
 70
   64
  3
-----   ---------   -   -   ----
 72
   65
 73
    8
 40
18.5
 49
6
 49
-1.5
 49
6
 49
-1.5
 49
0.25
 49
-1.5
 49
0.25
 49
-1.5
  0
LTYPE
  2
dashed_triplicate-dotted
 70
   64
  3
-------    -    -    -    ------
 72
   65
 73
    8
 40
12.75
 49
6
 49
-1.5
 49
0.25
 49
-1.5
 49
0.25
 49
-1.5
 49
0.25
 49
-1.5
  0
LTYPE
  2
double-dashed_triplicate-dotted
 70
   64
  3
-----  ---------  -  -  -  -----
 72
   65
 73
   10
 40
20.25
 49
6
 49
-1.5
 49
6
 49
-1.5
 49
0.25
 49
-1.5
 49
0.25
 49
-1.5
 49
0.25
 49
-1.5
  0
LTYPE
  2
undefined
 70
   64
  3
--------------------------------
 72
   65
 73
    0
 40
0
  0
ENDTAB
  0
TABLE
  2
STYLE
  5
3
100
AcDbSymbolTable
 70
     1
  0
STYLE
  5
10
100
AcDbSymbolTableRecord
100
AcDbTextStyleTableRecord
  2
STANDARD
 70
     0
 40
0.0
 41
1.0
 50
0.0
 71
     0
 42
0.2
  3
txt
  4
bigfont.shx
  0
STYLE
  5
26
100
AcDbSymbolTableRecord
100
AcDbTextStyleTableRecord
  2
TATEGAKI
 70
    68
 40
0.0
 41
1.0
 50
0.0
 71
     0
 42
1.0
  3
txt
  4
bigfont.shx
  0
ENDTAB
  0
TABLE
  2
LAYER
 70
    4
  0
LAYER
  2
_0-0_
 70
   64
 62
    7
  6
CONTINUOUS
  0
LAYER
  2
_0-1_
 70
   64
 62
    7
  6
CONTINUOUS
  0
LAYER
  2
_0-f_
 70
   64
 62
    7
  6
CONTINUOUS
  0
LAYER
  2
ADD_LINE
 70
   64
 62
    7
  6
CONTINUOUS
  0
ENDTAB
  0
ENDSEC
  0
SECTION
  2
BLOCKS
  0
ENDSEC
  0
SECTION
  2
ENTITIES
  0
TEXT
  8
_0-f_
 62
    7
 10
0.4188446677267165
 20
0.6174568328308396
 40
4.2999999999999998
 41
0.744186046511628
 50
0
  1
BE30E
  0
LINE
  8
_0-0_
  6
CONTINUOUS
 62
    7
 10
59.090399677254936
 20
33.727652185465104
 11
59.090399677254936
 21
6.5862237569222088
  0
LINE
  8
_0-0_
  6
CONTINUOUS
 62
    7
 10
52.090399677254936
 20
33.727652185465104
 11
52.090399677254936
 21
6.5862237569222088
  0
LINE
  8
_0-0_
  6
CONTINUOUS
 62
    7
 10
70.090399677254936
 20
22.70693792350994
 11
69.6403998679898
 21
23.156937971193656
  0
LINE
  8
_0-0_
  6
CONTINUOUS
 62
    7
 10
69.6403998679898
 20
17.156937971193656
 11
70.090399677254936
 21
17.606938018877372
  0
LINE
  8
_0-0_
  6
CONTINUOUS
 62
    7
 10
70.090399677254936
 20
17.606938018877372
 11
70.090399677254936
 21
22.70693792350994
  0
LINE
  8
_0-0_
  6
CONTINUOUS
 62
    7
 10
62.090399677254936
 20
23.156937971193656
 11
69.6403998679898
 21
23.156937971193656
  0
LINE
  8
_0-0_
  6
CONTINUOUS
 62
    7
 10
62.090399677254936
 20
17.156937971193656
 11
69.6403998679898
 21
17.156937971193656
  0
LINE
  8
_0-0_
  6
CONTINUOUS
 62
    7
 10
62.090399677254936
 20
15.406937971193656
 11
62.090399677254936
 21
24.906937971193656
  0
LINE
  8
_0-0_
  6
CONTINUOUS
 62
    7
 10
62.090399677254936
 20
24.906937971193656
 11
59.090399677254936
 21
24.906937971193656
  0
LINE
  8
_0-0_
  6
CONTINUOUS
 62
    7
 10
59.090399677254936
 20
15.406937971193656
 11
62.090399677254936
 21
15.406937971193656
  0
LINE
  8
_0-0_
  6
CONTINUOUS
 62
    7
 10
14.324189738375026
 20
20.656937971193656
 11
15.324189738375026
 21
20.656937971193656
  0
LINE
  8
_0-0_
  6
CONTINUOUS
 62
    7
 10
14.324189738375026
 20
20.656937971193656
 11
14.324189738375026
 21
19.656937971193656
  0
LINE
  8
_0-0_
  6
CONTINUOUS
 62
    7
 10
14.324189738375026
 20
19.656937971193656
 11
15.324189738375026
 21
19.656937971193656
  0
LINE
  8
_0-0_
  6
CONTINUOUS
 62
    7
 10
16.324189738375026
 20
18.656937971193656
 11
16.324189738375026
 21
17.656937971193656
  0
LINE
  8
_0-0_
  6
CONTINUOUS
 62
    7
 10
16.324189738375026
 20
17.656937971193656
 11
17.324189738375026
 21
17.656937971193656
  0
LINE
  8
_0-0_
  6
CONTINUOUS
 62
    7
 10
17.324189738375026
 20
17.656937971193656
 11
17.324189738375026
 21
18.656937971193656
  0
LINE
  8
_0-0_
  6
CONTINUOUS
 62
    7
 10
18.324189738375026
 20
19.656937971193656
 11
19.324189738375026
 21
19.656937971193656
  0
LINE
  8
_0-0_
  6
CONTINUOUS
 62
    7
 10
19.324189738375026
 20
19.656937971193656
 11
19.324189738375026
 21
20.656937971193656
  0
LINE
  8
_0-0_
  6
CONTINUOUS
 62
    7
 10
19.324189738375026
 20
20.656937971193656
 11
18.324189738375026
 21
20.656937971193656
  0
LINE
  8
_0-0_
  6
CONTINUOUS
 62
    7
 10
17.324189738375026
 20
21.656937971193656
 11
17.324189738375026
 21
22.656937971193656
  0
LINE
  8
_0-0_
  6
CONTINUOUS
 62
    7
 10
17.324189738375026
 20
22.656937971193656
 11
16.324189738375026
 21
22.656937971193656
  0
LINE
  8
_0-0_
  6
CONTINUOUS
 62
    7
 10
16.324189738375026
 20
22.656937971193656
 11
16.324189738375026
 21
21.656937971193656
  0
ARC
  8
_0-0_
  6
CONTINUOUS
 62
    7
 10
55.590399677254936
 20
10.156937971193656
 40
5
 50
225.57299599919432
 51
314.42700400080571
  0
ARC
  8
_0-0_
  6
CONTINUOUS
 62
    7
 10
55.590399677254936
 20
30.156937971193656
 40
5
 50
45.572995999194298
 51
134.42700400080568
  0
CIRCLE
  8
_0-0_
  6
CONTINUOUS
 62
    7
 10
16.824189738375026
 20
20.156937971193656
 40
15
  0
CIRCLE
  8
_0-0_
  6
CONTINUOUS
 62
    7
 10
16.824189738375026
 20
20.156937971193656
 40
5
  0
ARC
  8
_0-0_
  6
CONTINUOUS
 62
    7
 10
18.324189738375026
 20
21.656937971193656
 40
1
 50
180
 51
270
  0
ARC
  8
_0-0_
  6
CONTINUOUS
 62
    7
 10
18.324189738375026
 20
18.656937971193656
 40
1
 50
90
 51
180
  0
ARC
  8
_0-0_
  6
CONTINUOUS
 62
    7
 10
15.324189738375026
 20
18.656937971193656
 40
1
 50
0
 51
90
  0
ARC
  8
_0-0_
  6
CONTINUOUS
 62
    7
 10
15.324189738375026
 20
21.656937971193656
 40
1
 50
270
 51
0
  0
LINE
  8
_0-1_
  6
CENTER1
 62
  152
 10
16.824189738375026
 20
35.156937971193656
 11
16.824189738375026
 21
5.15693797119377
  0
LINE
  8
_0-1_
  6
CENTER1
 62
  152
 10
31.824189738375026
 20
20.156937971193656
 11
1.8241897383750256
 21
20.156937971193656
  0
LINE
  8
_0-1_
  6
CENTER1
 62
  152
 10
55.590399677254936
 20
5.15693797119377
 11
55.590399677254936
 21
35.156937971193656
  0
LINE
  8
_0-1_
  6
CENTER1
 62
  152
 10
52.090399677254936
 20
20.156937971193656
 11
70.090399677254936
 21
20.156937971193656
  0
LINE
  8
_0-1_
  6
CONTINUOUS
 62
  152
 10
70.090399677254936
 20
22.70693792350994
 11
62.090399677254936
 21
22.70693792350994
  0
LINE
  8
_0-1_
  6
CONTINUOUS
 62
  152
 10
70.090399677254936
 20
17.606938018877372
 11
62.090399677254936
 21
17.606938018877372
  0
LINE
  8
_0-1_
  6
CONTINUOUS
 62
  152
 10
69.6403998679898
 20
23.156937971193656
 11
69.6403998679898
 21
17.156937971193656
  0
ENDSEC
  0
EOF
