  0
SECTION
  2
HEADER
  9
$ACADVER
  1
AC1009
  9
$INSBASE
 10
0
 20
0
 30
0
  9
$EXTMIN
 10
0
 20
0
  9
$EXTMAX
 10
1189
 20
841
  9
$LIMMIN
 10
0
 20
0
  9
$LIMMAX
 10
1189
 20
841
  9
$LTSCALE
 40
1
  0
ENDSEC
  0
SECTION
  2
TABLES
  0
TABLE
  2
LTYPE
 70
     9
  0
LTYPE
  2
CONTINUOUS
 70
    64
  3
実線
 72
    65
 73
     0
 40
0.0
  0
LTYPE
  2
DASHED1
 70
    64
  3
--  --  --  --  --  --  --  --  
 72
    65
 73
     2
 40
2.5
 49
1.25
 49
-1.25
  0
LTYPE
  2
DASHED2
 70
    64
  3
----    ----    ----    ----    
 72
    65
 73
     2
 40
5.0
 49
2.5
 49
-2.5
  0
LTYPE
  2
DASHED3
 70
    64
  3
------  ------  ------  ------  
 72
    65
 73
     2
 40
5.0
 49
3.75
 49
-1.25
  0
LTYPE
  2
CENTER1
 70
    64
  3
----- - ----- - ----- - ----- - 
 72
    65
 73
     4
 40
10.0
 49
6.25
 49
-1.25
 49
1.25
 49
-1.25
  0
LTYPE
  2
CENTER2
 70
    64
  3
----------  --  ----------  --  
 72
    65
 73
     4
 40
20.0
 49
12.5
 49
-2.5
 49
2.5
 49
-2.5
  0
LTYPE
  2
PHANTOM1
 70
    64
  3
--- - - --- - - --- - - --- - - 
 72
    65
 73
     6
 40
10.0
 49
3.25
 49
-1.25
 49
1.25
 49
-1.25
 49
1.25
 49
-1.25
  0
LTYPE
  2
PHANTOM2
 70
    64
  3
--------  -  -  --------  -  -  
 72
    65
 73
     6
 40
20.0
 49
10.0
 49
-2.5
 49
1.25
 49
-2.5
 49
1.25
 49
-2.5
  0
LTYPE
  2
DOT
 70
    64
  3
-   -   -   -   -   -   -   -   
 72
    65
 73
     2
 40
2.5
 49
0.625
 49
-1.875
  0
LTYPE
  2
DUMMY
 70
    64
  3
ダミー
 72
    65
 73
     0
 40
0.0
  0
LTYPE
  2
RAND1
 70
    64
  3
ランダム線1
 72
    65
 73
     4
 40
10.0
 49
1.0
 49
-2.0
 49
3.0
 49
-4.0
  0
LTYPE
  2
RAND2
 70
    64
  3
ランダム線2
 72
    65
 73
     4
 40
14.0
 49
2.0
 49
-3.0
 49
4.0
 49
-5.0
  0
LTYPE
  2
RAND3
 70
    64
  3
ランダム線3
 72
    65
 73
     4
 40
18.0
 49
3.0
 49
-4.0
 49
5.0
 49
-6.0
  0
LTYPE
  2
RAND4
 70
    64
  3
ランダム線4
 72
    65
 73
     4
 40
22.0
 49
4.0
 49
-5.0
 49
6.0
 49
-7.0
  0
LTYPE
  2
RAND5
 70
    64
  3
ランダム線5
 72
    65
 73
     4
 40
26.0
 49
5.0
 49
-6.0
 49
7.0
 49
-8.0
  0
LTYPE
  2
LONG1
 70
    64
  3
----------  --  ----------  --  
 72
    65
 73
     4
 40
40.0
 49
32.5
 49
-2.5
 49
2.5
 49
-2.5
  0
LTYPE
  2
LONG2
 70
    64
  3
--------  -  -  --------  -  -  
 72
    65
 73
     6
 40
40.0
 49
30.0
 49
-2.5
 49
1.25
 49
-2.5
 49
1.25
 49
-2.5
  0
LTYPE
  2
LONG3
 70
    64
  3
+++++++++++++++..+++++++++++++++
 72
    65
 73
     2
 40
40.0
 49
37.5
 49
-2.5
  0
LTYPE
  2
LONG4
 70
    64
  3
+++++++++++++++..+++++++++++++++
 72
    65
 73
     2
 40
80.0
 49
75.0
 49
-5.0
  0
LTYPE
  2
LONG5
 70
    64
  3
----------  --  ----------  --  
 72
    65
 73
     4
 40
60.0
 49
37.5
 49
-7.5
 49
7.5
 49
-7.5
  0
LTYPE
  2
dashed
 70
   64
  3
-------   -------------   ------
 72
   65
 73
    2
 40
7.5
 49
6
 49
-1.5
  0
LTYPE
  2
dashed_spaced
 70
   64
  3
----        --------        ----
 72
   65
 73
    2
 40
12
 49
6
 49
-6
  0
LTYPE
  2
long_dashed_dotted
 70
   64
  3
------------- --- --------------
 72
   65
 73
    4
 40
15.25
 49
12
 49
-1.5
 49
0.25
 49
-1.5
  0
LTYPE
  2
long_dashed_double-dotted
 70
   64
  3
----------- --- --- ------------
 72
   65
 73
    6
 40
17
 49
12
 49
-1.5
 49
0.25
 49
-1.5
 49
0.25
 49
-1.5
  0
LTYPE
  2
long_dashed_triplicate-dotted
 70
   64
  3
--------- --- --- --- ----------
 72
   65
 73
    8
 40
18.75
 49
12
 49
-1.5
 49
0.25
 49
-1.5
 49
0.25
 49
-1.5
 49
0.25
 49
-1.5
  0
LTYPE
  2
dotted
 70
   64
  3
   -       -       -       -    
 72
   65
 73
    2
 40
1.75
 49
0.25
 49
-1.5
  0
LTYPE
  2
chain
 70
   64
  3
-------------- -- --------------
 72
   65
 73
    4
 40
18.5
 49
12
 49
-1.5
 49
3.5
 49
-1.5
  0
LTYPE
  2
chain_double_dash
 70
   64
  3
------------ -- -- -------------
 72
   65
 73
    6
 40
23.5
 49
12
 49
-1.5
 49
3.5
 49
-1.5
 49
3.5
 49
-1.5
  0
LTYPE
  2
dashed_dotted
 70
   64
  3
-----------     -     ----------
 72
   65
 73
    4
 40
9.25
 49
6
 49
-1.5
 49
0.25
 49
-1.5
  0
LTYPE
  2
double-dashed_dotted
 70
   64
  3
------   -----------   -   -----
 72
   65
 73
    6
 40
16.75
 49
6
 49
-1.5
 49
6
 49
-1.5
 49
0.25
 49
-1.5
  0
LTYPE
  2
dashed_double-dotted
 70
   64
  3
---------    -    -    ---------
 72
   65
 73
    6
 40
11
 49
6
 49
-1.5
 49
0.25
 49
-1.5
 49
0.25
 49
-1.5
  0
LTYPE
  2
double-dashed_double-dotted
 70
   64
  3
-----   ---------   -   -   ----
 72
   65
 73
    8
 40
18.5
 49
6
 49
-1.5
 49
6
 49
-1.5
 49
0.25
 49
-1.5
 49
0.25
 49
-1.5
  0
LTYPE
  2
dashed_triplicate-dotted
 70
   64
  3
-------    -    -    -    ------
 72
   65
 73
    8
 40
12.75
 49
6
 49
-1.5
 49
0.25
 49
-1.5
 49
0.25
 49
-1.5
 49
0.25
 49
-1.5
  0
LTYPE
  2
double-dashed_triplicate-dotted
 70
   64
  3
-----  ---------  -  -  -  -----
 72
   65
 73
   10
 40
20.25
 49
6
 49
-1.5
 49
6
 49
-1.5
 49
0.25
 49
-1.5
 49
0.25
 49
-1.5
 49
0.25
 49
-1.5
  0
LTYPE
  2
undefined
 70
   64
  3
--------------------------------
 72
   65
 73
    0
 40
0
  0
ENDTAB
  0
TABLE
  2
STYLE
  5
3
100
AcDbSymbolTable
 70
     1
  0
STYLE
  5
10
100
AcDbSymbolTableRecord
100
AcDbTextStyleTableRecord
  2
STANDARD
 70
     0
 40
0.0
 41
1.0
 50
0.0
 71
     0
 42
0.2
  3
txt
  4
bigfont.shx
  0
STYLE
  5
26
100
AcDbSymbolTableRecord
100
AcDbTextStyleTableRecord
  2
TATEGAKI
 70
    68
 40
0.0
 41
1.0
 50
0.0
 71
     0
 42
1.0
  3
txt
  4
bigfont.shx
  0
ENDTAB
  0
TABLE
  2
LAYER
 70
    4
  0
LAYER
  2
_0-0_
 70
   64
 62
    7
  6
CONTINUOUS
  0
LAYER
  2
_0-1_
 70
   64
 62
    7
  6
CONTINUOUS
  0
LAYER
  2
_0-f_
 70
   64
 62
    7
  6
CONTINUOUS
  0
LAYER
  2
ADD_LINE
 70
   64
 62
    7
  6
CONTINUOUS
  0
ENDTAB
  0
ENDSEC
  0
SECTION
  2
BLOCKS
  0
ENDSEC
  0
SECTION
  2
ENTITIES
  0
TEXT
  8
_0-f_
 62
    7
 10
0.6484076767916349
 20
0.645450336949068
 40
4.2999999999999998
 41
0.744186046511628
 50
0
  1
BE30
  0
LINE
  8
_0-0_
  6
CONTINUOUS
 62
    7
 10
16.520153236394208
 20
16.546987806404388
 11
19.020153236394208
 21
17.990363513077057
  0
LINE
  8
_0-0_
  6
CONTINUOUS
 62
    7
 10
19.020153236394208
 20
17.990363513077057
 11
19.020153236394208
 21
20.877114926422394
  0
LINE
  8
_0-0_
  6
CONTINUOUS
 62
    7
 10
19.020153236394208
 20
20.877114926422394
 11
16.520153236394208
 21
22.320490633095062
  0
LINE
  8
_0-0_
  6
CONTINUOUS
 62
    7
 10
16.520153236394208
 20
22.320490633095062
 11
14.020153236394208
 21
20.877114926422394
  0
LINE
  8
_0-0_
  6
CONTINUOUS
 62
    7
 10
14.020153236394208
 20
20.877114926422394
 11
14.020153236394208
 21
17.990363513077057
  0
LINE
  8
_0-0_
  6
CONTINUOUS
 62
    7
 10
14.020153236394208
 20
17.990363513077057
 11
16.520153236394208
 21
16.546987806404388
  0
LINE
  8
_0-0_
  6
CONTINUOUS
 62
    7
 10
65.020153236394208
 20
21.633739219749543
 11
65.020153236394208
 21
17.233739219749452
  0
LINE
  8
_0-0_
  6
CONTINUOUS
 62
    7
 10
65.020153236394208
 20
17.233739219749452
 11
64.220153236394026
 21
16.433739219749725
  0
LINE
  8
_0-0_
  6
CONTINUOUS
 62
    7
 10
64.220153236394026
 20
22.433739219749725
 11
57.020153236394208
 21
22.433739219749725
  0
LINE
  8
_0-0_
  6
CONTINUOUS
 62
    7
 10
65.020153236394208
 20
21.633739219749543
 11
64.220153236394026
 21
22.433739219749725
  0
LINE
  8
_0-0_
  6
CONTINUOUS
 62
    7
 10
64.220153236394026
 20
16.433739219749725
 11
57.020153236394208
 21
16.433739219749725
  0
LINE
  8
_0-0_
  6
CONTINUOUS
 62
    7
 10
57.020153236394208
 20
23.433739219749725
 11
57.020153236394208
 21
15.433739219749725
  0
LINE
  8
_0-0_
  6
CONTINUOUS
 62
    7
 10
57.020153236394208
 20
15.433739219749725
 11
56.020153236394208
 21
15.433739219749725
  0
LINE
  8
_0-0_
  6
CONTINUOUS
 62
    7
 10
56.020153236394208
 20
23.433739219749725
 11
57.020153236394208
 21
23.433739219749725
  0
LINE
  8
_0-0_
  6
CONTINUOUS
 62
    7
 10
56.020153236394208
 20
31.613188691519838
 11
56.020153236394208
 21
7.2542897479796125
  0
LINE
  8
_0-0_
  6
CONTINUOUS
 62
    7
 10
47.020153236394208
 20
31.613188691519838
 11
47.020153236394208
 21
7.2542897479796125
  0
CIRCLE
  8
_0-0_
  6
CONTINUOUS
 62
    7
 10
16.520153236394208
 20
19.433739219749725
 40
5
  0
ARC
  8
_0-0_
  6
CONTINUOUS
 62
    7
 10
51.520153236394208
 20
29.433739219749725
 40
5
 50
25.841932763167136
 51
154.15806723683284
  0
ARC
  8
_0-0_
  6
CONTINUOUS
 62
    7
 10
51.520153236394208
 20
9.4337392197497252
 40
5
 50
205.84193276316714
 51
334.15806723683284
  0
CIRCLE
  8
_0-0_
  6
CONTINUOUS
 62
    7
 10
16.520153236394208
 20
19.433739219749725
 40
15
  0
CIRCLE
  8
_0-0_
  6
CONTINUOUS
 62
    7
 10
16.520153236394208
 20
19.433739219749725
 40
9
  0
LINE
  8
_0-1_
  6
CENTER1
 62
  152
 10
16.520153236394208
 20
34.433739219749725
 11
16.520153236394208
 21
4.4337392197497252
  0
LINE
  8
_0-1_
  6
CENTER1
 62
  152
 10
31.520153236394208
 20
19.433739219749725
 11
1.5201532363942079
 21
19.433739219749725
  0
LINE
  8
_0-1_
  6
CENTER1
 62
  152
 10
47.020153236394208
 20
19.433739219749725
 11
65.020153236394208
 21
19.433739219749725
  0
LINE
  8
_0-1_
  6
CONTINUOUS
 62
  152
 10
57.020153236394208
 20
22.433739219749725
 11
57.48203345174602
 21
21.633739219749543
  0
LINE
  8
_0-1_
  6
CONTINUOUS
 62
  152
 10
57.020153236394208
 20
16.433739219749725
 11
57.447113987150033
 21
17.173256932895868
  0
LINE
  8
_0-1_
  6
CONTINUOUS
 62
  152
 10
57.48203345174602
 20
16.433739219749725
 11
57.48203345174602
 21
22.433739219749725
  0
LINE
  8
_0-1_
  6
CENTER1
 62
  152
 10
51.520153236394208
 20
4.4337392197497252
 11
51.520153236394208
 21
34.433739219749725
  0
LINE
  8
_0-1_
  6
CONTINUOUS
 62
  152
 10
57.447113987150033
 20
17.173256932895868
 11
64.959670949540623
 21
17.173256932895868
  0
LINE
  8
_0-1_
  6
CONTINUOUS
 62
  152
 10
57.48203345174602
 20
21.633739219749543
 11
65.020153236394208
 21
21.633739219749543
  0
LINE
  8
_0-1_
  6
CONTINUOUS
 62
  152
 10
64.220153236394026
 20
16.433739219749725
 11
64.220153236394026
 21
22.433739219749725
  0
ENDSEC
  0
EOF
