  0
SECTION
  2
HEADER
  9
$ACADVER
  1
AC1009
  9
$INSBASE
 10
0
 20
0
 30
0
  9
$EXTMIN
 10
0
 20
0
  9
$EXTMAX
 10
1189
 20
841
  9
$LIMMIN
 10
0
 20
0
  9
$LIMMAX
 10
1189
 20
841
  9
$LTSCALE
 40
1
  0
ENDSEC
  0
SECTION
  2
TABLES
  0
TABLE
  2
LTYPE
 70
     9
  0
LTYPE
  2
CONTINUOUS
 70
    64
  3
実線
 72
    65
 73
     0
 40
0.0
  0
LTYPE
  2
DASHED1
 70
    64
  3
--  --  --  --  --  --  --  --  
 72
    65
 73
     2
 40
2.5
 49
1.25
 49
-1.25
  0
LTYPE
  2
DASHED2
 70
    64
  3
----    ----    ----    ----    
 72
    65
 73
     2
 40
5.0
 49
2.5
 49
-2.5
  0
LTYPE
  2
DASHED3
 70
    64
  3
------  ------  ------  ------  
 72
    65
 73
     2
 40
5.0
 49
3.75
 49
-1.25
  0
LTYPE
  2
CENTER1
 70
    64
  3
----- - ----- - ----- - ----- - 
 72
    65
 73
     4
 40
10.0
 49
6.25
 49
-1.25
 49
1.25
 49
-1.25
  0
LTYPE
  2
CENTER2
 70
    64
  3
----------  --  ----------  --  
 72
    65
 73
     4
 40
20.0
 49
12.5
 49
-2.5
 49
2.5
 49
-2.5
  0
LTYPE
  2
PHANTOM1
 70
    64
  3
--- - - --- - - --- - - --- - - 
 72
    65
 73
     6
 40
10.0
 49
3.25
 49
-1.25
 49
1.25
 49
-1.25
 49
1.25
 49
-1.25
  0
LTYPE
  2
PHANTOM2
 70
    64
  3
--------  -  -  --------  -  -  
 72
    65
 73
     6
 40
20.0
 49
10.0
 49
-2.5
 49
1.25
 49
-2.5
 49
1.25
 49
-2.5
  0
LTYPE
  2
DOT
 70
    64
  3
-   -   -   -   -   -   -   -   
 72
    65
 73
     2
 40
2.5
 49
0.625
 49
-1.875
  0
LTYPE
  2
DUMMY
 70
    64
  3
ダミー
 72
    65
 73
     0
 40
0.0
  0
LTYPE
  2
RAND1
 70
    64
  3
ランダム線1
 72
    65
 73
     4
 40
10.0
 49
1.0
 49
-2.0
 49
3.0
 49
-4.0
  0
LTYPE
  2
RAND2
 70
    64
  3
ランダム線2
 72
    65
 73
     4
 40
14.0
 49
2.0
 49
-3.0
 49
4.0
 49
-5.0
  0
LTYPE
  2
RAND3
 70
    64
  3
ランダム線3
 72
    65
 73
     4
 40
18.0
 49
3.0
 49
-4.0
 49
5.0
 49
-6.0
  0
LTYPE
  2
RAND4
 70
    64
  3
ランダム線4
 72
    65
 73
     4
 40
22.0
 49
4.0
 49
-5.0
 49
6.0
 49
-7.0
  0
LTYPE
  2
RAND5
 70
    64
  3
ランダム線5
 72
    65
 73
     4
 40
26.0
 49
5.0
 49
-6.0
 49
7.0
 49
-8.0
  0
LTYPE
  2
LONG1
 70
    64
  3
----------  --  ----------  --  
 72
    65
 73
     4
 40
40.0
 49
32.5
 49
-2.5
 49
2.5
 49
-2.5
  0
LTYPE
  2
LONG2
 70
    64
  3
--------  -  -  --------  -  -  
 72
    65
 73
     6
 40
40.0
 49
30.0
 49
-2.5
 49
1.25
 49
-2.5
 49
1.25
 49
-2.5
  0
LTYPE
  2
LONG3
 70
    64
  3
+++++++++++++++..+++++++++++++++
 72
    65
 73
     2
 40
40.0
 49
37.5
 49
-2.5
  0
LTYPE
  2
LONG4
 70
    64
  3
+++++++++++++++..+++++++++++++++
 72
    65
 73
     2
 40
80.0
 49
75.0
 49
-5.0
  0
LTYPE
  2
LONG5
 70
    64
  3
----------  --  ----------  --  
 72
    65
 73
     4
 40
60.0
 49
37.5
 49
-7.5
 49
7.5
 49
-7.5
  0
LTYPE
  2
dashed
 70
   64
  3
-------   -------------   ------
 72
   65
 73
    2
 40
7.5
 49
6
 49
-1.5
  0
LTYPE
  2
dashed_spaced
 70
   64
  3
----        --------        ----
 72
   65
 73
    2
 40
12
 49
6
 49
-6
  0
LTYPE
  2
long_dashed_dotted
 70
   64
  3
------------- --- --------------
 72
   65
 73
    4
 40
15.25
 49
12
 49
-1.5
 49
0.25
 49
-1.5
  0
LTYPE
  2
long_dashed_double-dotted
 70
   64
  3
----------- --- --- ------------
 72
   65
 73
    6
 40
17
 49
12
 49
-1.5
 49
0.25
 49
-1.5
 49
0.25
 49
-1.5
  0
LTYPE
  2
long_dashed_triplicate-dotted
 70
   64
  3
--------- --- --- --- ----------
 72
   65
 73
    8
 40
18.75
 49
12
 49
-1.5
 49
0.25
 49
-1.5
 49
0.25
 49
-1.5
 49
0.25
 49
-1.5
  0
LTYPE
  2
dotted
 70
   64
  3
   -       -       -       -    
 72
   65
 73
    2
 40
1.75
 49
0.25
 49
-1.5
  0
LTYPE
  2
chain
 70
   64
  3
-------------- -- --------------
 72
   65
 73
    4
 40
18.5
 49
12
 49
-1.5
 49
3.5
 49
-1.5
  0
LTYPE
  2
chain_double_dash
 70
   64
  3
------------ -- -- -------------
 72
   65
 73
    6
 40
23.5
 49
12
 49
-1.5
 49
3.5
 49
-1.5
 49
3.5
 49
-1.5
  0
LTYPE
  2
dashed_dotted
 70
   64
  3
-----------     -     ----------
 72
   65
 73
    4
 40
9.25
 49
6
 49
-1.5
 49
0.25
 49
-1.5
  0
LTYPE
  2
double-dashed_dotted
 70
   64
  3
------   -----------   -   -----
 72
   65
 73
    6
 40
16.75
 49
6
 49
-1.5
 49
6
 49
-1.5
 49
0.25
 49
-1.5
  0
LTYPE
  2
dashed_double-dotted
 70
   64
  3
---------    -    -    ---------
 72
   65
 73
    6
 40
11
 49
6
 49
-1.5
 49
0.25
 49
-1.5
 49
0.25
 49
-1.5
  0
LTYPE
  2
double-dashed_double-dotted
 70
   64
  3
-----   ---------   -   -   ----
 72
   65
 73
    8
 40
18.5
 49
6
 49
-1.5
 49
6
 49
-1.5
 49
0.25
 49
-1.5
 49
0.25
 49
-1.5
  0
LTYPE
  2
dashed_triplicate-dotted
 70
   64
  3
-------    -    -    -    ------
 72
   65
 73
    8
 40
12.75
 49
6
 49
-1.5
 49
0.25
 49
-1.5
 49
0.25
 49
-1.5
 49
0.25
 49
-1.5
  0
LTYPE
  2
double-dashed_triplicate-dotted
 70
   64
  3
-----  ---------  -  -  -  -----
 72
   65
 73
   10
 40
20.25
 49
6
 49
-1.5
 49
6
 49
-1.5
 49
0.25
 49
-1.5
 49
0.25
 49
-1.5
 49
0.25
 49
-1.5
  0
LTYPE
  2
undefined
 70
   64
  3
--------------------------------
 72
   65
 73
    0
 40
0
  0
ENDTAB
  0
TABLE
  2
STYLE
  5
3
100
AcDbSymbolTable
 70
     1
  0
STYLE
  5
10
100
AcDbSymbolTableRecord
100
AcDbTextStyleTableRecord
  2
STANDARD
 70
     0
 40
0.0
 41
1.0
 50
0.0
 71
     0
 42
0.2
  3
txt
  4
bigfont.shx
  0
STYLE
  5
26
100
AcDbSymbolTableRecord
100
AcDbTextStyleTableRecord
  2
TATEGAKI
 70
    68
 40
0.0
 41
1.0
 50
0.0
 71
     0
 42
1.0
  3
txt
  4
bigfont.shx
  0
ENDTAB
  0
TABLE
  2
LAYER
 70
    4
  0
LAYER
  2
_0-0_
 70
   64
 62
    7
  6
CONTINUOUS
  0
LAYER
  2
_0-1_
 70
   64
 62
    7
  6
CONTINUOUS
  0
LAYER
  2
_0-f_
 70
   64
 62
    7
  6
CONTINUOUS
  0
LAYER
  2
ADD_LINE
 70
   64
 62
    7
  6
CONTINUOUS
  0
ENDTAB
  0
ENDSEC
  0
SECTION
  2
BLOCKS
  0
ENDSEC
  0
SECTION
  2
ENTITIES
  0
TEXT
  8
_0-f_
 62
    7
 10
0.5549061179769978
 20
0.4673172540554446
 40
4.2999999999999998
 41
0.744186046511628
 50
0
  1
BE19E
  0
LINE
  8
_0-0_
  6
CONTINUOUS
 62
    7
 10
11.583038954172366
 20
17.549561172106621
 11
11.583038954172366
 21
16.669561176874993
  0
LINE
  8
_0-0_
  6
CONTINUOUS
 62
    7
 10
11.583038954172366
 20
17.549561172106621
 11
12.463038949403995
 21
17.549561172106621
  0
LINE
  8
_0-0_
  6
CONTINUOUS
 62
    7
 10
12.463038949403995
 20
17.549561172106621
 11
12.463038949403995
 21
16.669561176874993
  0
LINE
  8
_0-0_
  6
CONTINUOUS
 62
    7
 10
13.343039004240268
 20
15.78956112203872
 11
14.223038999471896
 21
15.78956112203872
  0
LINE
  8
_0-0_
  6
CONTINUOUS
 62
    7
 10
14.223038999471896
 20
15.78956112203872
 11
14.223038999471896
 21
14.909561126807091
  0
LINE
  8
_0-0_
  6
CONTINUOUS
 62
    7
 10
14.223038999471896
 20
14.909561126807091
 11
13.343039004240268
 21
14.909561126807091
  0
LINE
  8
_0-0_
  6
CONTINUOUS
 62
    7
 10
12.463038949403995
 20
14.029561071970818
 11
12.463038949403995
 21
13.14956107673919
  0
LINE
  8
_0-0_
  6
CONTINUOUS
 62
    7
 10
12.463038949403995
 20
13.14956107673919
 11
11.583038954172366
 21
13.14956107673919
  0
LINE
  8
_0-0_
  6
CONTINUOUS
 62
    7
 10
11.583038954172366
 20
13.14956107673919
 11
11.583038954172366
 21
14.029561071970818
  0
LINE
  8
_0-0_
  6
CONTINUOUS
 62
    7
 10
10.703038899336093
 20
14.909561126807091
 11
9.8230389041044646
 21
14.909561126807091
  0
LINE
  8
_0-0_
  6
CONTINUOUS
 62
    7
 10
9.8230389041044646
 20
14.909561126807091
 11
9.8230389041044646
 21
15.78956112203872
  0
LINE
  8
_0-0_
  6
CONTINUOUS
 62
    7
 10
9.8230389041044646
 20
15.78956112203872
 11
10.703038899336093
 21
15.78956112203872
  0
LINE
  8
_0-0_
  6
CONTINUOUS
 62
    7
 10
35.351746752828944
 20
23.849561124422905
 11
35.351746752828944
 21
6.8495611244229053
  0
LINE
  8
_0-0_
  6
CONTINUOUS
 62
    7
 10
41.351746752828944
 20
6.8495611244229053
 11
41.351746752828944
 21
23.849561124422905
  0
LINE
  8
_0-0_
  6
CONTINUOUS
 62
    7
 10
41.351746752828944
 20
19.449561124423269
 11
43.351746752828944
 21
19.449561124423269
  0
LINE
  8
_0-0_
  6
CONTINUOUS
 62
    7
 10
43.351746752828944
 20
19.449561124423269
 11
43.351746752828944
 21
11.249561124422996
  0
LINE
  8
_0-0_
  6
CONTINUOUS
 62
    7
 10
43.351746752828944
 20
11.249561124422996
 11
41.351746752828944
 21
11.249561124422996
  0
LINE
  8
_0-0_
  6
CONTINUOUS
 62
    7
 10
43.351746752828944
 20
12.349561124422905
 11
50.901746943563808
 21
12.349561124422905
  0
LINE
  8
_0-0_
  6
CONTINUOUS
 62
    7
 10
50.901746943563808
 20
12.349561124422905
 11
51.351746752828944
 21
12.799561172106621
  0
LINE
  8
_0-0_
  6
CONTINUOUS
 62
    7
 10
51.351746752828944
 20
12.799561172106621
 11
51.351746752828944
 21
17.89956107673919
  0
LINE
  8
_0-0_
  6
CONTINUOUS
 62
    7
 10
51.351746752828944
 20
17.89956107673919
 11
50.901746943563808
 21
18.349561124422905
  0
LINE
  8
_0-0_
  6
CONTINUOUS
 62
    7
 10
50.901746943563808
 20
18.349561124422905
 11
43.351746752828944
 21
18.349561124422905
  0
ARC
  8
_0-0_
  6
CONTINUOUS
 62
    7
 10
10.703038899336093
 20
16.669561176874993
 40
0.8799999952316284
 50
270
 51
0
  0
ARC
  8
_0-0_
  6
CONTINUOUS
 62
    7
 10
38.351746752828944
 20
19.849561124422905
 40
5
 50
53.130102354155987
 51
126.86989764584402
  0
ARC
  8
_0-0_
  6
CONTINUOUS
 62
    7
 10
38.351746752828944
 20
10.849561124422905
 40
5
 50
233.13010235415598
 51
306.86989764584399
  0
CIRCLE
  8
_0-0_
  6
CONTINUOUS
 62
    7
 10
12.02303895178818
 20
15.349561124422905
 40
9.5
  0
CIRCLE
  8
_0-0_
  6
CONTINUOUS
 62
    7
 10
12.02303895178818
 20
15.349561124422905
 40
4
  0
ARC
  8
_0-0_
  6
CONTINUOUS
 62
    7
 10
13.343039004240268
 20
16.669561176874993
 40
0.8799999952316284
 50
180
 51
270
  0
ARC
  8
_0-0_
  6
CONTINUOUS
 62
    7
 10
13.343039004240268
 20
14.029561071970818
 40
0.8799999952316284
 50
90
 51
180
  0
ARC
  8
_0-0_
  6
CONTINUOUS
 62
    7
 10
10.703038899336093
 20
14.029561071970818
 40
0.8799999952316284
 50
0
 51
90
  0
LINE
  8
_0-1_
  6
CENTER1
 62
  152
 10
12.02303895178818
 20
24.849561124422905
 11
12.02303895178818
 21
5.8495611244229053
  0
LINE
  8
_0-1_
  6
CENTER1
 62
  152
 10
21.52303895178818
 20
15.349561124422905
 11
2.5230389517881804
 21
15.349561124422905
  0
LINE
  8
_0-1_
  6
CENTER1
 62
  152
 10
38.351746752828944
 20
24.849561124422905
 11
38.351746752828944
 21
5.8495611244229053
  0
LINE
  8
_0-1_
  6
CENTER1
 62
  152
 10
35.351746752828944
 20
15.349561124422905
 11
51.351746752828944
 21
15.349561124422905
  0
LINE
  8
_0-1_
  6
CONTINUOUS
 62
  152
 10
43.351746752828944
 20
17.89956107673919
 11
51.351746752828944
 21
17.89956107673919
  0
LINE
  8
_0-1_
  6
CONTINUOUS
 62
  152
 10
51.351746752828944
 20
12.799561172106621
 11
43.351746752828944
 21
12.799561172106621
  0
LINE
  8
_0-1_
  6
CONTINUOUS
 62
  152
 10
50.901746943563808
 20
18.349561124422905
 11
50.901746943563808
 21
12.349561124422905
  0
ENDSEC
  0
EOF
