  0
SECTION
  2
HEADER
  9
$ACADVER
  1
AC1009
  9
$INSBASE
 10
0
 20
0
 30
0
  9
$EXTMIN
 10
0
 20
0
  9
$EXTMAX
 10
1189
 20
841
  9
$LIMMIN
 10
0
 20
0
  9
$LIMMAX
 10
1189
 20
841
  9
$LTSCALE
 40
1
  0
ENDSEC
  0
SECTION
  2
TABLES
  0
TABLE
  2
LTYPE
 70
     9
  0
LTYPE
  2
CONTINUOUS
 70
    64
  3
実線
 72
    65
 73
     0
 40
0.0
  0
LTYPE
  2
DASHED1
 70
    64
  3
--  --  --  --  --  --  --  --  
 72
    65
 73
     2
 40
2.5
 49
1.25
 49
-1.25
  0
LTYPE
  2
DASHED2
 70
    64
  3
----    ----    ----    ----    
 72
    65
 73
     2
 40
5.0
 49
2.5
 49
-2.5
  0
LTYPE
  2
DASHED3
 70
    64
  3
------  ------  ------  ------  
 72
    65
 73
     2
 40
5.0
 49
3.75
 49
-1.25
  0
LTYPE
  2
CENTER1
 70
    64
  3
----- - ----- - ----- - ----- - 
 72
    65
 73
     4
 40
10.0
 49
6.25
 49
-1.25
 49
1.25
 49
-1.25
  0
LTYPE
  2
CENTER2
 70
    64
  3
----------  --  ----------  --  
 72
    65
 73
     4
 40
20.0
 49
12.5
 49
-2.5
 49
2.5
 49
-2.5
  0
LTYPE
  2
PHANTOM1
 70
    64
  3
--- - - --- - - --- - - --- - - 
 72
    65
 73
     6
 40
10.0
 49
3.25
 49
-1.25
 49
1.25
 49
-1.25
 49
1.25
 49
-1.25
  0
LTYPE
  2
PHANTOM2
 70
    64
  3
--------  -  -  --------  -  -  
 72
    65
 73
     6
 40
20.0
 49
10.0
 49
-2.5
 49
1.25
 49
-2.5
 49
1.25
 49
-2.5
  0
LTYPE
  2
DOT
 70
    64
  3
-   -   -   -   -   -   -   -   
 72
    65
 73
     2
 40
2.5
 49
0.625
 49
-1.875
  0
LTYPE
  2
DUMMY
 70
    64
  3
ダミー
 72
    65
 73
     0
 40
0.0
  0
LTYPE
  2
RAND1
 70
    64
  3
ランダム線1
 72
    65
 73
     4
 40
10.0
 49
1.0
 49
-2.0
 49
3.0
 49
-4.0
  0
LTYPE
  2
RAND2
 70
    64
  3
ランダム線2
 72
    65
 73
     4
 40
14.0
 49
2.0
 49
-3.0
 49
4.0
 49
-5.0
  0
LTYPE
  2
RAND3
 70
    64
  3
ランダム線3
 72
    65
 73
     4
 40
18.0
 49
3.0
 49
-4.0
 49
5.0
 49
-6.0
  0
LTYPE
  2
RAND4
 70
    64
  3
ランダム線4
 72
    65
 73
     4
 40
22.0
 49
4.0
 49
-5.0
 49
6.0
 49
-7.0
  0
LTYPE
  2
RAND5
 70
    64
  3
ランダム線5
 72
    65
 73
     4
 40
26.0
 49
5.0
 49
-6.0
 49
7.0
 49
-8.0
  0
LTYPE
  2
LONG1
 70
    64
  3
----------  --  ----------  --  
 72
    65
 73
     4
 40
40.0
 49
32.5
 49
-2.5
 49
2.5
 49
-2.5
  0
LTYPE
  2
LONG2
 70
    64
  3
--------  -  -  --------  -  -  
 72
    65
 73
     6
 40
40.0
 49
30.0
 49
-2.5
 49
1.25
 49
-2.5
 49
1.25
 49
-2.5
  0
LTYPE
  2
LONG3
 70
    64
  3
+++++++++++++++..+++++++++++++++
 72
    65
 73
     2
 40
40.0
 49
37.5
 49
-2.5
  0
LTYPE
  2
LONG4
 70
    64
  3
+++++++++++++++..+++++++++++++++
 72
    65
 73
     2
 40
80.0
 49
75.0
 49
-5.0
  0
LTYPE
  2
LONG5
 70
    64
  3
----------  --  ----------  --  
 72
    65
 73
     4
 40
60.0
 49
37.5
 49
-7.5
 49
7.5
 49
-7.5
  0
LTYPE
  2
dashed
 70
   64
  3
-------   -------------   ------
 72
   65
 73
    2
 40
7.5
 49
6
 49
-1.5
  0
LTYPE
  2
dashed_spaced
 70
   64
  3
----        --------        ----
 72
   65
 73
    2
 40
12
 49
6
 49
-6
  0
LTYPE
  2
long_dashed_dotted
 70
   64
  3
------------- --- --------------
 72
   65
 73
    4
 40
15.25
 49
12
 49
-1.5
 49
0.25
 49
-1.5
  0
LTYPE
  2
long_dashed_double-dotted
 70
   64
  3
----------- --- --- ------------
 72
   65
 73
    6
 40
17
 49
12
 49
-1.5
 49
0.25
 49
-1.5
 49
0.25
 49
-1.5
  0
LTYPE
  2
long_dashed_triplicate-dotted
 70
   64
  3
--------- --- --- --- ----------
 72
   65
 73
    8
 40
18.75
 49
12
 49
-1.5
 49
0.25
 49
-1.5
 49
0.25
 49
-1.5
 49
0.25
 49
-1.5
  0
LTYPE
  2
dotted
 70
   64
  3
   -       -       -       -    
 72
   65
 73
    2
 40
1.75
 49
0.25
 49
-1.5
  0
LTYPE
  2
chain
 70
   64
  3
-------------- -- --------------
 72
   65
 73
    4
 40
18.5
 49
12
 49
-1.5
 49
3.5
 49
-1.5
  0
LTYPE
  2
chain_double_dash
 70
   64
  3
------------ -- -- -------------
 72
   65
 73
    6
 40
23.5
 49
12
 49
-1.5
 49
3.5
 49
-1.5
 49
3.5
 49
-1.5
  0
LTYPE
  2
dashed_dotted
 70
   64
  3
-----------     -     ----------
 72
   65
 73
    4
 40
9.25
 49
6
 49
-1.5
 49
0.25
 49
-1.5
  0
LTYPE
  2
double-dashed_dotted
 70
   64
  3
------   -----------   -   -----
 72
   65
 73
    6
 40
16.75
 49
6
 49
-1.5
 49
6
 49
-1.5
 49
0.25
 49
-1.5
  0
LTYPE
  2
dashed_double-dotted
 70
   64
  3
---------    -    -    ---------
 72
   65
 73
    6
 40
11
 49
6
 49
-1.5
 49
0.25
 49
-1.5
 49
0.25
 49
-1.5
  0
LTYPE
  2
double-dashed_double-dotted
 70
   64
  3
-----   ---------   -   -   ----
 72
   65
 73
    8
 40
18.5
 49
6
 49
-1.5
 49
6
 49
-1.5
 49
0.25
 49
-1.5
 49
0.25
 49
-1.5
  0
LTYPE
  2
dashed_triplicate-dotted
 70
   64
  3
-------    -    -    -    ------
 72
   65
 73
    8
 40
12.75
 49
6
 49
-1.5
 49
0.25
 49
-1.5
 49
0.25
 49
-1.5
 49
0.25
 49
-1.5
  0
LTYPE
  2
double-dashed_triplicate-dotted
 70
   64
  3
-----  ---------  -  -  -  -----
 72
   65
 73
   10
 40
20.25
 49
6
 49
-1.5
 49
6
 49
-1.5
 49
0.25
 49
-1.5
 49
0.25
 49
-1.5
 49
0.25
 49
-1.5
  0
LTYPE
  2
undefined
 70
   64
  3
--------------------------------
 72
   65
 73
    0
 40
0
  0
ENDTAB
  0
TABLE
  2
STYLE
  5
3
100
AcDbSymbolTable
 70
     1
  0
STYLE
  5
10
100
AcDbSymbolTableRecord
100
AcDbTextStyleTableRecord
  2
STANDARD
 70
     0
 40
0.0
 41
1.0
 50
0.0
 71
     0
 42
0.2
  3
txt
  4
bigfont.shx
  0
STYLE
  5
26
100
AcDbSymbolTableRecord
100
AcDbTextStyleTableRecord
  2
TATEGAKI
 70
    68
 40
0.0
 41
1.0
 50
0.0
 71
     0
 42
1.0
  3
txt
  4
bigfont.shx
  0
ENDTAB
  0
TABLE
  2
LAYER
 70
    4
  0
LAYER
  2
_0-0_
 70
   64
 62
    7
  6
CONTINUOUS
  0
LAYER
  2
_0-1_
 70
   64
 62
    7
  6
CONTINUOUS
  0
LAYER
  2
_0-f_
 70
   64
 62
    7
  6
CONTINUOUS
  0
LAYER
  2
ADD_LINE
 70
   64
 62
    7
  6
CONTINUOUS
  0
ENDTAB
  0
ENDSEC
  0
SECTION
  2
BLOCKS
  0
ENDSEC
  0
SECTION
  2
ENTITIES
  0
TEXT
  8
_0-f_
 62
    7
 10
0.4100288839684935
 20
0.4437858927934144
 40
4.2999999999999998
 41
0.744186046511628
 50
0
  1
BE19
  0
LINE
  8
_0-0_
  6
CONTINUOUS
 62
    7
 10
43.37410559161799
 20
23.109075701492998
 11
43.37410559161799
 21
6.1090757014929977
  0
LINE
  8
_0-0_
  6
CONTINUOUS
 62
    7
 10
43.37410559161799
 20
10.609075701492998
 11
44.37410559161799
 21
10.609075701492998
  0
LINE
  8
_0-0_
  6
CONTINUOUS
 62
    7
 10
44.37410559161799
 20
10.609075701492998
 11
44.37410559161799
 21
18.609075701492998
  0
LINE
  8
_0-0_
  6
CONTINUOUS
 62
    7
 10
44.37410559161799
 20
18.609075701492998
 11
43.37410559161799
 21
18.609075701492998
  0
LINE
  8
_0-0_
  6
CONTINUOUS
 62
    7
 10
44.37410559161799
 20
17.609075701492998
 11
51.574105591617808
 21
17.609075701492998
  0
LINE
  8
_0-0_
  6
CONTINUOUS
 62
    7
 10
51.574105591617808
 20
11.609075701492998
 11
52.37410559161799
 21
12.409075701492725
  0
LINE
  8
_0-0_
  6
CONTINUOUS
 62
    7
 10
52.37410559161799
 20
12.409075701492725
 11
52.37410559161799
 21
16.809075701492816
  0
LINE
  8
_0-0_
  6
CONTINUOUS
 62
    7
 10
44.37410559161799
 20
11.609075701492998
 11
51.574105591617808
 21
11.609075701492998
  0
LINE
  8
_0-0_
  6
CONTINUOUS
 62
    7
 10
37.37410559161799
 20
6.1090757014929977
 11
37.37410559161799
 21
23.109075701492998
  0
LINE
  8
_0-0_
  6
CONTINUOUS
 62
    7
 10
51.574105591617808
 20
17.609075701492998
 11
52.37410559161799
 21
16.809075701492816
  0
LINE
  8
_0-0_
  6
CONTINUOUS
 62
    7
 10
11.62410559161799
 20
15.330763537980033
 11
10.37410559161799
 21
16.052451374467068
  0
LINE
  8
_0-0_
  6
CONTINUOUS
 62
    7
 10
10.37410559161799
 20
16.052451374467068
 11
9.1241055916179903
 21
15.330763537980033
  0
LINE
  8
_0-0_
  6
CONTINUOUS
 62
    7
 10
9.1241055916179903
 20
15.330763537980033
 11
9.1241055916179903
 21
13.887387865005962
  0
LINE
  8
_0-0_
  6
CONTINUOUS
 62
    7
 10
9.1241055916179903
 20
13.887387865005962
 11
10.37410559161799
 21
13.165700028518927
  0
LINE
  8
_0-0_
  6
CONTINUOUS
 62
    7
 10
10.37410559161799
 20
13.165700028518927
 11
11.62410559161799
 21
13.887387865005962
  0
LINE
  8
_0-0_
  6
CONTINUOUS
 62
    7
 10
11.62410559161799
 20
13.887387865005962
 11
11.62410559161799
 21
15.330763537980033
  0
CIRCLE
  8
_0-0_
  6
CONTINUOUS
 62
    7
 10
10.37410559161799
 20
14.609075701492998
 40
8
  0
CIRCLE
  8
_0-0_
  6
CONTINUOUS
 62
    7
 10
10.37410559161799
 20
14.609075701492998
 40
9.5
  0
ARC
  8
_0-0_
  6
CONTINUOUS
 62
    7
 10
40.37410559161799
 20
19.109075701492998
 40
5
 50
53.130102354155987
 51
126.86989764584402
  0
ARC
  8
_0-0_
  6
CONTINUOUS
 62
    7
 10
40.37410559161799
 20
10.109075701492998
 40
5
 50
233.13010235415598
 51
306.86989764584399
  0
CIRCLE
  8
_0-0_
  6
CONTINUOUS
 62
    7
 10
10.37410559161799
 20
14.609075701492998
 40
2.75
  0
LINE
  8
_0-1_
  6
CENTER1
 62
  152
 10
37.37410559161799
 20
14.609075701492998
 11
52.37410559161799
 21
14.609075701492998
  0
LINE
  8
_0-1_
  6
CENTER1
 62
  152
 10
40.37410559161799
 20
24.109075701492998
 11
40.37410559161799
 21
5.1090757014929977
  0
LINE
  8
_0-1_
  6
CENTER1
 62
  152
 10
10.37410559161799
 20
5.1090757014929977
 11
10.37410559161799
 21
24.109075701492998
  0
LINE
  8
_0-1_
  6
CENTER1
 62
  152
 10
0.8741055916179902
 20
14.609075701492998
 11
19.87410559161799
 21
14.609075701492998
  0
LINE
  8
_0-1_
  6
CONTINUOUS
 62
  152
 10
44.835985806969802
 20
16.809075701492816
 11
44.37410559161799
 21
17.609075701492998
  0
LINE
  8
_0-1_
  6
CONTINUOUS
 62
  152
 10
44.835985806969802
 20
17.609075701492998
 11
44.835985806969802
 21
11.609075701492998
  0
LINE
  8
_0-1_
  6
CONTINUOUS
 62
  152
 10
44.801066342373815
 20
12.34859341463914
 11
44.37410559161799
 21
11.609075701492998
  0
LINE
  8
_0-1_
  6
CONTINUOUS
 62
  152
 10
52.313623304764405
 20
12.34859341463914
 11
44.801066342373815
 21
12.34859341463914
  0
LINE
  8
_0-1_
  6
CONTINUOUS
 62
  152
 10
52.37410559161799
 20
16.809075701492816
 11
44.835985806969802
 21
16.809075701492816
  0
LINE
  8
_0-1_
  6
CONTINUOUS
 62
  152
 10
51.574105591617808
 20
17.609075701492998
 11
51.574105591617808
 21
11.609075701492998
  0
ENDSEC
  0
EOF
