  0
SECTION
  2
HEADER
  9
$ACADVER
  1
AC1009
  9
$INSBASE
 10
0
 20
0
 30
0
  9
$EXTMIN
 10
0
 20
0
  9
$EXTMAX
 10
1189
 20
841
  9
$LIMMIN
 10
0
 20
0
  9
$LIMMAX
 10
1189
 20
841
  9
$LTSCALE
 40
1
  0
ENDSEC
  0
SECTION
  2
TABLES
  0
TABLE
  2
LTYPE
 70
     9
  0
LTYPE
  2
CONTINUOUS
 70
    64
  3
実線
 72
    65
 73
     0
 40
0.0
  0
LTYPE
  2
DASHED1
 70
    64
  3
--  --  --  --  --  --  --  --  
 72
    65
 73
     2
 40
2.5
 49
1.25
 49
-1.25
  0
LTYPE
  2
DASHED2
 70
    64
  3
----    ----    ----    ----    
 72
    65
 73
     2
 40
5.0
 49
2.5
 49
-2.5
  0
LTYPE
  2
DASHED3
 70
    64
  3
------  ------  ------  ------  
 72
    65
 73
     2
 40
5.0
 49
3.75
 49
-1.25
  0
LTYPE
  2
CENTER1
 70
    64
  3
----- - ----- - ----- - ----- - 
 72
    65
 73
     4
 40
10.0
 49
6.25
 49
-1.25
 49
1.25
 49
-1.25
  0
LTYPE
  2
CENTER2
 70
    64
  3
----------  --  ----------  --  
 72
    65
 73
     4
 40
20.0
 49
12.5
 49
-2.5
 49
2.5
 49
-2.5
  0
LTYPE
  2
PHANTOM1
 70
    64
  3
--- - - --- - - --- - - --- - - 
 72
    65
 73
     6
 40
10.0
 49
3.25
 49
-1.25
 49
1.25
 49
-1.25
 49
1.25
 49
-1.25
  0
LTYPE
  2
PHANTOM2
 70
    64
  3
--------  -  -  --------  -  -  
 72
    65
 73
     6
 40
20.0
 49
10.0
 49
-2.5
 49
1.25
 49
-2.5
 49
1.25
 49
-2.5
  0
LTYPE
  2
DOT
 70
    64
  3
-   -   -   -   -   -   -   -   
 72
    65
 73
     2
 40
2.5
 49
0.625
 49
-1.875
  0
LTYPE
  2
DUMMY
 70
    64
  3
ダミー
 72
    65
 73
     0
 40
0.0
  0
LTYPE
  2
RAND1
 70
    64
  3
ランダム線1
 72
    65
 73
     4
 40
10.0
 49
1.0
 49
-2.0
 49
3.0
 49
-4.0
  0
LTYPE
  2
RAND2
 70
    64
  3
ランダム線2
 72
    65
 73
     4
 40
14.0
 49
2.0
 49
-3.0
 49
4.0
 49
-5.0
  0
LTYPE
  2
RAND3
 70
    64
  3
ランダム線3
 72
    65
 73
     4
 40
18.0
 49
3.0
 49
-4.0
 49
5.0
 49
-6.0
  0
LTYPE
  2
RAND4
 70
    64
  3
ランダム線4
 72
    65
 73
     4
 40
22.0
 49
4.0
 49
-5.0
 49
6.0
 49
-7.0
  0
LTYPE
  2
RAND5
 70
    64
  3
ランダム線5
 72
    65
 73
     4
 40
26.0
 49
5.0
 49
-6.0
 49
7.0
 49
-8.0
  0
LTYPE
  2
LONG1
 70
    64
  3
----------  --  ----------  --  
 72
    65
 73
     4
 40
40.0
 49
32.5
 49
-2.5
 49
2.5
 49
-2.5
  0
LTYPE
  2
LONG2
 70
    64
  3
--------  -  -  --------  -  -  
 72
    65
 73
     6
 40
40.0
 49
30.0
 49
-2.5
 49
1.25
 49
-2.5
 49
1.25
 49
-2.5
  0
LTYPE
  2
LONG3
 70
    64
  3
+++++++++++++++..+++++++++++++++
 72
    65
 73
     2
 40
40.0
 49
37.5
 49
-2.5
  0
LTYPE
  2
LONG4
 70
    64
  3
+++++++++++++++..+++++++++++++++
 72
    65
 73
     2
 40
80.0
 49
75.0
 49
-5.0
  0
LTYPE
  2
LONG5
 70
    64
  3
----------  --  ----------  --  
 72
    65
 73
     4
 40
60.0
 49
37.5
 49
-7.5
 49
7.5
 49
-7.5
  0
LTYPE
  2
dashed
 70
   64
  3
-------   -------------   ------
 72
   65
 73
    2
 40
7.5
 49
6
 49
-1.5
  0
LTYPE
  2
dashed_spaced
 70
   64
  3
----        --------        ----
 72
   65
 73
    2
 40
12
 49
6
 49
-6
  0
LTYPE
  2
long_dashed_dotted
 70
   64
  3
------------- --- --------------
 72
   65
 73
    4
 40
15.25
 49
12
 49
-1.5
 49
0.25
 49
-1.5
  0
LTYPE
  2
long_dashed_double-dotted
 70
   64
  3
----------- --- --- ------------
 72
   65
 73
    6
 40
17
 49
12
 49
-1.5
 49
0.25
 49
-1.5
 49
0.25
 49
-1.5
  0
LTYPE
  2
long_dashed_triplicate-dotted
 70
   64
  3
--------- --- --- --- ----------
 72
   65
 73
    8
 40
18.75
 49
12
 49
-1.5
 49
0.25
 49
-1.5
 49
0.25
 49
-1.5
 49
0.25
 49
-1.5
  0
LTYPE
  2
dotted
 70
   64
  3
   -       -       -       -    
 72
   65
 73
    2
 40
1.75
 49
0.25
 49
-1.5
  0
LTYPE
  2
chain
 70
   64
  3
-------------- -- --------------
 72
   65
 73
    4
 40
18.5
 49
12
 49
-1.5
 49
3.5
 49
-1.5
  0
LTYPE
  2
chain_double_dash
 70
   64
  3
------------ -- -- -------------
 72
   65
 73
    6
 40
23.5
 49
12
 49
-1.5
 49
3.5
 49
-1.5
 49
3.5
 49
-1.5
  0
LTYPE
  2
dashed_dotted
 70
   64
  3
-----------     -     ----------
 72
   65
 73
    4
 40
9.25
 49
6
 49
-1.5
 49
0.25
 49
-1.5
  0
LTYPE
  2
double-dashed_dotted
 70
   64
  3
------   -----------   -   -----
 72
   65
 73
    6
 40
16.75
 49
6
 49
-1.5
 49
6
 49
-1.5
 49
0.25
 49
-1.5
  0
LTYPE
  2
dashed_double-dotted
 70
   64
  3
---------    -    -    ---------
 72
   65
 73
    6
 40
11
 49
6
 49
-1.5
 49
0.25
 49
-1.5
 49
0.25
 49
-1.5
  0
LTYPE
  2
double-dashed_double-dotted
 70
   64
  3
-----   ---------   -   -   ----
 72
   65
 73
    8
 40
18.5
 49
6
 49
-1.5
 49
6
 49
-1.5
 49
0.25
 49
-1.5
 49
0.25
 49
-1.5
  0
LTYPE
  2
dashed_triplicate-dotted
 70
   64
  3
-------    -    -    -    ------
 72
   65
 73
    8
 40
12.75
 49
6
 49
-1.5
 49
0.25
 49
-1.5
 49
0.25
 49
-1.5
 49
0.25
 49
-1.5
  0
LTYPE
  2
double-dashed_triplicate-dotted
 70
   64
  3
-----  ---------  -  -  -  -----
 72
   65
 73
   10
 40
20.25
 49
6
 49
-1.5
 49
6
 49
-1.5
 49
0.25
 49
-1.5
 49
0.25
 49
-1.5
 49
0.25
 49
-1.5
  0
LTYPE
  2
undefined
 70
   64
  3
--------------------------------
 72
   65
 73
    0
 40
0
  0
ENDTAB
  0
TABLE
  2
STYLE
  5
3
100
AcDbSymbolTable
 70
     1
  0
STYLE
  5
10
100
AcDbSymbolTableRecord
100
AcDbTextStyleTableRecord
  2
STANDARD
 70
     0
 40
0.0
 41
1.0
 50
0.0
 71
     0
 42
0.2
  3
txt
  4
bigfont.shx
  0
STYLE
  5
26
100
AcDbSymbolTableRecord
100
AcDbTextStyleTableRecord
  2
TATEGAKI
 70
    68
 40
0.0
 41
1.0
 50
0.0
 71
     0
 42
1.0
  3
txt
  4
bigfont.shx
  0
ENDTAB
  0
TABLE
  2
LAYER
 70
    3
  0
LAYER
  2
_0-0_
 70
   64
 62
    7
  6
CONTINUOUS
  0
LAYER
  2
_0-1_
 70
   64
 62
    7
  6
CONTINUOUS
  0
LAYER
  2
ADD_LINE
 70
   64
 62
    7
  6
CONTINUOUS
  0
ENDTAB
  0
ENDSEC
  0
SECTION
  2
BLOCKS
  0
ENDSEC
  0
SECTION
  2
ENTITIES
  0
LINE
  8
_0-0_
  6
CONTINUOUS
 62
    7
 10
64.504958443260989
 20
31.025315743325677
 11
24.504958443260989
 21
31.025315743325677
  0
LINE
  8
_0-0_
  6
CONTINUOUS
 62
    7
 10
64.504958443260989
 20
20.825315743325632
 11
24.504958443260989
 21
20.825315743325632
  0
LINE
  8
_0-0_
  6
CONTINUOUS
 62
    7
 10
24.504958443260989
 20
45.925315743325768
 11
24.504958443260989
 21
5.9253157433257684
  0
LINE
  8
_0-0_
  6
CONTINUOUS
 62
    7
 10
24.504958443260989
 20
5.9253157433257684
 11
64.504958443260989
 21
5.9253157433257684
  0
LINE
  8
_0-0_
  6
CONTINUOUS
 62
    7
 10
64.504958443260989
 20
5.9253157433257684
 11
64.504958443260989
 21
45.925315743325768
  0
LINE
  8
_0-0_
  6
CONTINUOUS
 62
    7
 10
64.504958443260989
 20
45.925315743325768
 11
24.504958443260989
 21
45.925315743325768
  0
CIRCLE
  8
_0-0_
  6
CONTINUOUS
 62
    7
 10
30.504958443260989
 20
25.925315743325768
 40
3.5
  0
CIRCLE
  8
_0-0_
  6
CONTINUOUS
 62
    7
 10
58.504958443260989
 20
25.925315743325768
 40
3.5
  0
LINE
  8
_0-0_
  6
CONTINUOUS
 62
    7
 10
155.88572971852125
 20
5.9253157433257684
 11
95.885729718521247
 21
5.9253157433257684
  0
LINE
  8
_0-0_
  6
CONTINUOUS
 62
    7
 10
95.885729718521247
 20
5.9253157433257684
 11
95.885729718521247
 21
45.925315743325768
  0
LINE
  8
_0-0_
  6
CONTINUOUS
 62
    7
 10
95.885729718521247
 20
45.925315743325768
 11
155.88572971852125
 21
45.925315743325768
  0
LINE
  8
_0-0_
  6
CONTINUOUS
 62
    7
 10
155.88572971852125
 20
45.925315743325768
 11
155.88572971852125
 21
5.9253157433257684
  0
LINE
  8
_0-0_
  6
CONTINUOUS
 62
    7
 10
155.88572971852125
 20
20.825315743325632
 11
95.885729718521247
 21
20.825315743325632
  0
LINE
  8
_0-0_
  6
CONTINUOUS
 62
    7
 10
155.88572971852125
 20
31.025315743325677
 11
95.885729718521247
 21
31.025315743325677
  0
CIRCLE
  8
_0-0_
  6
CONTINUOUS
 62
    7
 10
149.88572971852125
 20
25.925315743325768
 40
3.5
  0
CIRCLE
  8
_0-0_
  6
CONTINUOUS
 62
    7
 10
101.88572971852125
 20
25.925315743325768
 40
3.5
  0
LINE
  8
_0-0_
  6
CONTINUOUS
 62
    7
 10
267.73762485117322
 20
45.925315743325768
 11
267.73762485117322
 21
5.9253157433257684
  0
LINE
  8
_0-0_
  6
CONTINUOUS
 62
    7
 10
267.73762485117322
 20
5.9253157433257684
 11
187.73762485117322
 21
5.9253157433257684
  0
LINE
  8
_0-0_
  6
CONTINUOUS
 62
    7
 10
187.73762485117322
 20
5.9253157433257684
 11
187.73762485117322
 21
45.925315743325768
  0
LINE
  8
_0-0_
  6
CONTINUOUS
 62
    7
 10
187.73762485117322
 20
45.925315743325768
 11
267.73762485117322
 21
45.925315743325768
  0
LINE
  8
_0-0_
  6
CONTINUOUS
 62
    7
 10
267.73762485117322
 20
31.025315743325677
 11
187.73762485117322
 21
31.025315743325677
  0
LINE
  8
_0-0_
  6
CONTINUOUS
 62
    7
 10
267.73762485117322
 20
20.825315743325632
 11
187.73762485117322
 21
20.825315743325632
  0
CIRCLE
  8
_0-0_
  6
CONTINUOUS
 62
    7
 10
193.73762485117322
 20
25.925315743325768
 40
3.5
  0
CIRCLE
  8
_0-0_
  6
CONTINUOUS
 62
    7
 10
261.73762485117322
 20
25.925315743325768
 40
3.5
  0
LINE
  8
_0-0_
  6
CONTINUOUS
 62
    7
 10
313.15485285859063
 20
5.9253157433257684
 11
299.15485285859063
 21
5.9253157433257684
  0
LINE
  8
_0-0_
  6
CONTINUOUS
 62
    7
 10
298.65485285859063
 20
6.4253157433257684
 11
298.65485285859063
 21
11.376787605901768
  0
LINE
  8
_0-0_
  6
CONTINUOUS
 62
    7
 10
298.74272082423477
 20
11.588919640257814
 11
298.86698489294668
 21
11.713183708969723
  0
LINE
  8
_0-0_
  6
CONTINUOUS
 62
    7
 10
298.86698489294668
 20
12.137447777681587
 11
298.74272082423477
 21
12.261711846393723
  0
LINE
  8
_0-0_
  6
CONTINUOUS
 62
    7
 10
298.65485285859063
 20
12.473843880749541
 11
298.65485285859063
 21
20.325315743325632
  0
LINE
  8
_0-0_
  6
CONTINUOUS
 62
    7
 10
299.15485285859063
 20
20.825315743325632
 11
300.93681886984086
 21
20.825315743325632
  0
LINE
  8
_0-0_
  6
CONTINUOUS
 62
    7
 10
301.16042566759074
 20
20.77252933882562
 11
301.97845965634065
 21
20.363512344450669
  0
LINE
  8
_0-0_
  6
CONTINUOUS
 62
    7
 10
302.25485285859077
 20
19.91629874895068
 11
302.25485285859077
 21
18.425315743325768
  0
LINE
  8
_0-0_
  6
CONTINUOUS
 62
    7
 10
302.75485285859077
 20
17.925315743325768
 11
306.44774607740419
 21
17.925315743325768
  0
LINE
  8
_0-0_
  6
CONTINUOUS
 62
    7
 10
306.8012994679973
 20
18.071762352732435
 11
308.50840624918396
 21
19.778869133919102
  0
LINE
  8
_0-0_
  6
CONTINUOUS
 62
    7
 10
308.65485285859063
 20
20.132422524512208
 11
308.65485285859063
 21
31.718208962139101
  0
LINE
  8
_0-0_
  6
CONTINUOUS
 62
    7
 10
308.50840624918396
 20
32.071762352732435
 11
306.8012994679973
 21
33.778869133919102
  0
LINE
  8
_0-0_
  6
CONTINUOUS
 62
    7
 10
306.44774607740419
 20
33.925315743325768
 11
302.75485285859077
 21
33.925315743325768
  0
LINE
  8
_0-0_
  6
CONTINUOUS
 62
    7
 10
302.25485285859077
 20
33.425315743325768
 11
302.25485285859077
 21
31.934332737700629
  0
LINE
  8
_0-0_
  6
CONTINUOUS
 62
    7
 10
301.97845965634065
 20
31.48711914220064
 11
301.16042566759074
 21
31.078102147825689
  0
LINE
  8
_0-0_
  6
CONTINUOUS
 62
    7
 10
300.93681886984086
 20
31.025315743325677
 11
299.15485285859063
 21
31.025315743325677
  0
LINE
  8
_0-0_
  6
CONTINUOUS
 62
    7
 10
298.65485285859063
 20
31.525315743325677
 11
298.65485285859063
 21
39.376787605901768
  0
LINE
  8
_0-0_
  6
CONTINUOUS
 62
    7
 10
298.74272082423477
 20
39.588919640257814
 11
298.86698489294668
 21
39.713183708969723
  0
LINE
  8
_0-0_
  6
CONTINUOUS
 62
    7
 10
298.86698489294668
 20
40.137447777681587
 11
298.74272082423477
 21
40.261711846393723
  0
LINE
  8
_0-0_
  6
CONTINUOUS
 62
    7
 10
298.65485285859063
 20
40.473843880749541
 11
298.65485285859063
 21
45.425315743325768
  0
LINE
  8
_0-0_
  6
CONTINUOUS
 62
    7
 10
299.15485285859063
 20
45.925315743325768
 11
313.15485285859063
 21
45.925315743325768
  0
LINE
  8
_0-0_
  6
CONTINUOUS
 62
    7
 10
313.65485285859063
 20
45.425315743325768
 11
313.65485285859063
 21
40.473843880749541
  0
LINE
  8
_0-0_
  6
CONTINUOUS
 62
    7
 10
313.56698489294672
 20
40.261711846393723
 11
313.44272082423481
 21
40.137447777681587
  0
LINE
  8
_0-0_
  6
CONTINUOUS
 62
    7
 10
313.44272082423481
 20
39.713183708969723
 11
313.56698489294672
 21
39.588919640257814
  0
LINE
  8
_0-0_
  6
CONTINUOUS
 62
    7
 10
313.65485285859063
 20
39.376787605901768
 11
313.65485285859063
 21
26.473843880749541
  0
LINE
  8
_0-0_
  6
CONTINUOUS
 62
    7
 10
313.56698489294672
 20
26.261711846393723
 11
313.44272082423481
 21
26.137447777681587
  0
LINE
  8
_0-0_
  6
CONTINUOUS
 62
    7
 10
313.44272082423481
 20
25.713183708969723
 11
313.56698489294672
 21
25.588919640257814
  0
LINE
  8
_0-0_
  6
CONTINUOUS
 62
    7
 10
313.65485285859063
 20
25.376787605901768
 11
313.65485285859063
 21
12.473843880749541
  0
LINE
  8
_0-0_
  6
CONTINUOUS
 62
    7
 10
313.56698489294672
 20
12.261711846393723
 11
313.44272082423481
 21
12.137447777681587
  0
LINE
  8
_0-0_
  6
CONTINUOUS
 62
    7
 10
313.44272082423481
 20
11.713183708969723
 11
313.56698489294672
 21
11.588919640257814
  0
LINE
  8
_0-0_
  6
CONTINUOUS
 62
    7
 10
313.65485285859086
 20
11.376787605901768
 11
313.65485285859063
 21
6.4253157433257684
  0
ARC
  8
_0-0_
  6
CONTINUOUS
 62
    7
 10
299.15485285859063
 20
31.525315743325677
 40
0.5
 50
180
 51
270
  0
ARC
  8
_0-0_
  6
CONTINUOUS
 62
    7
 10
300.93681886984086
 20
31.525315743325677
 40
0.5
 50
270
 51
296.56505117707826
  0
ARC
  8
_0-0_
  6
CONTINUOUS
 62
    7
 10
301.75485285859077
 20
31.934332737700629
 40
0.5
 50
296.56505117707815
 51
0
  0
ARC
  8
_0-0_
  6
CONTINUOUS
 62
    7
 10
302.75485285859077
 20
33.425315743325768
 40
0.5
 50
90
 51
180
  0
ARC
  8
_0-0_
  6
CONTINUOUS
 62
    7
 10
306.44774607740419
 20
33.425315743325768
 40
0.5
 50
44.99999999999995
 51
89.999999999999943
  0
ARC
  8
_0-0_
  6
CONTINUOUS
 62
    7
 10
308.15485285859063
 20
31.718208962139101
 40
0.5
 50
0
 51
45.00000000000005
  0
ARC
  8
_0-0_
  6
CONTINUOUS
 62
    7
 10
299.15485285859063
 20
45.425315743325768
 40
0.5
 50
90
 51
180
  0
ARC
  8
_0-0_
  6
CONTINUOUS
 62
    7
 10
313.15485285859063
 20
45.425315743325768
 40
0.5
 50
0
 51
90
  0
ARC
  8
_0-0_
  6
CONTINUOUS
 62
    7
 10
313.15485285859063
 20
6.4253157433257684
 40
0.5
 50
270
 51
0
  0
ARC
  8
_0-0_
  6
CONTINUOUS
 62
    7
 10
299.15485285859063
 20
6.4253157433257684
 40
0.5
 50
180
 51
270
  0
ARC
  8
_0-0_
  6
CONTINUOUS
 62
    7
 10
308.15485285859063
 20
20.132422524512208
 40
0.5
 50
314.99999999999994
 51
0.0000000000000063
  0
ARC
  8
_0-0_
  6
CONTINUOUS
 62
    7
 10
306.44774607740419
 20
18.425315743325768
 40
0.5
 50
270.00000000000006
 51
315.00000000000006
  0
ARC
  8
_0-0_
  6
CONTINUOUS
 62
    7
 10
302.75485285859077
 20
18.425315743325768
 40
0.5
 50
180
 51
270
  0
ARC
  8
_0-0_
  6
CONTINUOUS
 62
    7
 10
301.75485285859077
 20
19.91629874895068
 40
0.5
 50
0
 51
63.434948822921854
  0
ARC
  8
_0-0_
  6
CONTINUOUS
 62
    7
 10
300.93681886984086
 20
20.325315743325632
 40
0.5
 50
63.434948822921726
 51
90
  0
ARC
  8
_0-0_
  6
CONTINUOUS
 62
    7
 10
299.15485285859063
 20
20.325315743325632
 40
0.5
 50
90
 51
180
  0
ARC
  8
_0-0_
  6
CONTINUOUS
 62
    7
 10
298.95485285859058
 20
40.473843880749541
 40
0.2999999999999999
 50
180
 51
225.00000000000034
  0
ARC
  8
_0-0_
  6
CONTINUOUS
 62
    7
 10
298.65485285859063
 20
39.925315743325768
 40
0.3000000000000113
 50
315.00000000000097
 51
44.999999999998067
  0
ARC
  8
_0-0_
  6
CONTINUOUS
 62
    7
 10
298.95485285859058
 20
39.376787605901768
 40
0.2999999999999999
 50
134.99999999999935
 51
180.00000000000003
  0
ARC
  8
_0-0_
  6
CONTINUOUS
 62
    7
 10
298.95485285859058
 20
12.473843880749541
 40
0.2999999999999999
 50
180
 51
225.00000000000034
  0
ARC
  8
_0-0_
  6
CONTINUOUS
 62
    7
 10
298.65485285859063
 20
11.925315743325768
 40
0.3000000000000113
 50
315.00000000000097
 51
44.999999999998067
  0
ARC
  8
_0-0_
  6
CONTINUOUS
 62
    7
 10
298.95485285859058
 20
11.376787605901768
 40
0.2999999999999999
 50
134.99999999999935
 51
180.00000000000003
  0
ARC
  8
_0-0_
  6
CONTINUOUS
 62
    7
 10
313.35485285859068
 20
12.473843880749541
 40
0.2999999999999999
 50
314.99999999999966
 51
0
  0
ARC
  8
_0-0_
  6
CONTINUOUS
 62
    7
 10
313.65485285859063
 20
11.925315743325768
 40
0.3000000000000113
 50
135.0000000000019
 51
224.99999999999903
  0
ARC
  8
_0-0_
  6
CONTINUOUS
 62
    7
 10
313.35485285859068
 20
11.376787605901768
 40
0.2999999999999999
 50
0
 51
45.000000000000661
  0
ARC
  8
_0-0_
  6
CONTINUOUS
 62
    7
 10
313.35485285859068
 20
26.473843880749541
 40
0.2999999999999999
 50
314.99999999999966
 51
0
  0
ARC
  8
_0-0_
  6
CONTINUOUS
 62
    7
 10
313.65485285859063
 20
25.925315743325768
 40
0.3000000000000113
 50
135.0000000000019
 51
224.99999999999903
  0
ARC
  8
_0-0_
  6
CONTINUOUS
 62
    7
 10
313.35485285859068
 20
25.376787605901768
 40
0.2999999999999999
 50
0
 51
45.000000000000661
  0
ARC
  8
_0-0_
  6
CONTINUOUS
 62
    7
 10
313.35485285859068
 20
40.473843880749541
 40
0.2999999999999999
 50
314.99999999999966
 51
0
  0
ARC
  8
_0-0_
  6
CONTINUOUS
 62
    7
 10
313.65485285859063
 20
39.925315743325768
 40
0.3000000000000113
 50
135.0000000000019
 51
224.99999999999903
  0
ARC
  8
_0-0_
  6
CONTINUOUS
 62
    7
 10
313.35485285859068
 20
39.376787605901768
 40
0.2999999999999999
 50
0
 51
45.000000000000661
  0
LINE
  8
_0-0_
  6
CONTINUOUS
 62
    7
 10
267.73762485117322
 20
139.96474488804586
 11
267.73762485117322
 21
99.964744888045857
  0
LINE
  8
_0-0_
  6
CONTINUOUS
 62
    7
 10
187.73762485117322
 20
99.964744888045857
 11
187.73762485117322
 21
139.96474488804586
  0
LINE
  8
_0-0_
  6
CONTINUOUS
 62
    7
 10
313.15485285859063
 20
99.964744888045857
 11
299.15485285859063
 21
99.964744888045857
  0
LINE
  8
_0-0_
  6
CONTINUOUS
 62
    7
 10
298.65485285859063
 20
100.46474488804586
 11
298.65485285859063
 21
105.41621675062186
  0
LINE
  8
_0-0_
  6
CONTINUOUS
 62
    7
 10
298.74272082423477
 20
105.6283487849779
 11
298.86698489294668
 21
105.75261285368981
  0
LINE
  8
_0-0_
  6
CONTINUOUS
 62
    7
 10
298.86698489294668
 20
106.17687692240168
 11
298.74272082423477
 21
106.30114099111381
  0
LINE
  8
_0-0_
  6
CONTINUOUS
 62
    7
 10
298.65485285859063
 20
106.51327302546963
 11
298.65485285859063
 21
114.36474488804572
  0
LINE
  8
_0-0_
  6
CONTINUOUS
 62
    7
 10
299.15485285859063
 20
114.86474488804572
 11
300.93681886984086
 21
114.86474488804572
  0
LINE
  8
_0-0_
  6
CONTINUOUS
 62
    7
 10
301.16042566759074
 20
114.81195848354571
 11
301.97845965634065
 21
114.40294148917076
  0
LINE
  8
_0-0_
  6
CONTINUOUS
 62
    7
 10
302.25485285859077
 20
113.95572789367077
 11
302.25485285859077
 21
112.46474488804586
  0
LINE
  8
_0-0_
  6
CONTINUOUS
 62
    7
 10
302.75485285859077
 20
111.96474488804586
 11
306.44774607740419
 21
111.96474488804586
  0
LINE
  8
_0-0_
  6
CONTINUOUS
 62
    7
 10
306.8012994679973
 20
112.11119149745252
 11
308.50840624918396
 21
113.81829827863919
  0
LINE
  8
_0-0_
  6
CONTINUOUS
 62
    7
 10
308.65485285859063
 20
114.1718516692323
 11
308.65485285859063
 21
125.75763810685919
  0
LINE
  8
_0-0_
  6
CONTINUOUS
 62
    7
 10
308.50840624918396
 20
126.11119149745252
 11
306.8012994679973
 21
127.81829827863919
  0
LINE
  8
_0-0_
  6
CONTINUOUS
 62
    7
 10
306.44774607740419
 20
127.96474488804586
 11
302.75485285859077
 21
127.96474488804586
  0
LINE
  8
_0-0_
  6
CONTINUOUS
 62
    7
 10
302.25485285859077
 20
127.46474488804586
 11
302.25485285859077
 21
125.97376188242072
  0
LINE
  8
_0-0_
  6
CONTINUOUS
 62
    7
 10
301.97845965634065
 20
125.52654828692073
 11
301.16042566759074
 21
125.11753129254578
  0
LINE
  8
_0-0_
  6
CONTINUOUS
 62
    7
 10
300.93681886984086
 20
125.06474488804577
 11
299.15485285859063
 21
125.06474488804577
  0
LINE
  8
_0-0_
  6
CONTINUOUS
 62
    7
 10
298.65485285859063
 20
125.56474488804577
 11
298.65485285859063
 21
133.41621675062186
  0
LINE
  8
_0-0_
  6
CONTINUOUS
 62
    7
 10
298.74272082423477
 20
133.6283487849779
 11
298.86698489294668
 21
133.75261285368981
  0
LINE
  8
_0-0_
  6
CONTINUOUS
 62
    7
 10
298.86698489294668
 20
134.17687692240168
 11
298.74272082423477
 21
134.30114099111381
  0
LINE
  8
_0-0_
  6
CONTINUOUS
 62
    7
 10
298.65485285859063
 20
134.51327302546963
 11
298.65485285859063
 21
139.46474488804586
  0
LINE
  8
_0-0_
  6
CONTINUOUS
 62
    7
 10
299.15485285859063
 20
139.96474488804586
 11
313.15485285859063
 21
139.96474488804586
  0
LINE
  8
_0-0_
  6
CONTINUOUS
 62
    7
 10
313.65485285859063
 20
139.46474488804586
 11
313.65485285859063
 21
134.51327302546963
  0
LINE
  8
_0-0_
  6
CONTINUOUS
 62
    7
 10
313.56698489294672
 20
134.30114099111381
 11
313.44272082423481
 21
134.17687692240168
  0
LINE
  8
_0-0_
  6
CONTINUOUS
 62
    7
 10
313.44272082423481
 20
133.75261285368981
 11
313.56698489294672
 21
133.6283487849779
  0
LINE
  8
_0-0_
  6
CONTINUOUS
 62
    7
 10
313.65485285859063
 20
133.41621675062186
 11
313.65485285859063
 21
120.51327302546963
  0
LINE
  8
_0-0_
  6
CONTINUOUS
 62
    7
 10
313.56698489294672
 20
120.30114099111381
 11
313.44272082423481
 21
120.17687692240168
  0
LINE
  8
_0-0_
  6
CONTINUOUS
 62
    7
 10
313.44272082423481
 20
119.75261285368981
 11
313.56698489294672
 21
119.6283487849779
  0
LINE
  8
_0-0_
  6
CONTINUOUS
 62
    7
 10
313.65485285859063
 20
119.41621675062186
 11
313.65485285859063
 21
106.51327302546963
  0
LINE
  8
_0-0_
  6
CONTINUOUS
 62
    7
 10
313.56698489294672
 20
106.30114099111381
 11
313.44272082423481
 21
106.17687692240168
  0
LINE
  8
_0-0_
  6
CONTINUOUS
 62
    7
 10
313.44272082423481
 20
105.75261285368981
 11
313.56698489294672
 21
105.6283487849779
  0
LINE
  8
_0-0_
  6
CONTINUOUS
 62
    7
 10
313.65485285859086
 20
105.41621675062186
 11
313.65485285859063
 21
100.46474488804586
  0
ARC
  8
_0-0_
  6
CONTINUOUS
 62
    7
 10
299.15485285859063
 20
125.56474488804577
 40
0.5
 50
180
 51
270
  0
ARC
  8
_0-0_
  6
CONTINUOUS
 62
    7
 10
300.93681886984086
 20
125.56474488804577
 40
0.5
 50
270
 51
296.56505117707826
  0
ARC
  8
_0-0_
  6
CONTINUOUS
 62
    7
 10
301.75485285859077
 20
125.97376188242072
 40
0.5
 50
296.56505117707815
 51
0
  0
ARC
  8
_0-0_
  6
CONTINUOUS
 62
    7
 10
302.75485285859077
 20
127.46474488804586
 40
0.5
 50
90
 51
180
  0
ARC
  8
_0-0_
  6
CONTINUOUS
 62
    7
 10
306.44774607740419
 20
127.46474488804586
 40
0.5
 50
44.99999999999995
 51
89.999999999999943
  0
ARC
  8
_0-0_
  6
CONTINUOUS
 62
    7
 10
308.15485285859063
 20
125.75763810685919
 40
0.5
 50
0
 51
45.00000000000005
  0
ARC
  8
_0-0_
  6
CONTINUOUS
 62
    7
 10
299.15485285859063
 20
139.46474488804586
 40
0.5
 50
90
 51
180
  0
ARC
  8
_0-0_
  6
CONTINUOUS
 62
    7
 10
313.15485285859063
 20
139.46474488804586
 40
0.5
 50
0
 51
90
  0
ARC
  8
_0-0_
  6
CONTINUOUS
 62
    7
 10
313.15485285859063
 20
100.46474488804586
 40
0.5
 50
270
 51
0
  0
ARC
  8
_0-0_
  6
CONTINUOUS
 62
    7
 10
299.15485285859063
 20
100.46474488804586
 40
0.5
 50
180
 51
270
  0
ARC
  8
_0-0_
  6
CONTINUOUS
 62
    7
 10
308.15485285859063
 20
114.1718516692323
 40
0.5
 50
314.99999999999994
 51
0.0000000000000063
  0
ARC
  8
_0-0_
  6
CONTINUOUS
 62
    7
 10
306.44774607740419
 20
112.46474488804586
 40
0.5
 50
270.00000000000006
 51
315.00000000000006
  0
ARC
  8
_0-0_
  6
CONTINUOUS
 62
    7
 10
302.75485285859077
 20
112.46474488804586
 40
0.5
 50
180
 51
270
  0
ARC
  8
_0-0_
  6
CONTINUOUS
 62
    7
 10
301.75485285859077
 20
113.95572789367077
 40
0.5
 50
0
 51
63.434948822921854
  0
ARC
  8
_0-0_
  6
CONTINUOUS
 62
    7
 10
300.93681886984086
 20
114.36474488804572
 40
0.5
 50
63.434948822921726
 51
90
  0
ARC
  8
_0-0_
  6
CONTINUOUS
 62
    7
 10
299.15485285859063
 20
114.36474488804572
 40
0.5
 50
90
 51
180
  0
ARC
  8
_0-0_
  6
CONTINUOUS
 62
    7
 10
298.95485285859058
 20
134.51327302546963
 40
0.2999999999999999
 50
180
 51
225.00000000000034
  0
ARC
  8
_0-0_
  6
CONTINUOUS
 62
    7
 10
298.65485285859063
 20
133.96474488804586
 40
0.3000000000000113
 50
315.00000000000097
 51
44.999999999998067
  0
ARC
  8
_0-0_
  6
CONTINUOUS
 62
    7
 10
298.95485285859058
 20
133.41621675062186
 40
0.2999999999999999
 50
134.99999999999935
 51
180.00000000000003
  0
ARC
  8
_0-0_
  6
CONTINUOUS
 62
    7
 10
298.95485285859058
 20
106.51327302546963
 40
0.2999999999999999
 50
180
 51
225.00000000000034
  0
ARC
  8
_0-0_
  6
CONTINUOUS
 62
    7
 10
298.65485285859063
 20
105.96474488804586
 40
0.3000000000000113
 50
315.00000000000097
 51
44.999999999998067
  0
ARC
  8
_0-0_
  6
CONTINUOUS
 62
    7
 10
298.95485285859058
 20
105.41621675062186
 40
0.2999999999999999
 50
134.99999999999935
 51
180.00000000000003
  0
ARC
  8
_0-0_
  6
CONTINUOUS
 62
    7
 10
313.35485285859068
 20
106.51327302546963
 40
0.2999999999999999
 50
314.99999999999966
 51
0
  0
ARC
  8
_0-0_
  6
CONTINUOUS
 62
    7
 10
313.65485285859063
 20
105.96474488804586
 40
0.3000000000000113
 50
135.0000000000019
 51
224.99999999999903
  0
ARC
  8
_0-0_
  6
CONTINUOUS
 62
    7
 10
313.35485285859068
 20
105.41621675062186
 40
0.2999999999999999
 50
0
 51
45.000000000000661
  0
ARC
  8
_0-0_
  6
CONTINUOUS
 62
    7
 10
313.35485285859068
 20
120.51327302546963
 40
0.2999999999999999
 50
314.99999999999966
 51
0
  0
ARC
  8
_0-0_
  6
CONTINUOUS
 62
    7
 10
313.65485285859063
 20
119.96474488804586
 40
0.3000000000000113
 50
135.0000000000019
 51
224.99999999999903
  0
ARC
  8
_0-0_
  6
CONTINUOUS
 62
    7
 10
313.35485285859068
 20
119.41621675062186
 40
0.2999999999999999
 50
0
 51
45.000000000000661
  0
ARC
  8
_0-0_
  6
CONTINUOUS
 62
    7
 10
313.35485285859068
 20
134.51327302546963
 40
0.2999999999999999
 50
314.99999999999966
 51
0
  0
ARC
  8
_0-0_
  6
CONTINUOUS
 62
    7
 10
313.65485285859063
 20
133.96474488804586
 40
0.3000000000000113
 50
135.0000000000019
 51
224.99999999999903
  0
ARC
  8
_0-0_
  6
CONTINUOUS
 62
    7
 10
313.35485285859068
 20
133.41621675062186
 40
0.2999999999999999
 50
0
 51
45.000000000000661
  0
LINE
  8
_0-0_
  6
CONTINUOUS
 62
    7
 10
267.73762485117322
 20
99.964744888045857
 11
217.64353313457593
 21
99.964744888045857
  0
LINE
  8
_0-0_
  6
CONTINUOUS
 62
    7
 10
216.20092809796216
 20
99.964744888045857
 11
187.73762485117322
 21
99.964744888045857
  0
LINE
  8
_0-0_
  6
CONTINUOUS
 62
    7
 10
267.73762485117322
 20
114.86474488804572
 11
213.65109016735227
 21
114.86474488804572
  0
LINE
  8
_0-0_
  6
CONTINUOUS
 62
    7
 10
212.20848513073844
 20
114.86474488804572
 11
187.73762485117322
 21
114.86474488804572
  0
LINE
  8
_0-0_
  6
CONTINUOUS
 62
    7
 10
267.73762485117322
 20
125.06474488804577
 11
210.91800840455477
 21
125.06474488804577
  0
LINE
  8
_0-0_
  6
CONTINUOUS
 62
    7
 10
209.475403367941
 20
125.06474488804577
 11
187.73762485117322
 21
125.06474488804577
  0
LINE
  8
_0-0_
  6
CONTINUOUS
 62
    7
 10
187.73762485117322
 20
139.96474488804586
 11
205.48296040071727
 21
139.96474488804586
  0
LINE
  8
_0-0_
  6
CONTINUOUS
 62
    7
 10
206.92556543733104
 20
139.96474488804586
 11
267.73762485117322
 21
139.96474488804586
  0
TEXT
  8
_0-0_
 62
    7
 10
169.87759568528134
 20
145.50613257552061
 40
5
 41
1
 50
0
  1
BB40
  0
LINE
  8
_0-1_
  6
PHANTOM1
 62
  152
 10
204.01165688378961
 20
145.4557243665746
 11
217.95962843857382
 21
93.401185861594399
  0
LINE
  8
_0-1_
  6
PHANTOM1
 62
  152
 10
205.45426192040338
 20
145.4557243665746
 11
219.40223347518764
 21
93.401185861594399
  0
LINE
  8
_0-1_
  6
CENTER2
 62
  152
 10
26.004958443260989
 20
25.925315743325768
 11
63.004958443260989
 21
25.925315743325768
  0
LINE
  8
_0-1_
  6
CENTER2
 62
  152
 10
30.504958443260989
 20
21.425315743325768
 11
30.504958443260989
 21
30.425315743325768
  0
LINE
  8
_0-1_
  6
CENTER2
 62
  152
 10
58.504958443260989
 20
30.425315743325768
 11
58.504958443260989
 21
21.425315743325768
  0
LINE
  8
_0-1_
  6
CENTER2
 62
  152
 10
101.88572971852125
 20
30.425315743325768
 11
101.88572971852125
 21
21.425315743325768
  0
LINE
  8
_0-1_
  6
CENTER2
 62
  152
 10
97.385729718521247
 20
25.925315743325768
 11
154.38572971852125
 21
25.925315743325768
  0
LINE
  8
_0-1_
  6
CENTER2
 62
  152
 10
149.88572971852125
 20
21.425315743325768
 11
149.88572971852125
 21
30.425315743325768
  0
LINE
  8
_0-1_
  6
CENTER2
 62
  152
 10
189.23762485117322
 20
25.925315743325768
 11
266.23762485117322
 21
25.925315743325768
  0
LINE
  8
_0-1_
  6
CENTER2
 62
  152
 10
193.73762485117322
 20
21.425315743325768
 11
193.73762485117322
 21
30.425315743325768
  0
LINE
  8
_0-1_
  6
CENTER2
 62
  152
 10
261.73762485117322
 20
30.425315743325768
 11
261.73762485117322
 21
21.425315743325768
  0
LINE
  8
_0-1_
  6
CENTER1
 62
  152
 10
316.41761722273486
 20
39.925315743325768
 11
296.39934202273503
 21
39.925315743325768
  0
LINE
  8
_0-1_
  6
CENTER2
 62
  152
 10
296.39934202273503
 20
25.925315743325768
 11
316.41761722273486
 21
25.925315743325768
  0
LINE
  8
_0-1_
  6
CENTER2
 62
  152
 10
316.41761722273486
 20
11.925315743325768
 11
296.39934202273503
 21
11.925315743325768
  0
TEXT
  8
_0-0_
 62
    7
 10
6.8162708297431891
 20
56.899662070925046
 40
5
 41
1
 50
0
  1
BB4T-L40
  0
TEXT
  8
_0-0_
 62
    7
 10
77.86853624540538
 20
56.402793082004337
 40
5
 41
1
 50
0
  1
BB4T-L60
  0
TEXT
  8
_0-0_
 62
    7
 10
169.5408647012772
 20
56.899662070925046
 40
5
 41
1
 50
0
  1
BB4T-L80
  0
ENDSEC
  0
EOF
