  0
SECTION
  2
HEADER
  9
$ACADVER
  1
AC1009
  9
$INSBASE
 10
0
 20
0
 30
0
  9
$EXTMIN
 10
0
 20
0
  9
$EXTMAX
 10
1189
 20
841
  9
$LIMMIN
 10
0
 20
0
  9
$LIMMAX
 10
1189
 20
841
  9
$LTSCALE
 40
1
  0
ENDSEC
  0
SECTION
  2
TABLES
  0
TABLE
  2
LTYPE
 70
     9
  0
LTYPE
  2
CONTINUOUS
 70
    64
  3
実線
 72
    65
 73
     0
 40
0.0
  0
LTYPE
  2
DASHED1
 70
    64
  3
--  --  --  --  --  --  --  --  
 72
    65
 73
     2
 40
2.5
 49
1.25
 49
-1.25
  0
LTYPE
  2
DASHED2
 70
    64
  3
----    ----    ----    ----    
 72
    65
 73
     2
 40
5.0
 49
2.5
 49
-2.5
  0
LTYPE
  2
DASHED3
 70
    64
  3
------  ------  ------  ------  
 72
    65
 73
     2
 40
5.0
 49
3.75
 49
-1.25
  0
LTYPE
  2
CENTER1
 70
    64
  3
----- - ----- - ----- - ----- - 
 72
    65
 73
     4
 40
10.0
 49
6.25
 49
-1.25
 49
1.25
 49
-1.25
  0
LTYPE
  2
CENTER2
 70
    64
  3
----------  --  ----------  --  
 72
    65
 73
     4
 40
20.0
 49
12.5
 49
-2.5
 49
2.5
 49
-2.5
  0
LTYPE
  2
PHANTOM1
 70
    64
  3
--- - - --- - - --- - - --- - - 
 72
    65
 73
     6
 40
10.0
 49
3.25
 49
-1.25
 49
1.25
 49
-1.25
 49
1.25
 49
-1.25
  0
LTYPE
  2
PHANTOM2
 70
    64
  3
--------  -  -  --------  -  -  
 72
    65
 73
     6
 40
20.0
 49
10.0
 49
-2.5
 49
1.25
 49
-2.5
 49
1.25
 49
-2.5
  0
LTYPE
  2
DOT
 70
    64
  3
-   -   -   -   -   -   -   -   
 72
    65
 73
     2
 40
2.5
 49
0.625
 49
-1.875
  0
LTYPE
  2
DUMMY
 70
    64
  3
ダミー
 72
    65
 73
     0
 40
0.0
  0
LTYPE
  2
RAND1
 70
    64
  3
ランダム線1
 72
    65
 73
     4
 40
10.0
 49
1.0
 49
-2.0
 49
3.0
 49
-4.0
  0
LTYPE
  2
RAND2
 70
    64
  3
ランダム線2
 72
    65
 73
     4
 40
14.0
 49
2.0
 49
-3.0
 49
4.0
 49
-5.0
  0
LTYPE
  2
RAND3
 70
    64
  3
ランダム線3
 72
    65
 73
     4
 40
18.0
 49
3.0
 49
-4.0
 49
5.0
 49
-6.0
  0
LTYPE
  2
RAND4
 70
    64
  3
ランダム線4
 72
    65
 73
     4
 40
22.0
 49
4.0
 49
-5.0
 49
6.0
 49
-7.0
  0
LTYPE
  2
RAND5
 70
    64
  3
ランダム線5
 72
    65
 73
     4
 40
26.0
 49
5.0
 49
-6.0
 49
7.0
 49
-8.0
  0
LTYPE
  2
LONG1
 70
    64
  3
----------  --  ----------  --  
 72
    65
 73
     4
 40
40.0
 49
32.5
 49
-2.5
 49
2.5
 49
-2.5
  0
LTYPE
  2
LONG2
 70
    64
  3
--------  -  -  --------  -  -  
 72
    65
 73
     6
 40
40.0
 49
30.0
 49
-2.5
 49
1.25
 49
-2.5
 49
1.25
 49
-2.5
  0
LTYPE
  2
LONG3
 70
    64
  3
+++++++++++++++..+++++++++++++++
 72
    65
 73
     2
 40
40.0
 49
37.5
 49
-2.5
  0
LTYPE
  2
LONG4
 70
    64
  3
+++++++++++++++..+++++++++++++++
 72
    65
 73
     2
 40
80.0
 49
75.0
 49
-5.0
  0
LTYPE
  2
LONG5
 70
    64
  3
----------  --  ----------  --  
 72
    65
 73
     4
 40
60.0
 49
37.5
 49
-7.5
 49
7.5
 49
-7.5
  0
LTYPE
  2
dashed
 70
   64
  3
-------   -------------   ------
 72
   65
 73
    2
 40
7.5
 49
6
 49
-1.5
  0
LTYPE
  2
dashed_spaced
 70
   64
  3
----        --------        ----
 72
   65
 73
    2
 40
12
 49
6
 49
-6
  0
LTYPE
  2
long_dashed_dotted
 70
   64
  3
------------- --- --------------
 72
   65
 73
    4
 40
15.25
 49
12
 49
-1.5
 49
0.25
 49
-1.5
  0
LTYPE
  2
long_dashed_double-dotted
 70
   64
  3
----------- --- --- ------------
 72
   65
 73
    6
 40
17
 49
12
 49
-1.5
 49
0.25
 49
-1.5
 49
0.25
 49
-1.5
  0
LTYPE
  2
long_dashed_triplicate-dotted
 70
   64
  3
--------- --- --- --- ----------
 72
   65
 73
    8
 40
18.75
 49
12
 49
-1.5
 49
0.25
 49
-1.5
 49
0.25
 49
-1.5
 49
0.25
 49
-1.5
  0
LTYPE
  2
dotted
 70
   64
  3
   -       -       -       -    
 72
   65
 73
    2
 40
1.75
 49
0.25
 49
-1.5
  0
LTYPE
  2
chain
 70
   64
  3
-------------- -- --------------
 72
   65
 73
    4
 40
18.5
 49
12
 49
-1.5
 49
3.5
 49
-1.5
  0
LTYPE
  2
chain_double_dash
 70
   64
  3
------------ -- -- -------------
 72
   65
 73
    6
 40
23.5
 49
12
 49
-1.5
 49
3.5
 49
-1.5
 49
3.5
 49
-1.5
  0
LTYPE
  2
dashed_dotted
 70
   64
  3
-----------     -     ----------
 72
   65
 73
    4
 40
9.25
 49
6
 49
-1.5
 49
0.25
 49
-1.5
  0
LTYPE
  2
double-dashed_dotted
 70
   64
  3
------   -----------   -   -----
 72
   65
 73
    6
 40
16.75
 49
6
 49
-1.5
 49
6
 49
-1.5
 49
0.25
 49
-1.5
  0
LTYPE
  2
dashed_double-dotted
 70
   64
  3
---------    -    -    ---------
 72
   65
 73
    6
 40
11
 49
6
 49
-1.5
 49
0.25
 49
-1.5
 49
0.25
 49
-1.5
  0
LTYPE
  2
double-dashed_double-dotted
 70
   64
  3
-----   ---------   -   -   ----
 72
   65
 73
    8
 40
18.5
 49
6
 49
-1.5
 49
6
 49
-1.5
 49
0.25
 49
-1.5
 49
0.25
 49
-1.5
  0
LTYPE
  2
dashed_triplicate-dotted
 70
   64
  3
-------    -    -    -    ------
 72
   65
 73
    8
 40
12.75
 49
6
 49
-1.5
 49
0.25
 49
-1.5
 49
0.25
 49
-1.5
 49
0.25
 49
-1.5
  0
LTYPE
  2
double-dashed_triplicate-dotted
 70
   64
  3
-----  ---------  -  -  -  -----
 72
   65
 73
   10
 40
20.25
 49
6
 49
-1.5
 49
6
 49
-1.5
 49
0.25
 49
-1.5
 49
0.25
 49
-1.5
 49
0.25
 49
-1.5
  0
LTYPE
  2
undefined
 70
   64
  3
--------------------------------
 72
   65
 73
    0
 40
0
  0
ENDTAB
  0
TABLE
  2
STYLE
  5
3
100
AcDbSymbolTable
 70
     1
  0
STYLE
  5
10
100
AcDbSymbolTableRecord
100
AcDbTextStyleTableRecord
  2
STANDARD
 70
     0
 40
0.0
 41
1.0
 50
0.0
 71
     0
 42
0.2
  3
txt
  4
bigfont.shx
  0
STYLE
  5
26
100
AcDbSymbolTableRecord
100
AcDbTextStyleTableRecord
  2
TATEGAKI
 70
    68
 40
0.0
 41
1.0
 50
0.0
 71
     0
 42
1.0
  3
txt
  4
bigfont.shx
  0
ENDTAB
  0
TABLE
  2
LAYER
 70
    3
  0
LAYER
  2
_0-0_
 70
   64
 62
    7
  6
CONTINUOUS
  0
LAYER
  2
_0-1_
 70
   64
 62
    7
  6
CONTINUOUS
  0
LAYER
  2
ADD_LINE
 70
   64
 62
    7
  6
CONTINUOUS
  0
ENDTAB
  0
ENDSEC
  0
SECTION
  2
BLOCKS
  0
ENDSEC
  0
SECTION
  2
ENTITIES
  0
LINE
  8
_0-0_
  6
CONTINUOUS
 62
    7
 10
108.50190786734095
 20
4.7723081804840035
 11
68.501907867340947
 21
4.7723081804840035
  0
LINE
  8
_0-0_
  6
CONTINUOUS
 62
    7
 10
68.501907867340947
 20
4.7723081804840035
 11
68.501907867340947
 21
29.772308180484004
  0
LINE
  8
_0-0_
  6
CONTINUOUS
 62
    7
 10
68.501907867340947
 20
29.772308180484004
 11
108.50190786734095
 21
29.772308180484004
  0
LINE
  8
_0-0_
  6
CONTINUOUS
 62
    7
 10
108.50190786734095
 20
29.772308180484004
 11
108.50190786734095
 21
4.7723081804840035
  0
LINE
  8
_0-0_
  6
CONTINUOUS
 62
    7
 10
108.50190786734095
 20
13.672308180484094
 11
68.501907867340947
 21
13.672308180484094
  0
LINE
  8
_0-0_
  6
CONTINUOUS
 62
    7
 10
68.501907867340947
 20
20.872308180484367
 11
108.50190786734095
 21
20.872308180484367
  0
CIRCLE
  8
_0-0_
  6
CONTINUOUS
 62
    7
 10
72.001907867340947
 20
17.272308180484004
 40
2.25
  0
CIRCLE
  8
_0-0_
  6
CONTINUOUS
 62
    7
 10
105.00190786734095
 20
17.272308180484004
 40
2.25
  0
LINE
  8
_0-0_
  6
CONTINUOUS
 62
    7
 10
156.99657826324443
 20
5.0723081804837307
 11
156.99657826324443
 21
16.972308180484276
  0
LINE
  8
_0-0_
  6
CONTINUOUS
 62
    7
 10
156.99657826324443
 20
16.972308180484276
 11
156.6965782632447
 21
17.272308180484004
  0
LINE
  8
_0-0_
  6
CONTINUOUS
 62
    7
 10
156.6965782632447
 20
17.272308180484004
 11
156.99657826324443
 21
17.572308180483731
  0
LINE
  8
_0-0_
  6
CONTINUOUS
 62
    7
 10
156.99657826324443
 20
17.572308180483731
 11
156.99657826324443
 21
29.472308180484276
  0
LINE
  8
_0-0_
  6
CONTINUOUS
 62
    7
 10
156.6965782632447
 20
29.772308180484004
 11
147.29657826324461
 21
29.772308180484004
  0
LINE
  8
_0-0_
  6
CONTINUOUS
 62
    7
 10
146.99657826324443
 20
29.472308180484276
 11
146.99657826324443
 21
21.172308180484094
  0
LINE
  8
_0-0_
  6
CONTINUOUS
 62
    7
 10
147.29657826324461
 20
20.872308180484367
 11
148.49657826324443
 21
20.872308180484367
  0
LINE
  8
_0-0_
  6
CONTINUOUS
 62
    7
 10
148.79657826324461
 20
21.172308180484094
 11
148.79657826324461
 21
22.972308180484276
  0
LINE
  8
_0-0_
  6
CONTINUOUS
 62
    7
 10
149.09657826324479
 20
23.272308180484458
 11
151.87230826324418
 21
23.272308180484458
  0
LINE
  8
_0-0_
  6
CONTINUOUS
 62
    7
 10
152.08444826324472
 20
23.184438180484165
 11
153.10870826324486
 21
22.160168180484277
  0
LINE
  8
_0-0_
  6
CONTINUOUS
 62
    7
 10
153.19657826324425
 20
21.948038180484389
 11
153.19657826324425
 21
12.596568180483871
  0
LINE
  8
_0-0_
  6
CONTINUOUS
 62
    7
 10
153.10870826324486
 20
12.384438180483983
 11
152.08444826324472
 21
11.360168180484095
  0
LINE
  8
_0-0_
  6
CONTINUOUS
 62
    7
 10
151.87230826324418
 20
11.272308180484458
 11
149.09657826324479
 21
11.272308180484458
  0
LINE
  8
_0-0_
  6
CONTINUOUS
 62
    7
 10
148.79657826324461
 20
11.572308180484185
 11
148.79657826324461
 21
13.372308180484367
  0
LINE
  8
_0-0_
  6
CONTINUOUS
 62
    7
 10
148.49657826324443
 20
13.672308180484094
 11
147.29657826324461
 21
13.672308180484094
  0
LINE
  8
_0-0_
  6
CONTINUOUS
 62
    7
 10
146.99657826324443
 20
13.372308180484367
 11
146.99657826324443
 21
5.0723081804837307
  0
LINE
  8
_0-0_
  6
CONTINUOUS
 62
    7
 10
147.29657826324461
 20
4.7723081804840035
 11
156.6965782632447
 21
4.7723081804840035
  0
ARC
  8
_0-0_
  6
CONTINUOUS
 62
    7
 10
147.29657826324461
 20
13.372308180484367
 40
0.2999999999999998
 50
90
 51
180
  0
ARC
  8
_0-0_
  6
CONTINUOUS
 62
    7
 10
148.49657826324443
 20
13.372308180484367
 40
0.2999999999999998
 50
0
 51
90
  0
ARC
  8
_0-0_
  6
CONTINUOUS
 62
    7
 10
149.09657826324479
 20
11.572308180484185
 40
0.2999999999999998
 50
180
 51
270
  0
ARC
  8
_0-0_
  6
CONTINUOUS
 62
    7
 10
151.87230826324418
 20
11.572308180484185
 40
0.2999999999999998
 50
270
 51
315
  0
ARC
  8
_0-0_
  6
CONTINUOUS
 62
    7
 10
152.89657826324452
 20
12.596568180483871
 40
0.2999999999999998
 50
315.00000000000006
 51
0.0000000000000508
  0
ARC
  8
_0-0_
  6
CONTINUOUS
 62
    7
 10
151.87230826324418
 20
22.972308180484276
 40
0.2999999999999998
 50
45
 51
90
  0
ARC
  8
_0-0_
  6
CONTINUOUS
 62
    7
 10
148.49657826324443
 20
21.172308180484094
 40
0.2999999999999998
 50
270
 51
0
  0
ARC
  8
_0-0_
  6
CONTINUOUS
 62
    7
 10
147.29657826324461
 20
21.172308180484094
 40
0.2999999999999998
 50
180
 51
270
  0
ARC
  8
_0-0_
  6
CONTINUOUS
 62
    7
 10
149.09657826324479
 20
22.972308180484276
 40
0.2999999999999998
 50
90
 51
180
  0
ARC
  8
_0-0_
  6
CONTINUOUS
 62
    7
 10
152.89657826324452
 20
21.948038180484389
 40
0.2999999999999998
 50
0
 51
45
  0
ARC
  8
_0-0_
  6
CONTINUOUS
 62
    7
 10
156.6965782632447
 20
5.0723081804837307
 40
0.2999999999999998
 50
270
 51
0
  0
ARC
  8
_0-0_
  6
CONTINUOUS
 62
    7
 10
147.29657826324461
 20
5.0723081804837307
 40
0.2999999999999998
 50
180
 51
270
  0
ARC
  8
_0-0_
  6
CONTINUOUS
 62
    7
 10
156.6965782632447
 20
29.472308180484276
 40
0.2999999999999998
 50
0
 51
90
  0
ARC
  8
_0-0_
  6
CONTINUOUS
 62
    7
 10
147.29657826324461
 20
29.472308180484276
 40
0.2999999999999998
 50
90
 51
180
  0
LINE
  8
_0-0_
  6
CONTINUOUS
 62
    7
 10
5.2782919238773047
 20
29.772308180484004
 11
5.2782919238773047
 21
4.7723081804840035
  0
LINE
  8
_0-0_
  6
CONTINUOUS
 62
    7
 10
5.2782919238773047
 20
4.7723081804840035
 11
30.278291923877305
 21
4.7723081804840035
  0
LINE
  8
_0-0_
  6
CONTINUOUS
 62
    7
 10
30.278291923877305
 20
4.7723081804840035
 11
30.278291923877305
 21
29.772308180484004
  0
LINE
  8
_0-0_
  6
CONTINUOUS
 62
    7
 10
30.278291923877305
 20
29.772308180484004
 11
5.2782919238773047
 21
29.772308180484004
  0
LINE
  8
_0-0_
  6
CONTINUOUS
 62
    7
 10
5.2782919238773047
 20
20.872308180484367
 11
30.278291923877305
 21
20.872308180484367
  0
LINE
  8
_0-0_
  6
CONTINUOUS
 62
    7
 10
30.278291923877305
 20
13.672308180484094
 11
5.2782919238773047
 21
13.672308180484094
  0
CIRCLE
  8
_0-0_
  6
CONTINUOUS
 62
    7
 10
8.77829192387685
 20
17.272308180484004
 40
2.25
  0
CIRCLE
  8
_0-0_
  6
CONTINUOUS
 62
    7
 10
26.778291923877305
 20
17.272308180484004
 40
2.25
  0
LINE
  8
_0-0_
  6
CONTINUOUS
 62
    7
 10
68.501907867340947
 20
67.362163463216007
 11
68.501907867340947
 21
92.362163463216007
  0
LINE
  8
_0-0_
  6
CONTINUOUS
 62
    7
 10
108.50190786734095
 20
92.362163463216007
 11
108.50190786734095
 21
67.362163463216007
  0
LINE
  8
_0-0_
  6
CONTINUOUS
 62
    7
 10
156.99657826324443
 20
67.662163463215734
 11
156.99657826324443
 21
79.56216346321628
  0
LINE
  8
_0-0_
  6
CONTINUOUS
 62
    7
 10
156.99657826324443
 20
79.56216346321628
 11
156.6965782632447
 21
79.862163463216007
  0
LINE
  8
_0-0_
  6
CONTINUOUS
 62
    7
 10
156.6965782632447
 20
79.862163463216007
 11
156.99657826324443
 21
80.162163463215734
  0
LINE
  8
_0-0_
  6
CONTINUOUS
 62
    7
 10
156.99657826324443
 20
80.162163463215734
 11
156.99657826324443
 21
92.06216346321628
  0
LINE
  8
_0-0_
  6
CONTINUOUS
 62
    7
 10
156.6965782632447
 20
92.362163463216007
 11
147.29657826324461
 21
92.362163463216007
  0
LINE
  8
_0-0_
  6
CONTINUOUS
 62
    7
 10
146.99657826324443
 20
92.06216346321628
 11
146.99657826324443
 21
83.762163463216098
  0
LINE
  8
_0-0_
  6
CONTINUOUS
 62
    7
 10
147.29657826324461
 20
83.46216346321637
 11
148.49657826324443
 21
83.46216346321637
  0
LINE
  8
_0-0_
  6
CONTINUOUS
 62
    7
 10
148.79657826324461
 20
83.762163463216098
 11
148.79657826324461
 21
85.56216346321628
  0
LINE
  8
_0-0_
  6
CONTINUOUS
 62
    7
 10
149.09657826324479
 20
85.862163463216461
 11
151.87230826324418
 21
85.862163463216461
  0
LINE
  8
_0-0_
  6
CONTINUOUS
 62
    7
 10
152.08444826324472
 20
85.774293463216168
 11
153.10870826324486
 21
84.75002346321628
  0
LINE
  8
_0-0_
  6
CONTINUOUS
 62
    7
 10
153.19657826324425
 20
84.537893463216392
 11
153.19657826324425
 21
75.186423463215874
  0
LINE
  8
_0-0_
  6
CONTINUOUS
 62
    7
 10
153.10870826324486
 20
74.974293463215986
 11
152.08444826324472
 21
73.950023463216098
  0
LINE
  8
_0-0_
  6
CONTINUOUS
 62
    7
 10
151.87230826324418
 20
73.862163463216461
 11
149.09657826324479
 21
73.862163463216461
  0
LINE
  8
_0-0_
  6
CONTINUOUS
 62
    7
 10
148.79657826324461
 20
74.162163463216189
 11
148.79657826324461
 21
75.96216346321637
  0
LINE
  8
_0-0_
  6
CONTINUOUS
 62
    7
 10
148.49657826324443
 20
76.262163463216098
 11
147.29657826324461
 21
76.262163463216098
  0
LINE
  8
_0-0_
  6
CONTINUOUS
 62
    7
 10
146.99657826324443
 20
75.96216346321637
 11
146.99657826324443
 21
67.662163463215734
  0
LINE
  8
_0-0_
  6
CONTINUOUS
 62
    7
 10
147.29657826324461
 20
67.362163463216007
 11
156.6965782632447
 21
67.362163463216007
  0
ARC
  8
_0-0_
  6
CONTINUOUS
 62
    7
 10
147.29657826324461
 20
75.96216346321637
 40
0.2999999999999998
 50
90
 51
180
  0
ARC
  8
_0-0_
  6
CONTINUOUS
 62
    7
 10
148.49657826324443
 20
75.96216346321637
 40
0.2999999999999998
 50
0
 51
90
  0
ARC
  8
_0-0_
  6
CONTINUOUS
 62
    7
 10
149.09657826324479
 20
74.162163463216189
 40
0.2999999999999998
 50
180
 51
270
  0
ARC
  8
_0-0_
  6
CONTINUOUS
 62
    7
 10
151.87230826324418
 20
74.162163463216189
 40
0.2999999999999998
 50
270
 51
315
  0
ARC
  8
_0-0_
  6
CONTINUOUS
 62
    7
 10
152.89657826324452
 20
75.186423463215874
 40
0.2999999999999998
 50
315.00000000000006
 51
0.0000000000000508
  0
ARC
  8
_0-0_
  6
CONTINUOUS
 62
    7
 10
151.87230826324418
 20
85.56216346321628
 40
0.2999999999999998
 50
45
 51
90
  0
ARC
  8
_0-0_
  6
CONTINUOUS
 62
    7
 10
148.49657826324443
 20
83.762163463216098
 40
0.2999999999999998
 50
270
 51
0
  0
ARC
  8
_0-0_
  6
CONTINUOUS
 62
    7
 10
147.29657826324461
 20
83.762163463216098
 40
0.2999999999999998
 50
180
 51
270
  0
ARC
  8
_0-0_
  6
CONTINUOUS
 62
    7
 10
149.09657826324479
 20
85.56216346321628
 40
0.2999999999999998
 50
90
 51
180
  0
ARC
  8
_0-0_
  6
CONTINUOUS
 62
    7
 10
152.89657826324452
 20
84.537893463216392
 40
0.2999999999999998
 50
0
 51
45
  0
ARC
  8
_0-0_
  6
CONTINUOUS
 62
    7
 10
156.6965782632447
 20
67.662163463215734
 40
0.2999999999999998
 50
270
 51
0
  0
ARC
  8
_0-0_
  6
CONTINUOUS
 62
    7
 10
147.29657826324461
 20
67.662163463215734
 40
0.2999999999999998
 50
180
 51
270
  0
ARC
  8
_0-0_
  6
CONTINUOUS
 62
    7
 10
156.6965782632447
 20
92.06216346321628
 40
0.2999999999999998
 50
0
 51
90
  0
ARC
  8
_0-0_
  6
CONTINUOUS
 62
    7
 10
147.29657826324461
 20
92.06216346321628
 40
0.2999999999999998
 50
90
 51
180
  0
TEXT
  8
_0-0_
 62
    7
 10
5.2782919238773047
 20
29.772308180484004
 40
5
 41
1
 50
0
  1
BB2T-L25
  0
TEXT
  8
_0-0_
 62
    7
 10
68.501907867340947
 20
29.772308180484004
 40
5
 41
1
 50
0
  1
BB2T-L40
  0
TEXT
  8
_0-0_
 62
    7
 10
68.501907867340947
 20
92.362163463216007
 40
5
 41
1
 50
0
  1
BB25
  0
LINE
  8
_0-0_
  6
CONTINUOUS
 62
    7
 10
68.501907867340947
 20
92.362163463216007
 11
83.868597621757544
 21
92.362163463216007
  0
LINE
  8
_0-0_
  6
CONTINUOUS
 62
    7
 10
85.311202658371315
 20
92.362163463216007
 11
108.50190786734095
 21
92.362163463216007
  0
LINE
  8
_0-0_
  6
CONTINUOUS
 62
    7
 10
68.501907867340947
 20
83.46216346321637
 11
86.253345434394475
 21
83.46216346321637
  0
LINE
  8
_0-0_
  6
CONTINUOUS
 62
    7
 10
87.695950471008246
 20
83.46216346321637
 11
108.50190786734095
 21
83.46216346321637
  0
LINE
  8
_0-0_
  6
CONTINUOUS
 62
    7
 10
108.50190786734095
 20
76.262163463216098
 11
89.625184656512374
 21
76.262163463216098
  0
LINE
  8
_0-0_
  6
CONTINUOUS
 62
    7
 10
88.182579619898604
 20
76.262163463216098
 11
68.501907867340947
 21
76.262163463216098
  0
LINE
  8
_0-0_
  6
CONTINUOUS
 62
    7
 10
108.50190786734095
 20
67.362163463216007
 11
92.009932469149419
 21
67.362163463216007
  0
LINE
  8
_0-0_
  6
CONTINUOUS
 62
    7
 10
90.567327432535649
 20
67.362163463216007
 11
68.501907867340947
 21
67.362163463216007
  0
LINE
  8
_0-1_
  6
PHANTOM1
 62
  152
 10
83.382801771150639
 20
94.175178259787117
 11
91.150203731172326
 21
65.186839502176269
  0
LINE
  8
_0-1_
  6
PHANTOM1
 62
  152
 10
84.825406807764409
 20
94.175178259787117
 11
92.592808767786096
 21
65.186839502176269
  0
LINE
  8
_0-1_
  6
CENTER1
 62
  152
 10
69.751907867340947
 20
17.272308180484004
 11
74.251907867340947
 21
17.272308180484004
  0
LINE
  8
_0-1_
  6
CENTER1
 62
  152
 10
72.001907867340947
 20
19.522308180484458
 11
72.001907867340947
 21
15.022308180484458
  0
LINE
  8
_0-1_
  6
CENTER1
 62
  152
 10
102.75190786734095
 20
17.272308180484004
 11
107.25190786734095
 21
17.272308180484004
  0
LINE
  8
_0-1_
  6
CENTER1
 62
  152
 10
105.00190786734095
 20
15.022308180484458
 11
105.00190786734095
 21
19.522308180484458
  0
LINE
  8
_0-1_
  6
CENTER1
 62
  152
 10
8.77829192387685
 20
15.022308180484458
 11
8.77829192387685
 21
19.522308180484458
  0
LINE
  8
_0-1_
  6
CENTER1
 62
  152
 10
6.5282919238773047
 20
17.272308180484004
 11
11.02829192387685
 21
17.272308180484004
  0
LINE
  8
_0-1_
  6
CENTER1
 62
  152
 10
24.52829192387685
 20
17.272308180484004
 11
29.028291923877305
 21
17.272308180484004
  0
LINE
  8
_0-1_
  6
CENTER1
 62
  152
 10
26.778291923877305
 20
15.022308180484458
 11
26.778291923877305
 21
19.522308180484458
  0
LINE
  8
_0-1_
  6
CENTER1
 62
  152
 10
151.32392438058446
 20
17.272308180484004
 11
158.92319467145694
 21
17.272308180484004
  0
ENDSEC
  0
EOF
