  0
SECTION
  2
HEADER
  9
$ACADVER
  1
AC1009
  9
$INSBASE
 10
0
 20
0
 30
0
  9
$EXTMIN
 10
0
 20
0
  9
$EXTMAX
 10
1189
 20
841
  9
$LIMMIN
 10
0
 20
0
  9
$LIMMAX
 10
1189
 20
841
  9
$LTSCALE
 40
1
  0
ENDSEC
  0
SECTION
  2
TABLES
  0
TABLE
  2
LTYPE
 70
     9
  0
LTYPE
  2
CONTINUOUS
 70
    64
  3
実線
 72
    65
 73
     0
 40
0.0
  0
LTYPE
  2
DASHED1
 70
    64
  3
--  --  --  --  --  --  --  --  
 72
    65
 73
     2
 40
2.5
 49
1.25
 49
-1.25
  0
LTYPE
  2
DASHED2
 70
    64
  3
----    ----    ----    ----    
 72
    65
 73
     2
 40
5.0
 49
2.5
 49
-2.5
  0
LTYPE
  2
DASHED3
 70
    64
  3
------  ------  ------  ------  
 72
    65
 73
     2
 40
5.0
 49
3.75
 49
-1.25
  0
LTYPE
  2
CENTER1
 70
    64
  3
----- - ----- - ----- - ----- - 
 72
    65
 73
     4
 40
10.0
 49
6.25
 49
-1.25
 49
1.25
 49
-1.25
  0
LTYPE
  2
CENTER2
 70
    64
  3
----------  --  ----------  --  
 72
    65
 73
     4
 40
20.0
 49
12.5
 49
-2.5
 49
2.5
 49
-2.5
  0
LTYPE
  2
PHANTOM1
 70
    64
  3
--- - - --- - - --- - - --- - - 
 72
    65
 73
     6
 40
10.0
 49
3.25
 49
-1.25
 49
1.25
 49
-1.25
 49
1.25
 49
-1.25
  0
LTYPE
  2
PHANTOM2
 70
    64
  3
--------  -  -  --------  -  -  
 72
    65
 73
     6
 40
20.0
 49
10.0
 49
-2.5
 49
1.25
 49
-2.5
 49
1.25
 49
-2.5
  0
LTYPE
  2
DOT
 70
    64
  3
-   -   -   -   -   -   -   -   
 72
    65
 73
     2
 40
2.5
 49
0.625
 49
-1.875
  0
LTYPE
  2
DUMMY
 70
    64
  3
ダミー
 72
    65
 73
     0
 40
0.0
  0
LTYPE
  2
RAND1
 70
    64
  3
ランダム線1
 72
    65
 73
     4
 40
10.0
 49
1.0
 49
-2.0
 49
3.0
 49
-4.0
  0
LTYPE
  2
RAND2
 70
    64
  3
ランダム線2
 72
    65
 73
     4
 40
14.0
 49
2.0
 49
-3.0
 49
4.0
 49
-5.0
  0
LTYPE
  2
RAND3
 70
    64
  3
ランダム線3
 72
    65
 73
     4
 40
18.0
 49
3.0
 49
-4.0
 49
5.0
 49
-6.0
  0
LTYPE
  2
RAND4
 70
    64
  3
ランダム線4
 72
    65
 73
     4
 40
22.0
 49
4.0
 49
-5.0
 49
6.0
 49
-7.0
  0
LTYPE
  2
RAND5
 70
    64
  3
ランダム線5
 72
    65
 73
     4
 40
26.0
 49
5.0
 49
-6.0
 49
7.0
 49
-8.0
  0
LTYPE
  2
LONG1
 70
    64
  3
----------  --  ----------  --  
 72
    65
 73
     4
 40
40.0
 49
32.5
 49
-2.5
 49
2.5
 49
-2.5
  0
LTYPE
  2
LONG2
 70
    64
  3
--------  -  -  --------  -  -  
 72
    65
 73
     6
 40
40.0
 49
30.0
 49
-2.5
 49
1.25
 49
-2.5
 49
1.25
 49
-2.5
  0
LTYPE
  2
LONG3
 70
    64
  3
+++++++++++++++..+++++++++++++++
 72
    65
 73
     2
 40
40.0
 49
37.5
 49
-2.5
  0
LTYPE
  2
LONG4
 70
    64
  3
+++++++++++++++..+++++++++++++++
 72
    65
 73
     2
 40
80.0
 49
75.0
 49
-5.0
  0
LTYPE
  2
LONG5
 70
    64
  3
----------  --  ----------  --  
 72
    65
 73
     4
 40
60.0
 49
37.5
 49
-7.5
 49
7.5
 49
-7.5
  0
LTYPE
  2
dashed
 70
   64
  3
-------   -------------   ------
 72
   65
 73
    2
 40
7.5
 49
6
 49
-1.5
  0
LTYPE
  2
dashed_spaced
 70
   64
  3
----        --------        ----
 72
   65
 73
    2
 40
12
 49
6
 49
-6
  0
LTYPE
  2
long_dashed_dotted
 70
   64
  3
------------- --- --------------
 72
   65
 73
    4
 40
15.25
 49
12
 49
-1.5
 49
0.25
 49
-1.5
  0
LTYPE
  2
long_dashed_double-dotted
 70
   64
  3
----------- --- --- ------------
 72
   65
 73
    6
 40
17
 49
12
 49
-1.5
 49
0.25
 49
-1.5
 49
0.25
 49
-1.5
  0
LTYPE
  2
long_dashed_triplicate-dotted
 70
   64
  3
--------- --- --- --- ----------
 72
   65
 73
    8
 40
18.75
 49
12
 49
-1.5
 49
0.25
 49
-1.5
 49
0.25
 49
-1.5
 49
0.25
 49
-1.5
  0
LTYPE
  2
dotted
 70
   64
  3
   -       -       -       -    
 72
   65
 73
    2
 40
1.75
 49
0.25
 49
-1.5
  0
LTYPE
  2
chain
 70
   64
  3
-------------- -- --------------
 72
   65
 73
    4
 40
18.5
 49
12
 49
-1.5
 49
3.5
 49
-1.5
  0
LTYPE
  2
chain_double_dash
 70
   64
  3
------------ -- -- -------------
 72
   65
 73
    6
 40
23.5
 49
12
 49
-1.5
 49
3.5
 49
-1.5
 49
3.5
 49
-1.5
  0
LTYPE
  2
dashed_dotted
 70
   64
  3
-----------     -     ----------
 72
   65
 73
    4
 40
9.25
 49
6
 49
-1.5
 49
0.25
 49
-1.5
  0
LTYPE
  2
double-dashed_dotted
 70
   64
  3
------   -----------   -   -----
 72
   65
 73
    6
 40
16.75
 49
6
 49
-1.5
 49
6
 49
-1.5
 49
0.25
 49
-1.5
  0
LTYPE
  2
dashed_double-dotted
 70
   64
  3
---------    -    -    ---------
 72
   65
 73
    6
 40
11
 49
6
 49
-1.5
 49
0.25
 49
-1.5
 49
0.25
 49
-1.5
  0
LTYPE
  2
double-dashed_double-dotted
 70
   64
  3
-----   ---------   -   -   ----
 72
   65
 73
    8
 40
18.5
 49
6
 49
-1.5
 49
6
 49
-1.5
 49
0.25
 49
-1.5
 49
0.25
 49
-1.5
  0
LTYPE
  2
dashed_triplicate-dotted
 70
   64
  3
-------    -    -    -    ------
 72
   65
 73
    8
 40
12.75
 49
6
 49
-1.5
 49
0.25
 49
-1.5
 49
0.25
 49
-1.5
 49
0.25
 49
-1.5
  0
LTYPE
  2
double-dashed_triplicate-dotted
 70
   64
  3
-----  ---------  -  -  -  -----
 72
   65
 73
   10
 40
20.25
 49
6
 49
-1.5
 49
6
 49
-1.5
 49
0.25
 49
-1.5
 49
0.25
 49
-1.5
 49
0.25
 49
-1.5
  0
LTYPE
  2
undefined
 70
   64
  3
--------------------------------
 72
   65
 73
    0
 40
0
  0
LTYPE
  2
_
 70
   64
  3
                                
 72
   65
 73
    0
 40
0
  0
LTYPE
  2
__18
 70
   64
  3
                                
 72
   65
 73
    0
 40
0
  0
LTYPE
  2
__19
 70
   64
  3
                                
 72
   65
 73
    0
 40
0
  0
LTYPE
  2
__20
 70
   64
  3
                                
 72
   65
 73
    0
 40
0
  0
LTYPE
  2
__21
 70
   64
  3
                                
 72
   65
 73
    0
 40
0
  0
LTYPE
  2
__22
 70
   64
  3
                                
 72
   65
 73
    0
 40
0
  0
LTYPE
  2
__23
 70
   64
  3
                                
 72
   65
 73
    0
 40
0
  0
LTYPE
  2
__24
 70
   64
  3
                                
 72
   65
 73
    0
 40
0
  0
LTYPE
  2
__25
 70
   64
  3
                                
 72
   65
 73
    0
 40
0
  0
LTYPE
  2
__26
 70
   64
  3
                                
 72
   65
 73
    0
 40
0
  0
LTYPE
  2
__27
 70
   64
  3
                                
 72
   65
 73
    0
 40
0
  0
LTYPE
  2
__28
 70
   64
  3
                                
 72
   65
 73
    0
 40
0
  0
LTYPE
  2
__29
 70
   64
  3
                                
 72
   65
 73
    0
 40
0
  0
LTYPE
  2
__30
 70
   64
  3
                                
 72
   65
 73
    0
 40
0
  0
LTYPE
  2
__31
 70
   64
  3
                                
 72
   65
 73
    0
 40
0
  0
LTYPE
  2
__32
 70
   64
  3
                                
 72
   65
 73
    0
 40
0
  0
ENDTAB
  0
TABLE
  2
STYLE
  5
3
100
AcDbSymbolTable
 70
     1
  0
STYLE
  5
10
100
AcDbSymbolTableRecord
100
AcDbTextStyleTableRecord
  2
STANDARD
 70
     0
 40
0.0
 41
1.0
 50
0.0
 71
     0
 42
0.2
  3
txt
  4
bigfont.shx
  0
STYLE
  5
26
100
AcDbSymbolTableRecord
100
AcDbTextStyleTableRecord
  2
TATEGAKI
 70
    68
 40
0.0
 41
1.0
 50
0.0
 71
     0
 42
1.0
  3
txt
  4
bigfont.shx
  0
ENDTAB
  0
TABLE
  2
LAYER
 70
    4
  0
LAYER
  2
_0-0_
 70
   64
 62
    7
  6
CONTINUOUS
  0
LAYER
  2
_0-1_
 70
   64
 62
    7
  6
CONTINUOUS
  0
LAYER
  2
_0-f_
 70
   64
 62
    7
  6
CONTINUOUS
  0
LAYER
  2
ADD_LINE
 70
   64
 62
    7
  6
CONTINUOUS
  0
ENDTAB
  0
ENDSEC
  0
SECTION
  2
BLOCKS
  0
ENDSEC
  0
SECTION
  2
ENTITIES
  0
TEXT
  8
_0-f_
 62
    7
 10
0.4789004992366017
 20
0.6861385696795991
 40
4.2999999999999998
 41
0.744186046511628
 50
0
  1
ASFK_M16
  0
LINE
  8
_0-1_
  6
CENTER1
 62
  152
 10
542.20195798706231
 20
91.336939558636118
 11
630.82587558370608
 21
91.336939558636118
  0
LINE
  8
_0-1_
  6
CENTER1
 62
  152
 10
545.62381263246903
 20
143.29302155388837
 11
545.62381263246903
 21
129.92229987676114
  0
LINE
  8
_0-1_
  6
CENTER1
 62
  152
 10
585.62381263246891
 20
129.92229987676114
 11
585.62381263246891
 21
143.29302155388837
  0
LINE
  8
_0-1_
  6
CENTER1
 62
  152
 10
586.62381263246891
 20
113.89375860467692
 11
586.62381263246891
 21
23.814946633744626
  0
LINE
  8
_0-1_
  6
CENTER1
 62
  152
 10
556.20195798706038
 20
105.33693955863566
 11
571.82587558370608
 21
105.33693955863566
  0
LINE
  8
_0-1_
  6
CENTER1
 62
  152
 10
550.12381263246903
 20
83.084499255444939
 11
550.12381263246903
 21
99.624205982976605
  0
LINE
  8
ADD_LINE
  6
DOT
 62
  152
 10
560.12381263246982
 20
68.836939558636118
 11
560.83091941365558
 21
68.129832777449451
  0
LINE
  8
ADD_LINE
  6
DOT
 62
  152
 10
560.83091941365558
 20
69.544046339822785
 11
560.12381263246982
 21
68.836939558636118
  0
LINE
  8
_0-1_
  6
CENTER1
 62
  152
 10
542.20195798706231
 20
46.336939558636118
 11
630.82587558370608
 21
46.336939558636118
  0
LINE
  8
_0-1_
  6
CENTER1
 62
  152
 10
571.82587558370608
 20
32.336939558636118
 11
556.20195798706038
 21
32.336939558636118
  0
LINE
  8
_0-1_
  6
CENTER1
 62
  152
 10
594.32587558370608
 20
32.067386936934895
 11
578.70195798706038
 21
32.067386936934895
  0
LINE
  8
_0-1_
  6
CENTER1
 62
  152
 10
616.82587558370608
 20
32.336939558636118
 11
601.20195798706038
 21
32.336939558636118
  0
LINE
  8
_0-1_
  6
CENTER1
 62
  152
 10
623.12381263246891
 20
54.624205982976605
 11
623.12381263246891
 21
38.084499255444939
  0
LINE
  8
_0-1_
  6
CENTER1
 62
  152
 10
647.70917295059473
 20
67.836939558635208
 11
661.07989462772196
 21
67.836939558635208
  0
LINE
  8
_0-1_
  6
CENTER1
 62
  152
 10
661.07989462772196
 20
87.836939558636118
 11
647.70917295059473
 21
87.836939558636118
  0
LINE
  8
_0-1_
  6
CENTER1
 62
  152
 10
654.62381263246891
 20
18.336939558636118
 11
654.62381263246891
 21
92.988666478180789
  0
LINE
  8
_0-1_
  6
CENTER1
 62
  152
 10
661.07989462772196
 20
27.836939558636118
 11
647.70917295059473
 21
27.836939558636118
  0
LINE
  8
_0-1_
  6
CENTER1
 62
  152
 10
672.93746062063758
 20
114.83693955863612
 11
704.31016464246943
 21
114.83693955863612
  0
LINE
  8
_0-1_
  6
CENTER1
 62
  152
 10
612.22602971579101
 20
136.83693955863578
 11
534.62905959496061
 21
136.83693955863578
  0
LINE
  8
_0-1_
  6
CENTER1
 62
  152
 10
605.62381263246891
 20
129.92229987676114
 11
605.62381263246891
 21
143.29302155388837
  0
LINE
  8
_0-1_
  6
CENTER1
 62
  152
 10
564.12381263246891
 20
24.084499255444939
 11
564.12381263246891
 21
113.6242059829766
  0
LINE
  8
_0-1_
  6
CENTER1
 62
  152
 10
609.12381263246891
 20
113.6242059829766
 11
609.12381263246891
 21
24.084499255444939
  0
LINE
  8
_0-1_
  6
CENTER1
 62
  152
 10
616.82587558370608
 20
105.33693955863566
 11
601.20195798706038
 21
105.33693955863566
  0
LINE
  8
_0-1_
  6
CENTER1
 62
  152
 10
623.12381263246891
 20
83.084499255444939
 11
623.12381263246891
 21
99.624205982976605
  0
LINE
  8
_0-1_
  6
CENTER1
 62
  152
 10
623.39336525417013
 20
60.584499255444939
 11
623.39336525417013
 21
77.124205982976605
  0
LINE
  8
_0-1_
  6
CENTER1
 62
  152
 10
541.93240536536109
 20
68.836939558636118
 11
631.09542820540548
 21
68.836939558636118
  0
LINE
  8
_0-1_
  6
CENTER1
 62
  152
 10
549.85426001076962
 20
60.584499255444939
 11
549.85426001076962
 21
77.124205982976605
  0
LINE
  8
_0-1_
  6
CENTER1
 62
  152
 10
550.12381263246903
 20
38.084499255444939
 11
550.12381263246903
 21
54.624205982976605
  0
LINE
  8
_0-1_
  6
CENTER1
 62
  152
 10
688.62381263246891
 20
96.836939558636118
 11
688.62381263246891
 21
132.83693955863623
  0
ARC
  8
_0-1_
  6
DASHED2
 62
  152
 10
539.62381263246903
 20
283.23208264311813
 40
2
 50
180
 51
270
  0
ARC
  8
_0-1_
  6
DASHED2
 62
  152
 10
660.29615815290265
 20
279.23208264311768
 40
2
 50
3.0000000000006275
 51
89.999999999999986
  0
LINE
  8
_0-1_
  6
CONTINUOUS
 62
  152
 10
681.52381272783634
 20
333.23208264311859
 11
681.52381272783634
 21
301.73208664497031
  0
LINE
  8
_0-1_
  6
CONTINUOUS
 62
  152
 10
695.72381253710239
 20
301.73208664311812
 11
695.72381253710239
 21
333.23208264311859
  0
LINE
  8
_0-1_
  6
CONTINUOUS
 62
  152
 10
680.62381263246891
 20
332.33208302458831
 11
696.62381263246982
 21
332.33208302458831
  0
LINE
  8
_0-1_
  6
CENTER1
 62
  152
 10
688.62381263246891
 20
187.23208264311856
 11
688.62381263246891
 21
335.23208264311859
  0
LINE
  8
_0-1_
  6
CENTER1
 62
  152
 10
586.62381263246891
 20
291.73208264311859
 11
586.62381263246891
 21
187.23208264311856
  0
LINE
  8
ADD_LINE
  6
DOT
 62
  152
 10
613.12381263246891
 20
219.7320826431181
 11
612.41670585128315
 21
219.02497586193144
  0
LINE
  8
ADD_LINE
  6
DOT
 62
  152
 10
612.41670585128315
 20
220.43918942430477
 11
613.12381263246891
 21
219.7320826431181
  0
LINE
  8
_0-1_
  6
CENTER1
 62
  152
 10
555.12381263246891
 20
219.7320826431181
 11
625.12381263246891
 21
219.7320826431181
  0
LINE
  8
_0-1_
  6
DASHED2
 62
  152
 10
660.29615815290265
 20
281.23208264311813
 11
539.62381263246903
 21
281.23208264311813
  0
LINE
  8
_0-1_
  6
DASHED2
 62
  152
 10
662.59263104381091
 20
273.62741473063204
 11
662.29341722241327
 21
279.33675455560376
  0
LINE
  8
_0-1_
  6
CONTINUOUS
 62
  152
 10
680.62381263246891
 20
237.17323675112524
 11
681.52381272783634
 21
238.73208264311856
  0
LINE
  8
_0-1_
  6
CONTINUOUS
 62
  152
 10
681.52381272783634
 20
238.73208264311856
 11
681.52381272783634
 21
258.73208664497031
  0
LINE
  8
_0-1_
  6
CONTINUOUS
 62
  152
 10
696.62381263246982
 20
238.73208264311856
 11
680.62381263246891
 21
238.73208264311856
  0
LINE
  8
_0-1_
  6
CONTINUOUS
 62
  152
 10
695.72381253710239
 20
238.73208264311856
 11
696.62381263246982
 21
237.17323675112524
  0
LINE
  8
_0-1_
  6
CONTINUOUS
 62
  152
 10
695.72381253710239
 20
258.73208664497031
 11
695.72381253710239
 21
238.73208264311856
  0
ARC
  8
_0-1_
  6
DASHED2
 62
  152
 10
793.41052744477417
 20
279.23208264311813
 40
2
 50
90
 51
176.99999999999943
  0
ARC
  8
_0-1_
  6
DASHED2
 62
  152
 10
914.99284070921237
 20
282.73208264311813
 40
1.5
 50
270
 51
357
  0
ARC
  8
_0-1_
  6
DASHED2
 62
  152
 10
789.1167954843562
 20
273.73208664311858
 40
2
 50
270
 51
357
  0
LINE
  8
_0-1_
  6
CONTINUOUS
 62
  152
 10
829.0665691463895
 20
333.2320826431195
 11
829.0665691463895
 21
301.73208664311858
  0
LINE
  8
_0-1_
  6
CONTINUOUS
 62
  152
 10
814.86656933712436
 20
301.73208664497031
 11
814.86656933712436
 21
333.2320826431195
  0
LINE
  8
_0-1_
  6
CONTINUOUS
 62
  152
 10
829.96656924175693
 20
332.33208302458831
 11
813.96656924175693
 21
332.33208302458831
  0
LINE
  8
_0-1_
  6
CENTER1
 62
  152
 10
821.96656924175693
 20
187.23208264311901
 11
821.96656924175693
 21
333.2320826431195
  0
LINE
  8
_0-1_
  6
CONTINUOUS
 62
  152
 10
813.96656924175693
 20
237.17323675112524
 11
814.86656933712436
 21
238.73208264311901
  0
LINE
  8
_0-1_
  6
CONTINUOUS
 62
  152
 10
829.0665691463895
 20
238.73208264311901
 11
829.96656924175693
 21
237.17323675112524
  0
LINE
  8
_0-1_
  6
CONTINUOUS
 62
  152
 10
829.0665691463895
 20
258.73208664497031
 11
829.0665691463895
 21
238.73208264311901
  0
LINE
  8
_0-1_
  6
CONTINUOUS
 62
  152
 10
814.86656933712436
 20
238.73208264311901
 11
814.86656933712436
 21
258.73208664497031
  0
LINE
  8
_0-1_
  6
CONTINUOUS
 62
  152
 10
829.96656924175693
 20
238.73208264311901
 11
813.96656924175693
 21
238.73208264311901
  0
LINE
  8
_0-1_
  6
CENTER1
 62
  152
 10
835.46656924175784
 20
219.7320826431181
 11
900.46656924175693
 21
219.7320826431181
  0
LINE
  8
_0-1_
  6
CENTER1
 62
  152
 10
867.96656924175693
 20
213.57683123215733
 11
867.96656924175693
 21
286.47359597566754
  0
LINE
  8
_0-1_
  6
DASHED2
 62
  152
 10
791.41326837526447
 20
279.33675455560422
 11
791.11405455386591
 21
273.62741473063249
  0
LINE
  8
_0-1_
  6
DASHED2
 62
  152
 10
914.99284070921237
 20
281.23208264311813
 11
793.41052744477417
 21
281.23208264311813
  0
LINE
  8
_0-1_
  6
CENTER1
 62
  152
 10
383.32299403246907
 20
129.92229987676114
 11
383.32299403246907
 21
143.29302155388814
  0
LINE
  8
_0-1_
  6
CENTER1
 62
  152
 10
423.32299403246907
 20
143.29302155388814
 11
423.32299403246907
 21
129.92229987676114
  0
LINE
  8
_0-1_
  6
CENTER1
 62
  152
 10
356.72077694914697
 20
136.83693955863555
 11
434.3177470699784
 21
136.83693955863555
  0
LINE
  8
_0-1_
  6
CENTER1
 62
  152
 10
363.32299403246907
 20
129.92229987676114
 11
363.32299403246907
 21
143.29302155388814
  0
LINE
  8
_0-1_
  6
CENTER1
 62
  152
 10
353.50441371193847
 20
91.336939558636118
 11
338.12093108123281
 21
91.336939558636118
  0
LINE
  8
_0-1_
  6
CENTER1
 62
  152
 10
382.32299403246907
 20
68.858932478635893
 11
382.32299403246907
 21
23.814946633744626
  0
LINE
  8
_0-1_
  6
CENTER1
 62
  152
 10
345.82299403246907
 20
38.084499255444939
 11
345.82299403246907
 21
54.624205982976605
  0
LINE
  8
_0-1_
  6
CENTER1
 62
  152
 10
351.11001411304551
 20
46.336939558636118
 11
338.12093108123281
 21
46.336939558636118
  0
LINE
  8
_0-1_
  6
CENTER1
 62
  152
 10
401.24313919752785
 20
46.336939558636118
 11
363.72528180404697
 21
46.336939558636118
  0
LINE
  8
ADD_LINE
  6
DOT
 62
  152
 10
408.82299403246907
 20
43.836939558635663
 11
408.1158872512824
 21
44.54404633982233
  0
LINE
  8
ADD_LINE
  6
DOT
 62
  152
 10
408.1158872512824
 20
43.129832777448996
 11
408.82299403246907
 21
43.836939558635663
  0
LINE
  8
_0-1_
  6
CENTER1
 62
  152
 10
404.82299403246907
 20
24.084499255444939
 11
404.82299403246907
 21
39.981003286092005
  0
LINE
  8
_0-1_
  6
CENTER1
 62
  152
 10
427.014401299577
 20
68.836939558636118
 11
413.14851463281047
 21
68.836939558636118
  0
LINE
  8
_0-1_
  6
CENTER1
 62
  152
 10
411.14157435299967
 20
91.336939558636118
 11
426.74484867787669
 21
91.336939558636118
  0
LINE
  8
_0-1_
  6
CENTER1
 62
  152
 10
418.82299403246907
 20
83.084499255444939
 11
418.82299403246907
 21
99.624205982976605
  0
LINE
  8
_0-1_
  6
CENTER1
 62
  152
 10
419.09254665416938
 20
60.584499255444939
 11
419.09254665416938
 21
77.124205982976605
  0
LINE
  8
_0-1_
  6
CENTER1
 62
  152
 10
418.82299403246907
 20
38.084499255444939
 11
418.82299403246907
 21
54.624205982976605
  0
LINE
  8
_0-1_
  6
CENTER1
 62
  152
 10
415.18672549944677
 20
46.336939558636118
 11
426.74484867787669
 21
46.336939558636118
  0
LINE
  8
_0-1_
  6
CENTER1
 62
  152
 10
412.7448486778776
 20
105.33693955863566
 11
397.12093108123281
 21
105.33693955863566
  0
LINE
  8
_0-1_
  6
CENTER1
 62
  152
 10
404.82299403246907
 20
95.06353757826912
 11
404.82299403246907
 21
113.6242059829766
  0
LINE
  8
_0-1_
  6
CENTER1
 62
  152
 10
359.82299403246907
 20
95.06353757826912
 11
359.82299403246907
 21
113.6242059829766
  0
LINE
  8
_0-1_
  6
CENTER1
 62
  152
 10
367.7448486778776
 20
105.33693955863566
 11
352.12093108123281
 21
105.33693955863566
  0
LINE
  8
_0-1_
  6
CENTER1
 62
  152
 10
345.82299403246907
 20
83.084499255444939
 11
345.82299403246907
 21
99.624205982976605
  0
LINE
  8
_0-1_
  6
CENTER1
 62
  152
 10
345.55344141076876
 20
60.584499255444939
 11
345.55344141076876
 21
77.124205982976605
  0
LINE
  8
_0-1_
  6
CENTER1
 62
  152
 10
337.8513784595325
 20
68.836939558636118
 11
351.49747343212675
 21
68.836939558636118
  0
LINE
  8
_0-1_
  6
CENTER1
 62
  152
 10
321.23763371434416
 20
67.836939558635208
 11
307.86691203721693
 21
67.836939558635208
  0
LINE
  8
_0-1_
  6
CENTER1
 62
  152
 10
307.86691203721693
 20
87.836939558636118
 11
321.23763371434416
 21
87.836939558636118
  0
LINE
  8
_0-1_
  6
CENTER1
 62
  152
 10
314.32299403246907
 20
18.336939558636118
 11
314.32299403246907
 21
92.988666478180789
  0
LINE
  8
_0-1_
  6
CENTER1
 62
  152
 10
307.86691203721693
 20
27.836939558636118
 11
321.23763371434416
 21
27.836939558636118
  0
LINE
  8
_0-1_
  6
CENTER1
 62
  152
 10
296.0093460443004
 20
114.83693955863612
 11
264.63664202246855
 21
114.83693955863612
  0
LINE
  8
_0-1_
  6
CENTER1
 62
  152
 10
280.32299403246907
 20
132.83693955863623
 11
280.32299403246907
 21
96.836939558636118
  0
ARC
  8
_0-1_
  6
DASHED2
 62
  152
 10
308.65064851203533
 20
279.23208264311813
 40
2
 50
90
 51
176.99999999999937
  0
ARC
  8
_0-1_
  6
DASHED2
 62
  152
 10
429.32299403246907
 20
283.23208264311813
 40
2
 50
270
 51
0
  0
LINE
  8
_0-1_
  6
CENTER1
 62
  152
 10
382.32299403246907
 20
187.23208264311901
 11
382.32299403246907
 21
291.73208264311904
  0
LINE
  8
ADD_LINE
  6
DOT
 62
  152
 10
355.82299403246907
 20
219.73208264311856
 11
356.53010081365574
 21
219.02497586193189
  0
LINE
  8
ADD_LINE
  6
DOT
 62
  152
 10
356.53010081365574
 20
220.43918942430523
 11
355.82299403246907
 21
219.73208264311856
  0
LINE
  8
_0-1_
  6
CENTER1
 62
  152
 10
343.82299403246907
 20
219.73208264311856
 11
413.82299403246907
 21
219.73208264311856
  0
LINE
  8
_0-1_
  6
CONTINUOUS
 62
  152
 10
288.32299403246907
 20
332.33208302458797
 11
272.32299403246907
 21
332.33208302458797
  0
LINE
  8
_0-1_
  6
CONTINUOUS
 62
  152
 10
287.42299393710164
 20
301.73208664497031
 11
287.42299393710164
 21
333.23208264311916
  0
LINE
  8
_0-1_
  6
CONTINUOUS
 62
  152
 10
273.2229941278365
 20
301.73208664311858
 11
273.2229941278365
 21
333.23208264311916
  0
LINE
  8
_0-1_
  6
CENTER1
 62
  152
 10
280.32299403246907
 20
187.23208264311901
 11
280.32299403246907
 21
335.23208264311825
  0
LINE
  8
_0-1_
  6
CONTINUOUS
 62
  152
 10
273.2229941278365
 20
238.73208264311901
 11
272.32299403246907
 21
237.17323675112524
  0
LINE
  8
_0-1_
  6
DASHED2
 62
  152
 10
306.65338944252562
 20
279.33675455560422
 11
306.35417562112707
 21
273.62741473063249
  0
LINE
  8
_0-1_
  6
DASHED2
 62
  152
 10
429.32299403246907
 20
281.23208264311813
 11
308.65064851203533
 21
281.23208264311813
  0
LINE
  8
_0-1_
  6
CONTINUOUS
 62
  152
 10
273.2229941278365
 20
238.73208264311901
 11
273.2229941278365
 21
258.73208664497031
  0
LINE
  8
_0-1_
  6
CONTINUOUS
 62
  152
 10
288.32299403246907
 20
238.73208264311901
 11
272.32299403246907
 21
238.73208264311901
  0
LINE
  8
_0-1_
  6
CONTINUOUS
 62
  152
 10
287.42299393710164
 20
238.73208264311901
 11
288.32299403246907
 21
237.17323675112524
  0
LINE
  8
_0-1_
  6
CONTINUOUS
 62
  152
 10
287.42299393710164
 20
258.73208664497031
 11
287.42299393710164
 21
238.73208264311901
  0
ARC
  8
_0-1_
  6
DASHED2
 62
  152
 10
179.83001118058087
 20
273.73208664311858
 40
2
 50
183.00000000000003
 51
270
  0
ARC
  8
_0-1_
  6
DASHED2
 62
  152
 10
53.953965955725607
 20
282.73208264311813
 40
1.5
 50
183.00000000000003
 51
270
  0
ARC
  8
_0-1_
  6
DASHED2
 62
  152
 10
175.53627922016381
 20
279.23208264311813
 40
2
 50
3.0000000000005773
 51
90
  0
LINE
  8
_0-1_
  6
CONTINUOUS
 62
  152
 10
154.98023742318014
 20
237.17323675112524
 11
154.08023732781362
 21
238.73208264311901
  0
LINE
  8
_0-1_
  6
CENTER1
 62
  152
 10
146.98023742318105
 20
333.23208264311916
 11
146.98023742318105
 21
187.23208264311901
  0
LINE
  8
_0-1_
  6
CONTINUOUS
 62
  152
 10
154.98023742318014
 20
332.33208302458797
 11
138.98023742318105
 21
332.33208302458797
  0
LINE
  8
_0-1_
  6
CONTINUOUS
 62
  152
 10
154.08023732781362
 20
301.73208664497031
 11
154.08023732781362
 21
333.23208264311916
  0
LINE
  8
_0-1_
  6
CONTINUOUS
 62
  152
 10
139.88023751854757
 20
301.73208664311858
 11
139.88023751854757
 21
333.23208264311916
  0
LINE
  8
_0-1_
  6
CONTINUOUS
 62
  152
 10
154.08023732781362
 20
238.73208264311901
 11
154.08023732781362
 21
258.73208664497031
  0
LINE
  8
_0-1_
  6
CONTINUOUS
 62
  152
 10
138.98023742318105
 20
238.73208264311901
 11
154.98023742318014
 21
238.73208264311901
  0
LINE
  8
_0-1_
  6
CONTINUOUS
 62
  152
 10
139.88023751854757
 20
238.73208264311901
 11
138.98023742318105
 21
237.17323675112524
  0
LINE
  8
_0-1_
  6
CONTINUOUS
 62
  152
 10
139.88023751854757
 20
258.73208664497031
 11
139.88023751854757
 21
238.73208264311901
  0
LINE
  8
_0-1_
  6
CENTER1
 62
  152
 10
108.48023742318105
 20
219.7320826431181
 11
43.480237423181052
 21
219.7320826431181
  0
LINE
  8
_0-1_
  6
CENTER1
 62
  152
 10
75.980237423181052
 20
252.2320826431181
 11
75.980237423181052
 21
187.2320826431181
  0
LINE
  8
_0-1_
  6
CENTER1
 62
  152
 10
100.98023742318105
 20
286.47359597566754
 11
100.98023742318105
 21
213.57683123215733
  0
LINE
  8
_0-1_
  6
DASHED2
 62
  152
 10
177.53353828967261
 20
279.33675455560422
 11
177.83275211107207
 21
273.62741473063249
  0
LINE
  8
_0-1_
  6
DASHED2
 62
  152
 10
53.953965955725607
 20
281.23208264311813
 11
175.53627922016381
 21
281.23208264311813
  0
LINE
  8
_0-1_
  6
PHANTOM1
 62
  152
 10
825.47106953362379
 20
396.05005921088571
 11
774.27420232764393
 21
382.33189998803994
  0
LINE
  8
_0-1_
  6
PHANTOM1
 62
  152
 10
779.96656924090189
 20
291.73208264311813
 11
779.96656924090189
 21
383.85716510546911
  0
LINE
  8
_0-1_
  6
PHANTOM1
 62
  152
 10
819.96656924090189
 20
291.73208264311813
 11
819.96656924090189
 21
394.57513280271394
  0
LINE
  8
_0-1_
  6
PHANTOM1
 62
  152
 10
954.47513033693713
 20
331.73208264311813
 11
819.96656924090189
 21
331.73208264311813
  0
LINE
  8
_0-1_
  6
PHANTOM1
 62
  152
 10
955.62401371991018
 20
336.01977380034509
 11
942.29142406102017
 21
286.2618717969001
  0
LINE
  8
_0-1_
  6
PHANTOM1
 62
  152
 10
943.7571626396923
 20
291.73208264311813
 11
819.96656924090189
 21
291.73208264311813
  0
LINE
  8
_0-1_
  6
PHANTOM1
 62
  152
 10
674.62381262960264
 20
394.57513280271394
 11
674.62381262960264
 21
291.73208264311813
  0
LINE
  8
_0-1_
  6
PHANTOM1
 62
  152
 10
680.15693851283106
 20
396.05772941474481
 11
629.26301134949006
 21
382.42074273167918
  0
LINE
  8
_0-1_
  6
PHANTOM1
 62
  152
 10
634.62381262960264
 20
383.85716510546911
 11
634.62381262960264
 21
291.73208264311813
  0
LINE
  8
_0-1_
  6
PHANTOM1
 62
  152
 10
674.62381262960264
 20
291.73208264311813
 11
515.92546260462314
 21
291.73208264311813
  0
LINE
  8
_0-1_
  6
PHANTOM1
 62
  152
 10
527.79231368484102
 20
336.01977380034509
 11
514.459724025951
 21
286.2618717969001
  0
LINE
  8
_0-1_
  6
PHANTOM1
 62
  152
 10
526.64343030186808
 20
331.73208264311836
 11
634.62381262960264
 21
331.73208264311836
  0
LINE
  8
_0-1_
  6
PHANTOM1
 62
  152
 10
294.32299403246896
 20
291.73208264311813
 11
453.02134405744846
 21
291.73208264311813
  0
LINE
  8
_0-1_
  6
PHANTOM1
 62
  152
 10
441.15449297723052
 20
336.01977380034509
 11
454.48708263612053
 21
286.2618717969001
  0
LINE
  8
_0-1_
  6
PHANTOM1
 62
  152
 10
442.30337636020352
 20
331.73208264311836
 11
334.32299403246896
 21
331.73208264311836
  0
LINE
  8
_0-1_
  6
PHANTOM1
 62
  152
 10
334.32299403246896
 20
383.85716510546911
 11
334.32299403246896
 21
291.73208264311813
  0
LINE
  8
_0-1_
  6
PHANTOM1
 62
  152
 10
294.32299403246896
 20
394.57513280271394
 11
294.32299403246896
 21
291.73208264311813
  0
LINE
  8
_0-1_
  6
PHANTOM1
 62
  152
 10
288.78986814924053
 20
396.05772941474481
 11
339.68379531258154
 21
382.42074273167918
  0
LINE
  8
_0-1_
  6
PHANTOM1
 62
  152
 10
143.47573713131413
 20
396.05005921088571
 11
194.6726043372941
 21
382.33189998803994
  0
LINE
  8
_0-1_
  6
PHANTOM1
 62
  152
 10
188.98023742403609
 20
291.73208264311813
 11
188.98023742403609
 21
383.85716510546911
  0
LINE
  8
_0-1_
  6
PHANTOM1
 62
  152
 10
148.98023742403609
 20
291.73208264311813
 11
148.98023742403609
 21
394.57513280271394
  0
LINE
  8
_0-1_
  6
PHANTOM1
 62
  152
 10
14.471676328000854
 20
331.73208264311813
 11
148.98023742403609
 21
331.73208264311813
  0
LINE
  8
_0-1_
  6
PHANTOM1
 62
  152
 10
13.3227929450278
 20
336.01977380034509
 11
26.655382603917815
 21
286.2618717969001
  0
LINE
  8
_0-1_
  6
PHANTOM1
 62
  152
 10
25.189644025245684
 20
291.73208264311813
 11
148.98023742403609
 21
291.73208264311813
  0
ARC
  8
_0-0_
  6
CONTINUOUS
 62
    7
 10
564.12381263246891
 20
32.336939558636118
 40
6.25
 50
62.627775190797053
 51
41.057771634459925
  0
ARC
  8
_0-0_
  6
CONTINUOUS
 62
    7
 10
609.12381263246891
 20
32.336939558636118
 40
6.25
 50
138.94222836554621
 51
117.37222480918393
  0
ARC
  8
_0-0_
  6
CONTINUOUS
 62
    7
 10
609.12381263246891
 20
105.33693955863566
 40
6.25
 50
242.62777519081359
 51
221.05777163444938
  0
ARC
  8
_0-0_
  6
CONTINUOUS
 62
    7
 10
564.12381263246891
 20
105.33693955863566
 40
6.25
 50
318.94222836554957
 51
297.37222480919337
  0
CIRCLE
  8
_0-0_
  6
CONTINUOUS
 62
    7
 10
609.12381263246891
 20
32.336939558636118
 40
3.4600000381469727
  0
CIRCLE
  8
_0-0_
  6
CONTINUOUS
 62
    7
 10
609.12381263246891
 20
32.336939558636118
 40
4
  0
CIRCLE
  8
_0-0_
  6
CONTINUOUS
 62
    7
 10
564.12381263246891
 20
32.336939558636118
 40
3.4600000381469727
  0
CIRCLE
  8
_0-0_
  6
CONTINUOUS
 62
    7
 10
564.12381263246891
 20
32.336939558636118
 40
4
  0
CIRCLE
  8
_0-0_
  6
CONTINUOUS
 62
    7
 10
564.12381263246891
 20
105.33693955863566
 40
3.4600000381469727
  0
CIRCLE
  8
_0-0_
  6
CONTINUOUS
 62
    7
 10
564.12381263246891
 20
105.33693955863566
 40
4
  0
CIRCLE
  8
_0-0_
  6
CONTINUOUS
 62
    7
 10
609.12381263246891
 20
105.33693955863566
 40
3.4600000381469727
  0
CIRCLE
  8
_0-0_
  6
CONTINUOUS
 62
    7
 10
609.12381263246891
 20
105.33693955863566
 40
4
  0
CIRCLE
  8
_0-0_
  6
CONTINUOUS
 62
    7
 10
688.62381263246891
 20
114.83693955863612
 40
30
  0
ARC
  8
_0-0_
  6
CONTINUOUS
 62
    7
 10
667.62381263246891
 20
22.836939558635208
 40
3.0000000000000009
 50
180.00000000000006
 51
270
  0
ARC
  8
_0-0_
  6
CONTINUOUS
 62
    7
 10
635.38117194535073
 20
143.83693955863623
 40
3.0000000000000009
 50
44.999999999999964
 51
89.999999999999957
  0
ARC
  8
_0-0_
  6
CONTINUOUS
 62
    7
 10
540.62381263246903
 20
149.83693955863623
 40
3.0000000000000009
 50
180.00000000000006
 51
270
  0
ARC
  8
_0-0_
  6
CONTINUOUS
 62
    7
 10
534.41151050060512
 20
76.332016983386552
 40
29.999999999999993
 50
15.475764836960417
 51
54.072447628067415
  0
ARC
  8
_0-0_
  6
CONTINUOUS
 62
    7
 10
534.41151050060512
 20
61.841862133886139
 40
30
 50
305.92755237169615
 51
344.52423516303963
  0
ARC
  8
_0-0_
  6
CONTINUOUS
 62
    7
 10
638.83611476433464
 20
61.84186213344276
 40
30
 50
195.47576483696042
 51
234.07244762806744
  0
ARC
  8
_0-0_
  6
CONTINUOUS
 62
    7
 10
521.90381097601971
 20
72.537300861144217
 40
40
 50
17.15699573999882
 51
40.246450533429623
  0
ARC
  8
_0-0_
  6
CONTINUOUS
 62
    7
 10
521.90381097601971
 20
65.636578256129837
 40
40
 50
319.75354946656932
 51
342.84300425999896
  0
ARC
  8
_0-0_
  6
CONTINUOUS
 62
    7
 10
651.34381428892004
 20
72.037300861587596
 40
40
 50
139.75354946657041
 51
162.84300426000121
  0
ARC
  8
_0-0_
  6
CONTINUOUS
 62
    7
 10
651.34381428892004
 20
65.636578255686459
 40
40
 50
197.15699574000107
 51
220.24645053343068
  0
ARC
  8
_0-0_
  6
CONTINUOUS
 62
    7
 10
569.62381263246982
 20
39.336939558636118
 40
3
 50
180
 51
270
  0
ARC
  8
_0-0_
  6
CONTINUOUS
 62
    7
 10
603.62381263247073
 20
39.336939558636118
 40
3
 50
270
 51
0
  0
ARC
  8
_0-0_
  6
CONTINUOUS
 62
    7
 10
603.62381263246982
 20
98.336939558636118
 40
3
 50
0.0000000000000162
 51
90
  0
ARC
  8
_0-0_
  6
CONTINUOUS
 62
    7
 10
607.09256263432064
 20
68.836939558636118
 40
11.031249998148837
 50
309.59775269742653
 51
50.40224729547554
  0
ARC
  8
_0-0_
  6
CONTINUOUS
 62
    7
 10
555.1967671324702
 20
61.187952558635629
 40
5
 50
9.7995955382492212
 51
33.353117000000466
  0
ARC
  8
_0-0_
  6
CONTINUOUS
 62
    7
 10
555.1967671324702
 20
76.485926558635697
 40
5
 50
326.6468829999996
 51
350.20040446175062
  0
ARC
  8
_0-0_
  6
CONTINUOUS
 62
    7
 10
550.17226013247023
 20
69.82009805863629
 40
10
 50
5.642204321407867
 51
23.059333999999957
  0
ARC
  8
_0-0_
  6
CONTINUOUS
 62
    7
 10
550.17226013247023
 20
67.853781058635946
 40
10
 50
336.94066600000002
 51
354.35779567859214
  0
ARC
  8
_0-0_
  6
CONTINUOUS
 62
    7
 10
563.59857463246965
 20
69.546954558635775
 40
10
 50
155.22862400000031
 51
184.07151099999996
  0
ARC
  8
_0-0_
  6
CONTINUOUS
 62
    7
 10
552.87381263246891
 20
76.336939558636118
 40
0.75
 50
90
 51
180
  0
ARC
  8
_0-0_
  6
CONTINUOUS
 62
    7
 10
558.60217613246925
 20
76.622293558635761
 40
5
 50
174.66785500000017
 51
215.24478000000033
  0
ARC
  8
_0-0_
  6
CONTINUOUS
 62
    7
 10
563.59857463246965
 20
68.126924558635551
 40
10
 50
175.92848900000041
 51
204.77137600000009
  0
ARC
  8
_0-0_
  6
CONTINUOUS
 62
    7
 10
558.60217613246925
 20
61.051585558635566
 40
5
 50
144.75522000000004
 51
185.33214500000022
  0
ARC
  8
_0-0_
  6
CONTINUOUS
 62
    7
 10
552.87381263246891
 20
61.336939558636118
 40
0.75
 50
180
 51
270
  0
ARC
  8
_0-0_
  6
CONTINUOUS
 62
    7
 10
615.12381263246891
 20
26.336939558636118
 40
5
 50
270
 51
0
  0
ARC
  8
_0-0_
  6
CONTINUOUS
 62
    7
 10
615.12381263246891
 20
111.33693955863612
 40
5
 50
0.0000000000000035
 51
90
  0
ARC
  8
_0-0_
  6
CONTINUOUS
 62
    7
 10
619.38804261065809
 20
99.283843043585989
 40
2
 50
315.43345622852212
 51
15.000000000000938
  0
ARC
  8
_0-0_
  6
CONTINUOUS
 62
    7
 10
558.12381263246891
 20
26.336939558636118
 40
5
 50
180
 51
270
  0
ARC
  8
_0-0_
  6
CONTINUOUS
 62
    7
 10
553.85958265428064
 20
38.390036073687156
 40
2
 50
135.4334562285222
 51
195.00000000000091
  0
ARC
  8
_0-0_
  6
CONTINUOUS
 62
    7
 10
558.12381263246891
 20
111.33693955863612
 40
4.9999999999999991
 50
90
 51
180
  0
ARC
  8
_0-0_
  6
CONTINUOUS
 62
    7
 10
619.38804261065809
 20
38.390036073687156
 40
2
 50
344.99999999999898
 51
44.566543771477797
  0
ARC
  8
_0-0_
  6
CONTINUOUS
 62
    7
 10
638.83611476433464
 20
75.832016983829931
 40
30
 50
125.92755237193258
 51
164.52423516385568
  0
ARC
  8
_0-0_
  6
CONTINUOUS
 62
    7
 10
569.62381263246891
 20
98.336939558636118
 40
3
 50
90
 51
180
  0
ARC
  8
_0-0_
  6
CONTINUOUS
 62
    7
 10
553.85958265428155
 20
99.78384304314261
 40
1.9999999999999998
 50
164.99999999999903
 51
224.5665437714778
  0
ARC
  8
_0-0_
  6
CONTINUOUS
 62
    7
 10
549.85426001076962
 20
68.836939558636118
 40
4.2499999999999991
 50
114.02681136477297
 51
245.97318863522696
  0
CIRCLE
  8
_0-0_
  6
CONTINUOUS
 62
    7
 10
688.62381263246891
 20
114.83693955863612
 40
9.9999999999999982
  0
CIRCLE
  8
_0-0_
  6
CONTINUOUS
 62
    7
 10
550.12381263246903
 20
91.336939558636118
 40
4.2500000000000009
  0
CIRCLE
  8
_0-0_
  6
CONTINUOUS
 62
    7
 10
623.12381263246891
 20
91.336939558636118
 40
4.2500000000000009
  0
CIRCLE
  8
_0-0_
  6
CONTINUOUS
 62
    7
 10
623.12381263246891
 20
46.336939558636118
 40
4.2500000000000009
  0
CIRCLE
  8
_0-0_
  6
CONTINUOUS
 62
    7
 10
550.12381263246903
 20
46.336939558636118
 40
4.2500000000000009
  0
CIRCLE
  8
_0-0_
  6
CONTINUOUS
 62
    7
 10
623.39336525417013
 20
68.836939558636118
 40
4.2499999999999991
  0
ARC
  8
_0-0_
  6
CONTINUOUS
 62
    7
 10
537.62381263246903
 20
137.01429300328914
 40
3.0000000000000009
 50
180.00000000000006
 51
186.76652709232033
  0
ARC
  8
_0-0_
  6
CONTINUOUS
 62
    7
 10
671.62381263246891
 20
22.836939558635208
 40
3.0000000000000009
 50
270
 51
0
  0
ARC
  8
_0-0_
  6
CONTINUOUS
 62
    7
 10
540.62381263246903
 20
153.83693955863623
 40
3.0000000000000009
 50
90.000000000000028
 51
180.00000000000003
  0
ARC
  8
_0-0_
  6
CONTINUOUS
 62
    7
 10
540.62381263246903
 20
38.07958024575521
 40
3.0000000000000009
 50
180.00000000000006
 51
225.00000000000006
  0
ARC
  8
_0-0_
  6
CONTINUOUS
 62
    7
 10
555.86645331958891
 20
22.836939558635208
 40
3.0000000000000009
 50
225.00000000000023
 51
270
  0
CIRCLE
  8
_0-0_
  6
CONTINUOUS
 62
    7
 10
605.62381263246891
 20
136.83693955863578
 40
3.2500000000000004
  0
CIRCLE
  8
_0-0_
  6
CONTINUOUS
 62
    7
 10
585.62381263246891
 20
136.83693955863578
 40
3.2500000000000004
  0
CIRCLE
  8
_0-0_
  6
CONTINUOUS
 62
    7
 10
545.62381263246903
 20
136.83693955863578
 40
3.2500000000000004
  0
CIRCLE
  8
_0-0_
  6
CONTINUOUS
 62
    7
 10
654.62381263246891
 20
87.836939558636118
 40
3.2500000000000004
  0
CIRCLE
  8
_0-0_
  6
CONTINUOUS
 62
    7
 10
654.62381263246891
 20
67.836939558635208
 40
3.2500000000000004
  0
CIRCLE
  8
_0-0_
  6
CONTINUOUS
 62
    7
 10
654.62381263246891
 20
27.836939558636118
 40
3.2500000000000004
  0
LINE
  8
_0-0_
  6
CONTINUOUS
 62
    7
 10
553.12381263247073
 20
104.76531854936968
 11
553.12381263247073
 21
111.33693955863612
  0
LINE
  8
_0-0_
  6
CONTINUOUS
 62
    7
 10
551.92773100170348
 20
100.30148113334747
 11
553.12381263247073
 21
104.76531854936968
  0
LINE
  8
_0-0_
  6
CONTINUOUS
 62
    7
 10
563.32381263246964
 20
58.836939558636118
 11
565.02381263246946
 21
58.836939558636118
  0
LINE
  8
_0-0_
  6
CONTINUOUS
 62
    7
 10
563.32381263246964
 20
78.836939558636118
 11
565.02381263246946
 21
78.836939558636118
  0
LINE
  8
_0-0_
  6
CONTINUOUS
 62
    7
 10
560.12381263246982
 20
53.836939558636118
 11
560.12381263246982
 21
84.336939558636118
  0
LINE
  8
_0-0_
  6
CONTINUOUS
 62
    7
 10
563.32381263246964
 20
84.336939558636118
 11
563.32381263246964
 21
53.836939558636118
  0
LINE
  8
_0-0_
  6
CONTINUOUS
 62
    7
 10
565.02381263246946
 20
88.336939558636118
 11
566.62381263246982
 21
89.836939558636118
  0
LINE
  8
_0-0_
  6
CONTINUOUS
 62
    7
 10
565.02381263246946
 20
49.336939558636118
 11
565.02381263246946
 21
88.336939558636118
  0
LINE
  8
_0-0_
  6
CONTINUOUS
 62
    7
 10
566.62381263246982
 20
47.836939558636118
 11
565.02381263246946
 21
49.336939558636118
  0
LINE
  8
_0-0_
  6
CONTINUOUS
 62
    7
 10
608.22381263247019
 20
49.336939558636118
 11
606.62381263246982
 21
47.836939558636118
  0
LINE
  8
_0-0_
  6
CONTINUOUS
 62
    7
 10
608.22381263247019
 20
88.336939558636118
 11
608.22381263247019
 21
49.336939558636118
  0
LINE
  8
_0-0_
  6
CONTINUOUS
 62
    7
 10
608.22381263247019
 20
88.336939558636118
 11
606.62381263246982
 21
89.836939558636118
  0
LINE
  8
_0-0_
  6
CONTINUOUS
 62
    7
 10
609.92381263247
 20
78.836939558636118
 11
608.22381263247019
 21
78.836939558636118
  0
LINE
  8
_0-0_
  6
CONTINUOUS
 62
    7
 10
614.12381263246982
 20
77.336939557765277
 11
613.12381263246982
 21
77.336939557765277
  0
LINE
  8
_0-0_
  6
CONTINUOUS
 62
    7
 10
614.12381263246982
 20
60.336939558636118
 11
614.12381263246982
 21
77.336939557765277
  0
LINE
  8
_0-0_
  6
CONTINUOUS
 62
    7
 10
613.12381263246982
 20
60.336939558636118
 11
614.12381263246982
 21
60.336939558636118
  0
LINE
  8
_0-0_
  6
CONTINUOUS
 62
    7
 10
609.92381263247
 20
58.836939558636118
 11
608.22381263247019
 21
58.836939558636118
  0
LINE
  8
_0-0_
  6
CONTINUOUS
 62
    7
 10
609.92381263247
 20
83.836939558636118
 11
609.92381263247
 21
53.836939558192739
  0
LINE
  8
_0-0_
  6
CONTINUOUS
 62
    7
 10
613.12381263246982
 20
53.836939558636118
 11
613.12381263246982
 21
83.836939558636118
  0
LINE
  8
_0-0_
  6
CONTINUOUS
 62
    7
 10
553.12381263246891
 20
33.408560567459631
 11
553.12381263246891
 21
26.336939558636118
  0
LINE
  8
_0-0_
  6
CONTINUOUS
 62
    7
 10
553.12381263246891
 20
33.408560567459631
 11
551.92773100170257
 21
37.872397983481846
  0
LINE
  8
_0-0_
  6
CONTINUOUS
 62
    7
 10
620.12381263246891
 20
33.408560567459631
 11
620.12381263246891
 21
26.336939558636118
  0
LINE
  8
_0-0_
  6
CONTINUOUS
 62
    7
 10
621.31989426323628
 20
37.872397983481846
 11
620.12381263246891
 21
33.408560567459631
  0
LINE
  8
_0-0_
  6
CONTINUOUS
 62
    7
 10
664.62381263246891
 20
96.836939558636118
 11
664.62381263246891
 21
22.836939558635208
  0
LINE
  8
_0-0_
  6
CONTINUOUS
 62
    7
 10
637.50249228890891
 20
145.95825990219532
 11
659.91552569859971
 21
123.54522649250521
  0
LINE
  8
_0-0_
  6
CONTINUOUS
 62
    7
 10
540.62381263246903
 20
146.83693955863623
 11
635.38117194535073
 21
146.83693955863623
  0
LINE
  8
_0-0_
  6
CONTINUOUS
 62
    7
 10
558.12381263246891
 20
116.33693955863612
 11
615.12381263246891
 21
116.33693955863612
  0
LINE
  8
_0-0_
  6
CONTINUOUS
 62
    7
 10
615.12381263246891
 20
21.336939558636118
 11
558.12381263246891
 21
21.336939558636118
  0
LINE
  8
_0-0_
  6
CONTINUOUS
 62
    7
 10
615.62381263246891
 20
101.58416269744487
 11
615.62381263246891
 21
109.08971641982646
  0
LINE
  8
_0-0_
  6
CONTINUOUS
 62
    7
 10
609.12381263246891
 20
97.831385836254071
 11
615.62381263246891
 21
101.58416269744487
  0
LINE
  8
_0-0_
  6
CONTINUOUS
 62
    7
 10
606.43530951706555
 20
99.383593879750265
 11
609.12381263246891
 21
97.831385836254071
  0
LINE
  8
_0-0_
  6
CONTINUOUS
 62
    7
 10
606.62381263247073
 20
39.336939558636118
 11
606.62381263246982
 21
98.336939558636118
  0
LINE
  8
_0-0_
  6
CONTINUOUS
 62
    7
 10
609.12381263246891
 20
39.84249328101771
 11
606.43530951706646
 21
38.290285237521744
  0
LINE
  8
_0-0_
  6
CONTINUOUS
 62
    7
 10
615.62381263246891
 20
36.089716419826914
 11
609.12381263246891
 21
39.84249328101771
  0
LINE
  8
_0-0_
  6
CONTINUOUS
 62
    7
 10
615.62381263246891
 20
28.584162697445322
 11
615.62381263246891
 21
36.089716419826914
  0
LINE
  8
_0-0_
  6
CONTINUOUS
 62
    7
 10
609.12381263246891
 20
24.831385836254526
 11
615.62381263246891
 21
28.584162697445322
  0
LINE
  8
_0-0_
  6
CONTINUOUS
 62
    7
 10
602.62381263246891
 20
28.584162697445322
 11
609.12381263246891
 21
24.831385836254526
  0
LINE
  8
_0-0_
  6
CONTINUOUS
 62
    7
 10
602.62381263246891
 20
36.089716419826914
 11
602.62381263246891
 21
28.584162697445322
  0
LINE
  8
_0-0_
  6
CONTINUOUS
 62
    7
 10
603.05201565697564
 20
36.336939558636118
 11
602.62381263246891
 21
36.089716419826914
  0
LINE
  8
_0-0_
  6
CONTINUOUS
 62
    7
 10
569.62381263246982
 20
36.336939558636118
 11
603.62381263247073
 21
36.336939558636118
  0
LINE
  8
_0-0_
  6
CONTINUOUS
 62
    7
 10
570.62381263246891
 20
36.089716419826914
 11
570.19560960796309
 21
36.336939558636118
  0
LINE
  8
_0-0_
  6
CONTINUOUS
 62
    7
 10
570.62381263246891
 20
28.584162697445322
 11
570.62381263246891
 21
36.089716419826914
  0
LINE
  8
_0-0_
  6
CONTINUOUS
 62
    7
 10
564.12381263246891
 20
24.831385836254526
 11
570.62381263246891
 21
28.584162697445322
  0
LINE
  8
_0-0_
  6
CONTINUOUS
 62
    7
 10
557.62381263246891
 20
28.584162697445322
 11
564.12381263246891
 21
24.831385836254526
  0
LINE
  8
_0-0_
  6
CONTINUOUS
 62
    7
 10
557.62381263246891
 20
36.089716419826914
 11
557.62381263246891
 21
28.584162697445322
  0
LINE
  8
_0-0_
  6
CONTINUOUS
 62
    7
 10
564.12381263246891
 20
39.84249328101771
 11
557.62381263246891
 21
36.089716419826914
  0
LINE
  8
_0-0_
  6
CONTINUOUS
 62
    7
 10
566.81231574787409
 20
38.290285237520607
 11
564.12381263246891
 21
39.84249328101771
  0
LINE
  8
_0-0_
  6
CONTINUOUS
 62
    7
 10
566.62381263246891
 20
98.336939558636118
 11
566.62381263246982
 21
39.336939558636118
  0
LINE
  8
_0-0_
  6
CONTINUOUS
 62
    7
 10
564.12381263246891
 20
97.831385836254071
 11
566.81231574787409
 21
99.38359387975072
  0
LINE
  8
_0-0_
  6
CONTINUOUS
 62
    7
 10
557.62381263246891
 20
101.58416269744487
 11
564.12381263246891
 21
97.831385836254071
  0
LINE
  8
_0-0_
  6
CONTINUOUS
 62
    7
 10
557.62381263246891
 20
109.08971641982646
 11
557.62381263246891
 21
101.58416269744487
  0
LINE
  8
_0-0_
  6
CONTINUOUS
 62
    7
 10
564.12381263246891
 20
112.84249328101725
 11
557.62381263246891
 21
109.08971641982646
  0
LINE
  8
_0-0_
  6
CONTINUOUS
 62
    7
 10
570.62381263246891
 20
109.08971641982646
 11
564.12381263246891
 21
112.84249328101725
  0
LINE
  8
_0-0_
  6
CONTINUOUS
 62
    7
 10
570.62381263246891
 20
101.58416269744487
 11
570.62381263246891
 21
109.08971641982646
  0
LINE
  8
_0-0_
  6
CONTINUOUS
 62
    7
 10
570.195609607964
 20
101.33693955863612
 11
570.62381263246891
 21
101.58416269744487
  0
LINE
  8
_0-0_
  6
CONTINUOUS
 62
    7
 10
603.62381263246982
 20
101.33693955863612
 11
569.62381263246891
 21
101.33693955863612
  0
LINE
  8
_0-0_
  6
CONTINUOUS
 62
    7
 10
602.62381263246891
 20
101.58416269744487
 11
603.05201565697564
 21
101.33693955863612
  0
LINE
  8
_0-0_
  6
CONTINUOUS
 62
    7
 10
602.62381263246891
 20
109.08971641982646
 11
602.62381263246891
 21
101.58416269744487
  0
LINE
  8
_0-0_
  6
CONTINUOUS
 62
    7
 10
609.12381263246891
 20
112.84249328101725
 11
602.62381263246891
 21
109.08971641982646
  0
LINE
  8
_0-0_
  6
CONTINUOUS
 62
    7
 10
615.62381263246891
 20
109.08971641982646
 11
609.12381263246891
 21
112.84249328101725
  0
LINE
  8
_0-0_
  6
CONTINUOUS
 62
    7
 10
620.12381263246891
 20
104.26531854981306
 11
620.12381263246891
 21
111.33693955863612
  0
LINE
  8
_0-0_
  6
CONTINUOUS
 62
    7
 10
621.31989426323628
 20
99.801481133790844
 11
620.12381263246891
 21
104.26531854981306
  0
LINE
  8
_0-0_
  6
CONTINUOUS
 62
    7
 10
548.82381339540939
 20
73.836939558636118
 11
548.12381263246994
 21
73.136939749370981
  0
LINE
  8
_0-0_
  6
CONTINUOUS
 62
    7
 10
553.62381263246891
 20
77.086939558636118
 11
552.87381263246891
 21
77.086939558636118
  0
LINE
  8
_0-0_
  6
CONTINUOUS
 62
    7
 10
554.5187056324695
 20
78.6369395586363
 11
553.62381263246891
 21
77.086939558636118
  0
LINE
  8
_0-0_
  6
CONTINUOUS
 62
    7
 10
559.37325713246912
 20
78.6369395586363
 11
554.5187056324695
 21
78.6369395586363
  0
LINE
  8
_0-0_
  6
CONTINUOUS
 62
    7
 10
560.12381263246982
 20
77.336939558636118
 11
559.37325713246912
 21
78.6369395586363
  0
LINE
  8
_0-0_
  6
CONTINUOUS
 62
    7
 10
554.5187056324695
 20
73.736939558635754
 11
559.37325713246912
 21
73.736939558635754
  0
LINE
  8
_0-0_
  6
CONTINUOUS
 62
    7
 10
548.12381263246994
 20
64.536939367901255
 11
552.12381263246903
 21
64.536939367901255
  0
LINE
  8
_0-0_
  6
CONTINUOUS
 62
    7
 10
548.12381263246994
 20
64.536939367901255
 11
548.82381339540939
 21
63.836939558636118
  0
LINE
  8
_0-0_
  6
CONTINUOUS
 62
    7
 10
548.12381263246994
 20
73.136939749370981
 11
548.12381263246994
 21
64.536939367901255
  0
LINE
  8
_0-0_
  6
CONTINUOUS
 62
    7
 10
552.12381263246903
 20
73.136939749370981
 11
548.12381263246994
 21
73.136939749370981
  0
LINE
  8
_0-0_
  6
CONTINUOUS
 62
    7
 10
548.82381339540939
 20
73.836939558636118
 11
552.12381263246903
 21
73.836939558636118
  0
LINE
  8
_0-0_
  6
CONTINUOUS
 62
    7
 10
548.82381339540939
 20
63.836939558636118
 11
548.82381339540939
 21
73.836939558636118
  0
LINE
  8
_0-0_
  6
CONTINUOUS
 62
    7
 10
552.12381263246903
 20
63.836939558636118
 11
548.82381339540939
 21
63.836939558636118
  0
LINE
  8
_0-0_
  6
CONTINUOUS
 62
    7
 10
559.37325713246912
 20
63.936939558635572
 11
554.5187056324695
 21
63.936939558635572
  0
LINE
  8
_0-0_
  6
CONTINUOUS
 62
    7
 10
559.37325713246912
 20
59.036939558635936
 11
560.12381263246982
 21
60.336939558636118
  0
LINE
  8
_0-0_
  6
CONTINUOUS
 62
    7
 10
554.5187056324695
 20
59.036939558635936
 11
559.37325713246912
 21
59.036939558635936
  0
LINE
  8
_0-0_
  6
CONTINUOUS
 62
    7
 10
553.62381263246891
 20
60.586939558636118
 11
554.5187056324695
 21
59.036939558635936
  0
LINE
  8
_0-0_
  6
CONTINUOUS
 62
    7
 10
552.87381263246891
 20
60.586939558636118
 11
553.62381263246891
 21
60.586939558636118
  0
LINE
  8
_0-0_
  6
CONTINUOUS
 62
    7
 10
552.12381263246903
 20
76.336939558636118
 11
552.12381263246903
 21
61.336939558636118
  0
LINE
  8
_0-0_
  6
CONTINUOUS
 62
    7
 10
537.62381263246903
 20
153.83693955863623
 11
537.62381263246903
 21
38.07958024575521
  0
LINE
  8
_0-0_
  6
CONTINUOUS
 62
    7
 10
674.62381263246891
 20
156.83693955863623
 11
540.62381263246903
 21
156.83693955863623
  0
LINE
  8
_0-0_
  6
CONTINUOUS
 62
    7
 10
686.26836753504824
 20
144.74432791658296
 11
674.62381263246891
 21
156.83693955863623
  0
LINE
  8
_0-0_
  6
CONTINUOUS
 62
    7
 10
674.62381263246891
 20
72.836939558636118
 11
686.26836753504824
 21
84.929551200689843
  0
LINE
  8
_0-0_
  6
CONTINUOUS
 62
    7
 10
674.62381263246891
 20
22.836939558635208
 11
674.62381263246891
 21
72.836939558636118
  0
LINE
  8
_0-0_
  6
CONTINUOUS
 62
    7
 10
555.86645331958891
 20
19.836939558636118
 11
671.62381263246891
 21
19.836939558636118
  0
LINE
  8
_0-0_
  6
CONTINUOUS
 62
    7
 10
538.50249228890902
 20
35.958259902195209
 11
554.62381263246891
 21
19.836939558636118
  0
ARC
  8
_0-0_
  6
CONTINUOUS
 62
    7
 10
450.28069951096882
 20
234.23208264311765
 40
109.84311312150078
 50
0
 51
19.961951297189081
  0
ARC
  8
_0-0_
  6
CONTINUOUS
 62
    7
 10
472.94779445909739
 20
234.23208264311765
 40
90.376018173817897
 50
0.0000000036577396
 51
24.515105364020599
  0
ARC
  8
_0-0_
  6
CONTINUOUS
 62
    7
 10
700.29983080584145
 20
234.23208264311765
 40
90.376018173817897
 50
155.48489463597943
 51
179.99999999634227
  0
ARC
  8
_0-0_
  6
CONTINUOUS
 62
    7
 10
722.96692575397003
 20
234.23208264311765
 40
109.84311312150078
 50
160.0380487028109
 51
180
  0
ARC
  8
_0-0_
  6
CONTINUOUS
 62
    7
 10
620.37381263246891
 20
227.2320826431181
 40
0.75
 50
0
 51
90
  0
ARC
  8
_0-0_
  6
CONTINUOUS
 62
    7
 10
614.64544913246948
 20
227.51743664311866
 40
5
 50
324.75522000000001
 51
5.3321450000002173
  0
ARC
  8
_0-0_
  6
CONTINUOUS
 62
    7
 10
609.64905063246908
 20
220.44209764311867
 40
10
 50
355.92848900000041
 51
24.771376000000082
  0
ARC
  8
_0-0_
  6
CONTINUOUS
 62
    7
 10
614.64544913246948
 20
211.94672864311846
 40
5
 50
354.66785500000015
 51
35.244780000000354
  0
ARC
  8
_0-0_
  6
CONTINUOUS
 62
    7
 10
620.37381263246891
 20
212.2320826431181
 40
0.75
 50
270
 51
0
  0
ARC
  8
_0-0_
  6
CONTINUOUS
 62
    7
 10
609.64905063246908
 20
219.02206764311845
 40
10
 50
335.22862400000025
 51
4.071510999999945
  0
ARC
  8
_0-0_
  6
CONTINUOUS
 62
    7
 10
623.07536513246953
 20
220.71524114311828
 40
10
 50
156.94066599999999
 51
174.35779567859217
  0
ARC
  8
_0-0_
  6
CONTINUOUS
 62
    7
 10
623.07536513246953
 20
218.74892414311793
 40
10
 50
185.64220432140786
 51
203.05933399999995
  0
ARC
  8
_0-0_
  6
CONTINUOUS
 62
    7
 10
618.05085813246944
 20
212.08309564311853
 40
5
 50
146.6468829999996
 51
170.20040446175059
  0
ARC
  8
_0-0_
  6
CONTINUOUS
 62
    7
 10
618.05085813246944
 20
227.38106964311859
 40
5
 50
189.79959553824918
 51
213.3531170000004
  0
ARC
  8
_0-0_
  6
CONTINUOUS
 62
    7
 10
566.15506263061809
 20
219.7320826431181
 40
11.031249998148837
 50
129.59775269742644
 51
230.40224729547555
  0
ARC
  8
_0-0_
  6
CONTINUOUS
 62
    7
 10
603.62381263246891
 20
190.2320826431181
 40
3
 50
270
 51
0
  0
ARC
  8
_0-0_
  6
CONTINUOUS
 62
    7
 10
569.62381263246891
 20
190.2320826431181
 40
3
 50
180
 51
270
  0
ARC
  8
_0-0_
  6
CONTINUOUS
 62
    7
 10
569.62381263246891
 20
249.2320826431181
 40
3
 50
90
 51
180
  0
ARC
  8
_0-0_
  6
CONTINUOUS
 62
    7
 10
603.62381263246891
 20
249.2320826431181
 40
3
 50
0
 51
90
  0
ARC
  8
_0-0_
  6
CONTINUOUS
 62
    7
 10
688.62381263061718
 20
253.41091297521083
 40
18.321172714233402
 50
67.780689151566378
 51
112.21931084843361
  0
LINE
  8
_0-0_
  6
CONTINUOUS
 62
    7
 10
675.4341003622992
 20
270.85692704593862
 11
674.76740641876233
 21
270.37161357219543
  0
LINE
  8
_0-0_
  6
CONTINUOUS
 62
    7
 10
676.99133354871606
 20
271.56341244116254
 11
675.4341003622992
 21
270.85692704593862
  0
LINE
  8
_0-0_
  6
CONTINUOUS
 62
    7
 10
678.58624881466164
 20
271.71834332572143
 11
676.99133354871606
 21
271.56341244116254
  0
LINE
  8
_0-0_
  6
CONTINUOUS
 62
    7
 10
680.17038546684648
 20
271.31701220308685
 11
678.58624881466164
 21
271.71834332572143
  0
LINE
  8
_0-0_
  6
CONTINUOUS
 62
    7
 10
681.6956103147055
 20
270.37161331633661
 11
680.17038546684648
 21
271.31701220308685
  0
LINE
  8
_0-0_
  6
CONTINUOUS
 62
    7
 10
696.21870888110175
 20
270.856926839322
 11
695.55201720498007
 21
270.37161516142839
  0
LINE
  8
_0-0_
  6
CONTINUOUS
 62
    7
 10
697.77594205447326
 20
271.56341234956324
 11
696.21870888110175
 21
270.856926839322
  0
LINE
  8
_0-0_
  6
CONTINUOUS
 62
    7
 10
699.37085731755815
 20
271.71834335192261
 11
697.77594205447326
 21
271.56341234956324
  0
LINE
  8
_0-0_
  6
CONTINUOUS
 62
    7
 10
700.95499397715355
 20
271.31701234629236
 11
699.37085731755815
 21
271.71834335192261
  0
LINE
  8
_0-0_
  6
CONTINUOUS
 62
    7
 10
702.48021884246941
 20
270.37161357219532
 11
700.95499397715355
 21
271.31701234629236
  0
LINE
  8
_0-0_
  6
CONTINUOUS
 62
    7
 10
681.02891838106632
 20
259.60724773214031
 11
681.6956103147055
 21
260.09255997175217
  0
LINE
  8
_0-0_
  6
CONTINUOUS
 62
    7
 10
679.47168528872373
 20
258.90076150748394
 11
681.02891838106632
 21
259.60724773214031
  0
LINE
  8
_0-0_
  6
CONTINUOUS
 62
    7
 10
677.87677004340856
 20
258.74582977342175
 11
679.47168528872373
 21
258.90076150748394
  0
LINE
  8
_0-0_
  6
CONTINUOUS
 62
    7
 10
676.29263333778329
 20
259.14716005229411
 11
677.87677004340856
 21
258.74582977342175
  0
LINE
  8
_0-0_
  6
CONTINUOUS
 62
    7
 10
674.76740836403678
 20
260.09255812666038
 11
676.29263333778329
 21
259.14716005229411
  0
LINE
  8
_0-0_
  6
CONTINUOUS
 62
    7
 10
701.81352722200961
 20
259.60724773214031
 11
702.4802191556488
 21
260.09255997175217
  0
LINE
  8
_0-0_
  6
CONTINUOUS
 62
    7
 10
700.25629412966703
 20
258.90076150748394
 11
701.81352722200961
 21
259.60724773214031
  0
LINE
  8
_0-0_
  6
CONTINUOUS
 62
    7
 10
698.66137888435185
 20
258.74582977342175
 11
700.25629412966703
 21
258.90076150748394
  0
LINE
  8
_0-0_
  6
CONTINUOUS
 62
    7
 10
697.07724217872658
 20
259.14716005229411
 11
698.66137888435185
 21
258.74582977342175
  0
LINE
  8
_0-0_
  6
CONTINUOUS
 62
    7
 10
695.55201720498007
 20
260.09255812666038
 11
697.07724217872658
 21
259.14716005229411
  0
ARC
  8
_0-0_
  6
CONTINUOUS
 62
    7
 10
688.62381263061718
 20
277.05326031287802
 40
18.321172714233402
 50
247.78070068359375
 51
292.21931457519531
  0
ARC
  8
_0-0_
  6
CONTINUOUS
 62
    7
 10
688.62381263246891
 20
209.23208264311856
 40
12.000000000000004
 50
131.81031489577896
 51
165.5224878140701
  0
ARC
  8
_0-0_
  6
CONTINUOUS
 62
    7
 10
688.62381263246891
 20
209.23208264311856
 40
12.000000000000004
 50
14.477512185929857
 51
48.189685104221027
  0
LINE
  8
_0-0_
  6
CONTINUOUS
 62
    7
 10
681.02891838106632
 20
223.10724373028816
 11
681.6956103147055
 21
223.59255596990002
  0
LINE
  8
_0-0_
  6
CONTINUOUS
 62
    7
 10
679.47168528872373
 20
222.40075750563173
 11
681.02891838106632
 21
223.10724373028816
  0
LINE
  8
_0-0_
  6
CONTINUOUS
 62
    7
 10
677.87677004340856
 20
222.2458257715696
 11
679.47168528872373
 21
222.40075750563173
  0
LINE
  8
_0-0_
  6
CONTINUOUS
 62
    7
 10
676.29263333778329
 20
222.64715605044196
 11
677.87677004340856
 21
222.2458257715696
  0
LINE
  8
_0-0_
  6
CONTINUOUS
 62
    7
 10
674.76740836403678
 20
223.59255412480823
 11
676.29263333778329
 21
222.64715605044196
  0
LINE
  8
_0-0_
  6
CONTINUOUS
 62
    7
 10
701.81352722200961
 20
223.10724373028816
 11
702.4802191556488
 21
223.59255596990002
  0
LINE
  8
_0-0_
  6
CONTINUOUS
 62
    7
 10
700.25629412966703
 20
222.40075750563173
 11
701.81352722200961
 21
223.10724373028816
  0
LINE
  8
_0-0_
  6
CONTINUOUS
 62
    7
 10
698.66137888435185
 20
222.2458257715696
 11
700.25629412966703
 21
222.40075750563173
  0
LINE
  8
_0-0_
  6
CONTINUOUS
 62
    7
 10
697.07724217872658
 20
222.64715605044196
 11
698.66137888435185
 21
222.2458257715696
  0
LINE
  8
_0-0_
  6
CONTINUOUS
 62
    7
 10
695.55201720498007
 20
223.59255412480823
 11
697.07724217872658
 21
222.64715605044196
  0
ARC
  8
_0-0_
  6
CONTINUOUS
 62
    7
 10
688.62381263061718
 20
240.55325631102582
 40
18.321172714233402
 50
247.78070068359375
 51
292.21931457519531
  0
ARC
  8
_0-0_
  6
CONTINUOUS
 62
    7
 10
538.12381263246903
 20
291.23208264311813
 40
0.5
 50
90
 51
180
  0
ARC
  8
_0-0_
  6
CONTINUOUS
 62
    7
 10
539.62381263246903
 20
273.73208664311812
 40
2
 50
180
 51
270
  0
ARC
  8
_0-0_
  6
CONTINUOUS
 62
    7
 10
707.14507794585836
 20
291.23208264311813
 40
0.5
 50
357.00000000000017
 51
90.000000000000071
  0
ARC
  8
_0-0_
  6
CONTINUOUS
 62
    7
 10
676.09685520164487
 20
300.73208664311812
 40
1
 50
90
 51
176.99999999999994
  0
ARC
  8
_0-0_
  6
CONTINUOUS
 62
    7
 10
704.72588349903992
 20
273.73208664311767
 40
2
 50
270
 51
357.00000000000006
  0
ARC
  8
_0-0_
  6
CONTINUOUS
 62
    7
 10
703.77691893232452
 20
298.73208664311812
 40
3.0000000000000009
 50
2.9999999999999152
 51
90.000000000000028
  0
LINE
  8
_0-0_
  6
CONTINUOUS
 62
    7
 10
707.64439271323602
 20
291.20591466499661
 11
706.72314256854872
 21
273.62741473063204
  0
LINE
  8
_0-0_
  6
CONTINUOUS
 62
    7
 10
695.72381253710239
 20
333.23208264311859
 11
696.62381263246982
 21
332.33208302458831
  0
LINE
  8
_0-0_
  6
CONTINUOUS
 62
    7
 10
680.62381263246891
 20
301.73208664311812
 11
680.62381263246891
 21
332.33208302458831
  0
LINE
  8
_0-0_
  6
CONTINUOUS
 62
    7
 10
695.72381253710239
 20
333.23208264311859
 11
681.52381272783634
 21
333.23208264311859
  0
LINE
  8
_0-0_
  6
CONTINUOUS
 62
    7
 10
696.62381263246982
 20
332.33208302458831
 11
696.62381263246982
 21
301.73208664311812
  0
LINE
  8
_0-0_
  6
CONTINUOUS
 62
    7
 10
681.52381272783634
 20
333.23208264311859
 11
680.62381263246891
 21
332.33208302458831
  0
LINE
  8
_0-0_
  6
CONTINUOUS
 62
    7
 10
608.22381263246928
 20
239.2320826431181
 11
606.62381263246891
 21
240.7320826431181
  0
LINE
  8
_0-0_
  6
CONTINUOUS
 62
    7
 10
609.92381263246909
 20
204.2320826431181
 11
609.92381263246909
 21
271.73208664311812
  0
LINE
  8
_0-0_
  6
CONTINUOUS
 62
    7
 10
608.22381263246928
 20
200.2320826431181
 11
606.62381263246891
 21
198.7320826431181
  0
LINE
  8
_0-0_
  6
CONTINUOUS
 62
    7
 10
608.22381263246928
 20
239.2320826431181
 11
608.22381263246928
 21
200.2320826431181
  0
LINE
  8
_0-0_
  6
CONTINUOUS
 62
    7
 10
609.92381263246909
 20
229.7320826431181
 11
608.22381263246928
 21
229.7320826431181
  0
LINE
  8
_0-0_
  6
CONTINUOUS
 62
    7
 10
613.12381263246891
 20
204.2320826431181
 11
613.12381263246891
 21
234.23208264311765
  0
LINE
  8
_0-0_
  6
CONTINUOUS
 62
    7
 10
609.92381263246909
 20
204.2320826431181
 11
613.12381263246891
 21
204.2320826431181
  0
LINE
  8
_0-0_
  6
CONTINUOUS
 62
    7
 10
609.92381263246909
 20
209.7320826431181
 11
608.22381263246928
 21
209.7320826431181
  0
LINE
  8
_0-0_
  6
CONTINUOUS
 62
    7
 10
625.12381263246891
 20
224.03208283385297
 11
621.12381263246891
 21
224.03208283385297
  0
LINE
  8
_0-0_
  6
CONTINUOUS
 62
    7
 10
621.12381263246891
 20
224.7320826431181
 11
624.42381186952946
 21
224.7320826431181
  0
LINE
  8
_0-0_
  6
CONTINUOUS
 62
    7
 10
613.87436813246961
 20
224.63208264311865
 11
618.72891963246923
 21
224.63208264311865
  0
LINE
  8
_0-0_
  6
CONTINUOUS
 62
    7
 10
613.87436813246961
 20
229.53208264311829
 11
613.12381263246891
 21
228.2320826431181
  0
LINE
  8
_0-0_
  6
CONTINUOUS
 62
    7
 10
618.72891963246923
 20
229.53208264311829
 11
613.87436813246961
 21
229.53208264311829
  0
LINE
  8
_0-0_
  6
CONTINUOUS
 62
    7
 10
619.62381263246891
 20
227.9820826431181
 11
618.72891963246923
 21
229.53208264311829
  0
LINE
  8
_0-0_
  6
CONTINUOUS
 62
    7
 10
620.37381263246891
 20
227.9820826431181
 11
619.62381263246891
 21
227.9820826431181
  0
LINE
  8
_0-0_
  6
CONTINUOUS
 62
    7
 10
621.12381263246891
 20
212.2320826431181
 11
621.12381263246891
 21
227.2320826431181
  0
LINE
  8
_0-0_
  6
CONTINUOUS
 62
    7
 10
619.62381263246891
 20
211.4820826431181
 11
620.37381263246891
 21
211.4820826431181
  0
LINE
  8
_0-0_
  6
CONTINUOUS
 62
    7
 10
618.72891963246923
 20
209.93208264311792
 11
619.62381263246891
 21
211.4820826431181
  0
LINE
  8
_0-0_
  6
CONTINUOUS
 62
    7
 10
613.87436813246961
 20
209.93208264311792
 11
618.72891963246923
 21
209.93208264311792
  0
LINE
  8
_0-0_
  6
CONTINUOUS
 62
    7
 10
613.12381263246891
 20
211.2320826431181
 11
613.87436813246961
 21
209.93208264311792
  0
LINE
  8
_0-0_
  6
CONTINUOUS
 62
    7
 10
618.72891963246923
 20
214.83208264311847
 11
613.87436813246961
 21
214.83208264311847
  0
LINE
  8
_0-0_
  6
CONTINUOUS
 62
    7
 10
621.12381263246891
 20
214.7320826431181
 11
624.42381186952946
 21
214.7320826431181
  0
LINE
  8
_0-0_
  6
CONTINUOUS
 62
    7
 10
625.12381263246891
 20
215.43208245238324
 11
621.12381263246891
 21
215.43208245238324
  0
LINE
  8
_0-0_
  6
CONTINUOUS
 62
    7
 10
624.42381186952946
 20
214.7320826431181
 11
625.12381263246891
 21
215.43208245238324
  0
LINE
  8
_0-0_
  6
CONTINUOUS
 62
    7
 10
624.42381186952946
 20
224.7320826431181
 11
624.42381186952946
 21
214.7320826431181
  0
LINE
  8
_0-0_
  6
CONTINUOUS
 62
    7
 10
625.12381263246891
 20
224.03208283385297
 11
624.42381186952946
 21
224.7320826431181
  0
LINE
  8
_0-0_
  6
CONTINUOUS
 62
    7
 10
625.12381263246891
 20
215.43208245238324
 11
625.12381263246891
 21
224.03208283385297
  0
LINE
  8
_0-0_
  6
CONTINUOUS
 62
    7
 10
565.02381263246855
 20
229.7320826431181
 11
563.32381263246964
 21
229.7320826431181
  0
LINE
  8
_0-0_
  6
CONTINUOUS
 62
    7
 10
603.62381263246891
 20
252.2320826431181
 11
569.62381263246891
 21
252.2320826431181
  0
LINE
  8
_0-0_
  6
CONTINUOUS
 62
    7
 10
606.62381263246891
 20
190.2320826431181
 11
606.62381263246891
 21
249.2320826431181
  0
LINE
  8
_0-0_
  6
CONTINUOUS
 62
    7
 10
569.62381263246891
 20
187.2320826431181
 11
603.62381263246891
 21
187.2320826431181
  0
LINE
  8
_0-0_
  6
CONTINUOUS
 62
    7
 10
566.62381263246891
 20
249.2320826431181
 11
566.62381263246891
 21
190.2320826431181
  0
LINE
  8
_0-0_
  6
CONTINUOUS
 62
    7
 10
565.02381263246855
 20
239.2320826431181
 11
566.62381263246891
 21
240.7320826431181
  0
LINE
  8
_0-0_
  6
CONTINUOUS
 62
    7
 10
565.02381263246855
 20
200.2320826431181
 11
565.02381263246855
 21
239.2320826431181
  0
LINE
  8
_0-0_
  6
CONTINUOUS
 62
    7
 10
565.02381263246855
 20
200.2320826431181
 11
566.62381263246891
 21
198.7320826431181
  0
LINE
  8
_0-0_
  6
CONTINUOUS
 62
    7
 10
563.32381263246964
 20
209.7320826431181
 11
565.02381263246855
 21
209.7320826431181
  0
LINE
  8
_0-0_
  6
CONTINUOUS
 62
    7
 10
559.12381263246891
 20
211.23208264398895
 11
560.12381263246891
 21
211.23208264398895
  0
LINE
  8
_0-0_
  6
CONTINUOUS
 62
    7
 10
559.12381263246891
 20
228.2320826431181
 11
559.12381263246891
 21
211.23208264398895
  0
LINE
  8
_0-0_
  6
CONTINUOUS
 62
    7
 10
560.12381263246891
 20
228.2320826431181
 11
559.12381263246891
 21
228.2320826431181
  0
LINE
  8
_0-0_
  6
CONTINUOUS
 62
    7
 10
560.12381263246891
 20
204.2320826431181
 11
560.12381263246891
 21
234.23208264311765
  0
LINE
  8
_0-0_
  6
CONTINUOUS
 62
    7
 10
563.32381263246964
 20
204.2320826431181
 11
560.12381263246891
 21
204.2320826431181
  0
LINE
  8
_0-0_
  6
CONTINUOUS
 62
    7
 10
563.32381263246964
 20
271.73208664311812
 11
563.32381263246964
 21
204.2320826431181
  0
LINE
  8
_0-0_
  6
CONTINUOUS
 62
    7
 10
674.62381263246891
 20
289.42208750041516
 11
674.62381263246891
 21
273.73208664311767
  0
LINE
  8
_0-0_
  6
CONTINUOUS
 62
    7
 10
675.09822566689138
 20
300.78442259936116
 11
674.62381263246891
 21
291.73208264311813
  0
LINE
  8
_0-0_
  6
CONTINUOUS
 62
    7
 10
703.77691893232452
 20
301.73208664311812
 11
676.09685520164487
 21
301.73208664311812
  0
LINE
  8
_0-0_
  6
CONTINUOUS
 62
    7
 10
707.14717240424318
 20
291.74578730105429
 11
706.77280753658863
 21
298.88909451184725
  0
LINE
  8
_0-0_
  6
CONTINUOUS
 62
    7
 10
538.12381263246903
 20
291.73208264311813
 11
707.14507794585836
 21
291.73208264311813
  0
LINE
  8
_0-0_
  6
CONTINUOUS
 62
    7
 10
537.62381263246903
 20
273.73208664311812
 11
537.62381263246903
 21
291.23208264311813
  0
LINE
  8
_0-0_
  6
CONTINUOUS
 62
    7
 10
704.72588349903992
 20
271.73208664311812
 11
539.62381263246903
 21
271.73208664311812
  0
LINE
  8
_0-0_
  6
CONTINUOUS
 62
    7
 10
702.48021884247021
 20
270.37161357219509
 11
702.48021884247021
 21
260.09255837043418
  0
LINE
  8
_0-0_
  6
CONTINUOUS
 62
    7
 10
695.55201573654369
 20
260.09255837043418
 11
695.55201573654369
 21
270.37161376697657
  0
LINE
  8
_0-0_
  6
CONTINUOUS
 62
    7
 10
678.23150821014417
 20
258.73208664497031
 11
699.01611705108746
 21
258.73208664497031
  0
LINE
  8
_0-0_
  6
CONTINUOUS
 62
    7
 10
674.76740641876415
 20
270.37161357219509
 11
674.76740641876415
 21
260.09255837043418
  0
LINE
  8
_0-0_
  6
CONTINUOUS
 62
    7
 10
681.69560952469067
 20
260.09255837043418
 11
681.69560952469067
 21
270.37161376697657
  0
LINE
  8
_0-0_
  6
CONTINUOUS
 62
    7
 10
681.69560952469067
 20
232.23208264497075
 11
681.69560952469067
 21
223.59255436858197
  0
LINE
  8
_0-0_
  6
CONTINUOUS
 62
    7
 10
680.62381263246891
 20
258.73208664497031
 11
680.62381263246891
 21
232.23208264311856
  0
LINE
  8
_0-0_
  6
CONTINUOUS
 62
    7
 10
696.62381263246982
 20
232.23208264311856
 11
696.62381263246982
 21
258.73208664497031
  0
LINE
  8
_0-0_
  6
CONTINUOUS
 62
    7
 10
695.55201573654369
 20
223.59255436858197
 11
695.55201573654369
 21
232.23208264497075
  0
LINE
  8
_0-0_
  6
CONTINUOUS
 62
    7
 10
696.62381263246982
 20
218.17635455311742
 11
696.62381263246982
 21
222.23208264311856
  0
LINE
  8
_0-0_
  6
CONTINUOUS
 62
    7
 10
680.62381263246891
 20
218.17635455311742
 11
696.62381263246982
 21
218.17635455311742
  0
LINE
  8
_0-0_
  6
CONTINUOUS
 62
    7
 10
680.62381263246891
 20
222.23208264311856
 11
680.62381263246891
 21
218.17635455311742
  0
LINE
  8
_0-0_
  6
CONTINUOUS
 62
    7
 10
699.01611705108746
 20
222.23208264311856
 11
678.23150821014417
 21
222.23208264311856
  0
LINE
  8
_0-0_
  6
CONTINUOUS
 62
    7
 10
702.48021884247021
 20
232.2320826449712
 11
702.48021884247021
 21
223.59255436858197
  0
LINE
  8
_0-0_
  6
CONTINUOUS
 62
    7
 10
674.76740641876415
 20
232.2320826449712
 11
702.48021884247021
 21
232.2320826449712
  0
LINE
  8
_0-0_
  6
CONTINUOUS
 62
    7
 10
674.76740641876415
 20
223.59255436858197
 11
674.76740641876415
 21
232.2320826449712
  0
LINE
  8
_0-0_
  6
CONTINUOUS
 62
    7
 10
658.62381263246891
 20
188.23208264311856
 11
658.62381263246891
 21
200.03208264311874
  0
LINE
  8
_0-0_
  6
CONTINUOUS
 62
    7
 10
662.62381263246891
 20
187.23208264311856
 11
662.62381263246891
 21
188.23208264311856
  0
LINE
  8
_0-0_
  6
CONTINUOUS
 62
    7
 10
714.62381263246982
 20
187.23208264311856
 11
662.62381263246891
 21
187.23208264311856
  0
LINE
  8
_0-0_
  6
CONTINUOUS
 62
    7
 10
714.62381263246982
 20
188.23208264311856
 11
714.62381263246982
 21
187.23208264311856
  0
LINE
  8
_0-0_
  6
CONTINUOUS
 62
    7
 10
658.62381263246891
 20
200.03208264311874
 11
718.62381263246982
 21
200.03208264311874
  0
LINE
  8
_0-0_
  6
CONTINUOUS
 62
    7
 10
670.82381263246964
 20
212.23208264311856
 11
658.62381263246891
 21
200.03208264311874
  0
LINE
  8
_0-0_
  6
CONTINUOUS
 62
    7
 10
706.42381263247
 20
212.23208264311856
 11
670.82381263246964
 21
212.23208264311856
  0
LINE
  8
_0-0_
  6
CONTINUOUS
 62
    7
 10
718.62381263246982
 20
200.03208264311874
 11
706.42381263247
 21
212.23208264311856
  0
LINE
  8
_0-0_
  6
CONTINUOUS
 62
    7
 10
718.62381263246982
 20
188.23208264311856
 11
718.62381263246982
 21
200.03208264311874
  0
LINE
  8
_0-0_
  6
CONTINUOUS
 62
    7
 10
658.62381263246891
 20
188.23208264311856
 11
718.62381263246982
 21
188.23208264311856
  0
ARC
  8
_0-0_
  6
CONTINUOUS
 62
    7
 10
867.96656924175693
 20
219.7320826431181
 40
26.499999999999986
 50
141.56203196710712
 51
207.28708195181781
  0
ARC
  8
_0-0_
  6
CONTINUOUS
 62
    7
 10
867.96656924175693
 20
219.7320826431181
 40
26.499999999999986
 50
232.85935847446484
 51
38.437968032892918
  0
ARC
  8
_0-0_
  6
CONTINUOUS
 62
    7
 10
867.96656924175693
 20
219.7320826431181
 40
24.999999999999986
 50
143.95770726244544
 51
36.042292737554476
  0
ARC
  8
_0-0_
  6
CONTINUOUS
 62
    7
 10
867.96656924175693
 20
219.7320826431181
 40
20.999999999999986
 50
153.21098365441662
 51
26.789016345583377
  0
ARC
  8
_0-0_
  6
CONTINUOUS
 62
    7
 10
867.96656924175693
 20
219.7320826431181
 40
19.499999999999986
 50
158.28472081587677
 51
21.715279184123233
  0
ARC
  8
_0-0_
  6
CONTINUOUS
 62
    7
 10
867.96656924175693
 20
219.7320826431181
 40
32.499999999999986
 50
134.5367044831703
 51
193.34236379708659
  0
ARC
  8
_0-0_
  6
CONTINUOUS
 62
    7
 10
867.96656924175693
 20
219.7320826431181
 40
32.499999999999986
 50
240.50762732493723
 51
45.463295516829703
  0
ARC
  8
_0-0_
  6
CONTINUOUS
 62
    7
 10
827.06656924175729
 20
268.03208264311786
 40
9.9999999999999858
 50
16.933599563886567
 51
21.715641952300629
  0
ARC
  8
_0-0_
  6
CONTINUOUS
 62
    7
 10
908.86656924175747
 20
271.23208264311813
 40
9.9999999999999858
 50
147.76235769712343
 51
164.35842721122052
  0
ARC
  8
_0-0_
  6
CONTINUOUS
 62
    7
 10
908.86656924175747
 20
268.03208264311786
 40
9.9999999999999858
 50
114.04425382037398
 51
163.06640043611344
  0
ARC
  8
_0-0_
  6
CONTINUOUS
 62
    7
 10
867.96656924175693
 20
219.7320826431181
 40
15.499999999999986
 50
195.79434086698456
 51
270
  0
CIRCLE
  8
_0-0_
  6
CONTINUOUS
 62
    7
 10
867.96656924175693
 20
219.7320826431181
 40
8.5
  0
ARC
  8
_0-0_
  6
CONTINUOUS
 62
    7
 10
867.96656924175693
 20
219.7320826431181
 40
15.499999999999986
 50
270
 51
344.20565913301544
  0
ARC
  8
_0-0_
  6
CONTINUOUS
 62
    7
 10
821.96656923990429
 20
253.41091297521083
 40
18.321172714233402
 50
67.780689151566378
 51
112.21931084843361
  0
LINE
  8
_0-0_
  6
CONTINUOUS
 62
    7
 10
808.77685697158722
 20
270.85692704593862
 11
808.11016302805035
 21
270.37161357219543
  0
LINE
  8
_0-0_
  6
CONTINUOUS
 62
    7
 10
810.33409015800407
 20
271.56341244116254
 11
808.77685697158722
 21
270.85692704593862
  0
LINE
  8
_0-0_
  6
CONTINUOUS
 62
    7
 10
811.92900542394966
 20
271.71834332572143
 11
810.33409015800407
 21
271.56341244116254
  0
LINE
  8
_0-0_
  6
CONTINUOUS
 62
    7
 10
813.5131420761345
 20
271.31701220308685
 11
811.92900542394966
 21
271.71834332572143
  0
LINE
  8
_0-0_
  6
CONTINUOUS
 62
    7
 10
815.03836692399352
 20
270.37161331633661
 11
813.5131420761345
 21
271.31701220308685
  0
LINE
  8
_0-0_
  6
CONTINUOUS
 62
    7
 10
829.56146549038885
 20
270.856926839322
 11
828.89477381426718
 21
270.37161516142839
  0
LINE
  8
_0-0_
  6
CONTINUOUS
 62
    7
 10
831.11869866376037
 20
271.56341234956324
 11
829.56146549038885
 21
270.856926839322
  0
LINE
  8
_0-0_
  6
CONTINUOUS
 62
    7
 10
832.71361392684526
 20
271.71834335192261
 11
831.11869866376037
 21
271.56341234956324
  0
LINE
  8
_0-0_
  6
CONTINUOUS
 62
    7
 10
834.29775058644066
 20
271.31701234629236
 11
832.71361392684526
 21
271.71834335192261
  0
LINE
  8
_0-0_
  6
CONTINUOUS
 62
    7
 10
835.82297545175652
 20
270.37161357219532
 11
834.29775058644066
 21
271.31701234629236
  0
LINE
  8
_0-0_
  6
CONTINUOUS
 62
    7
 10
814.37167499035434
 20
259.60724773214031
 11
815.03836692399352
 21
260.09255997175217
  0
LINE
  8
_0-0_
  6
CONTINUOUS
 62
    7
 10
812.81444189801175
 20
258.90076150748394
 11
814.37167499035434
 21
259.60724773214031
  0
LINE
  8
_0-0_
  6
CONTINUOUS
 62
    7
 10
811.21952665269657
 20
258.74582977342175
 11
812.81444189801175
 21
258.90076150748394
  0
LINE
  8
_0-0_
  6
CONTINUOUS
 62
    7
 10
809.6353899470713
 20
259.14716005229411
 11
811.21952665269657
 21
258.74582977342175
  0
LINE
  8
_0-0_
  6
CONTINUOUS
 62
    7
 10
808.1101649733248
 20
260.09255812666038
 11
809.6353899470713
 21
259.14716005229411
  0
LINE
  8
_0-0_
  6
CONTINUOUS
 62
    7
 10
835.15628383129672
 20
259.60724773214031
 11
835.8229757649359
 21
260.09255997175217
  0
LINE
  8
_0-0_
  6
CONTINUOUS
 62
    7
 10
833.59905073895413
 20
258.90076150748394
 11
835.15628383129672
 21
259.60724773214031
  0
LINE
  8
_0-0_
  6
CONTINUOUS
 62
    7
 10
832.00413549363896
 20
258.74582977342175
 11
833.59905073895413
 21
258.90076150748394
  0
LINE
  8
_0-0_
  6
CONTINUOUS
 62
    7
 10
830.41999878801369
 20
259.14716005229411
 11
832.00413549363896
 21
258.74582977342175
  0
LINE
  8
_0-0_
  6
CONTINUOUS
 62
    7
 10
828.89477381426718
 20
260.09255812666038
 11
830.41999878801369
 21
259.14716005229411
  0
ARC
  8
_0-0_
  6
CONTINUOUS
 62
    7
 10
821.96656923990429
 20
277.05326031287802
 40
18.321172714233402
 50
247.78070068359375
 51
292.21931457519531
  0
ARC
  8
_0-0_
  6
CONTINUOUS
 62
    7
 10
821.96656924175693
 20
209.23208264311901
 40
12.000000000000004
 50
131.81031489577896
 51
165.5224878140701
  0
ARC
  8
_0-0_
  6
CONTINUOUS
 62
    7
 10
821.96656924175693
 20
209.23208264311901
 40
12.000000000000004
 50
14.477512185929857
 51
48.189685104221027
  0
LINE
  8
_0-0_
  6
CONTINUOUS
 62
    7
 10
814.37167499035434
 20
223.10724373028816
 11
815.03836692399352
 21
223.59255596990002
  0
LINE
  8
_0-0_
  6
CONTINUOUS
 62
    7
 10
812.81444189801175
 20
222.40075750563173
 11
814.37167499035434
 21
223.10724373028816
  0
LINE
  8
_0-0_
  6
CONTINUOUS
 62
    7
 10
811.21952665269657
 20
222.2458257715696
 11
812.81444189801175
 21
222.40075750563173
  0
LINE
  8
_0-0_
  6
CONTINUOUS
 62
    7
 10
809.6353899470713
 20
222.64715605044196
 11
811.21952665269657
 21
222.2458257715696
  0
LINE
  8
_0-0_
  6
CONTINUOUS
 62
    7
 10
808.1101649733248
 20
223.59255412480823
 11
809.6353899470713
 21
222.64715605044196
  0
LINE
  8
_0-0_
  6
CONTINUOUS
 62
    7
 10
835.15628383129672
 20
223.10724373028816
 11
835.8229757649359
 21
223.59255596990002
  0
LINE
  8
_0-0_
  6
CONTINUOUS
 62
    7
 10
833.59905073895413
 20
222.40075750563173
 11
835.15628383129672
 21
223.10724373028816
  0
LINE
  8
_0-0_
  6
CONTINUOUS
 62
    7
 10
832.00413549363896
 20
222.2458257715696
 11
833.59905073895413
 21
222.40075750563173
  0
LINE
  8
_0-0_
  6
CONTINUOUS
 62
    7
 10
830.41999878801369
 20
222.64715605044196
 11
832.00413549363896
 21
222.2458257715696
  0
LINE
  8
_0-0_
  6
CONTINUOUS
 62
    7
 10
828.89477381426718
 20
223.59255412480823
 11
830.41999878801369
 21
222.64715605044196
  0
ARC
  8
_0-0_
  6
CONTINUOUS
 62
    7
 10
821.96656923990429
 20
240.55325631102582
 40
18.321172714233402
 50
247.78070068359375
 51
292.21931457519531
  0
ARC
  8
_0-0_
  6
CONTINUOUS
 62
    7
 10
913.41934308349425
 20
281.36894328293181
 40
3
 50
277.76734898558624
 51
356.99999999999989
  0
ARC
  8
_0-0_
  6
CONTINUOUS
 62
    7
 10
916.4396791791163
 20
291.23208264311813
 40
0.5
 50
356.99999999999994
 51
90.000000000000043
  0
ARC
  8
_0-0_
  6
CONTINUOUS
 62
    7
 10
782.912653751216
 20
273.73208664311858
 40
2
 50
183.00000000000011
 51
270
  0
ARC
  8
_0-0_
  6
CONTINUOUS
 62
    7
 10
837.11967554161163
 20
298.73208664311858
 40
3
 50
2.9999999999997238
 51
90.000000000000043
  0
ARC
  8
_0-0_
  6
CONTINUOUS
 62
    7
 10
806.81346294190132
 20
298.73208664311858
 40
3
 50
90
 51
177.00000000000031
  0
ARC
  8
_0-0_
  6
CONTINUOUS
 62
    7
 10
841.43961181093289
 20
292.73208264311813
 40
1
 50
183
 51
270
  0
ARC
  8
_0-0_
  6
CONTINUOUS
 62
    7
 10
802.49352667258006
 20
292.73208264311813
 40
1
 50
270
 51
357.00000000000006
  0
ARC
  8
_0-0_
  6
CONTINUOUS
 62
    7
 10
780.46656924175693
 20
291.23208264311813
 40
0.5
 50
90
 51
180
  0
LINE
  8
_0-0_
  6
CONTINUOUS
 62
    7
 10
791.96656924175693
 20
200.0320826431192
 11
851.96656924175693
 21
200.0320826431192
  0
LINE
  8
_0-0_
  6
CONTINUOUS
 62
    7
 10
795.96656924175693
 20
187.23208264311901
 11
795.96656924175693
 21
188.23208264311901
  0
LINE
  8
_0-0_
  6
CONTINUOUS
 62
    7
 10
847.96656924175693
 20
187.23208264311901
 11
795.96656924175693
 21
187.23208264311901
  0
LINE
  8
_0-0_
  6
CONTINUOUS
 62
    7
 10
847.96656924175693
 20
187.23208264311901
 11
847.96656924175693
 21
188.23208264311901
  0
LINE
  8
_0-0_
  6
CONTINUOUS
 62
    7
 10
840.44098227617849
 20
292.67974668687509
 11
840.11556414587574
 21
298.88909451184725
  0
LINE
  8
_0-0_
  6
CONTINUOUS
 62
    7
 10
803.81757433763721
 20
298.88909451184725
 11
803.49215620733446
 21
292.67974668687509
  0
LINE
  8
_0-0_
  6
CONTINUOUS
 62
    7
 10
837.11967554161163
 20
301.73208664311858
 11
806.81346294190132
 21
301.73208664311858
  0
LINE
  8
_0-0_
  6
CONTINUOUS
 62
    7
 10
829.96656924175693
 20
301.73208664311858
 11
829.96656924175693
 21
332.33208302458831
  0
LINE
  8
_0-0_
  6
CONTINUOUS
 62
    7
 10
814.86656933712436
 20
333.2320826431195
 11
813.96656924175693
 21
332.33208302458831
  0
LINE
  8
_0-0_
  6
CONTINUOUS
 62
    7
 10
813.96656924175693
 20
332.33208302458831
 11
813.96656924175693
 21
301.73208664311858
  0
LINE
  8
_0-0_
  6
CONTINUOUS
 62
    7
 10
829.0665691463895
 20
333.2320826431195
 11
829.96656924175693
 21
332.33208302458831
  0
LINE
  8
_0-0_
  6
CONTINUOUS
 62
    7
 10
814.86656933712436
 20
333.2320826431195
 11
829.0665691463895
 21
333.2320826431195
  0
LINE
  8
_0-0_
  6
CONTINUOUS
 62
    7
 10
829.96656924175693
 20
232.23208264311901
 11
829.96656924175693
 21
258.73208664497031
  0
LINE
  8
_0-0_
  6
CONTINUOUS
 62
    7
 10
828.8947723458308
 20
223.59255436858197
 11
828.8947723458308
 21
232.23208264497075
  0
LINE
  8
_0-0_
  6
CONTINUOUS
 62
    7
 10
804.16656924175675
 20
212.23208264311901
 11
839.76656924175711
 21
212.23208264311901
  0
LINE
  8
_0-0_
  6
CONTINUOUS
 62
    7
 10
791.96656924175693
 20
200.0320826431192
 11
804.16656924175675
 21
212.23208264311901
  0
LINE
  8
_0-0_
  6
CONTINUOUS
 62
    7
 10
791.96656924175693
 20
188.23208264311901
 11
791.96656924175693
 21
200.0320826431192
  0
LINE
  8
_0-0_
  6
CONTINUOUS
 62
    7
 10
851.96656924175693
 20
188.23208264311901
 11
791.96656924175693
 21
188.23208264311901
  0
LINE
  8
_0-0_
  6
CONTINUOUS
 62
    7
 10
851.96656924175693
 20
200.0320826431192
 11
851.96656924175693
 21
188.23208264311901
  0
LINE
  8
_0-0_
  6
CONTINUOUS
 62
    7
 10
839.76656924175711
 20
212.23208264311901
 11
851.96656924175693
 21
200.0320826431192
  0
LINE
  8
_0-0_
  6
CONTINUOUS
 62
    7
 10
837.31114426315469
 20
271.73208664311858
 11
853.04057779869743
 21
215.55299429256488
  0
LINE
  8
_0-0_
  6
CONTINUOUS
 62
    7
 10
828.8947723458308
 20
260.09255837043418
 11
828.8947723458308
 21
270.37161376697657
  0
LINE
  8
_0-0_
  6
CONTINUOUS
 62
    7
 10
808.11016302805126
 20
270.37161357219554
 11
808.11016302805126
 21
260.09255837043418
  0
LINE
  8
_0-0_
  6
CONTINUOUS
 62
    7
 10
815.03836613397777
 20
260.09255837043418
 11
815.03836613397777
 21
270.37161376697657
  0
LINE
  8
_0-0_
  6
CONTINUOUS
 62
    7
 10
883.96656924175693
 20
271.45264603577732
 11
883.96656924175693
 21
242.91046779284929
  0
LINE
  8
_0-0_
  6
CONTINUOUS
 62
    7
 10
888.12246858153355
 20
234.2320826431181
 11
899.30013979085959
 21
270.94471505401532
  0
LINE
  8
_0-0_
  6
CONTINUOUS
 62
    7
 10
835.82297545175732
 20
232.23208264497165
 11
835.82297545175732
 21
223.59255436858197
  0
LINE
  8
_0-0_
  6
CONTINUOUS
 62
    7
 10
808.11016302805126
 20
232.23208264497165
 11
835.82297545175732
 21
232.23208264497165
  0
LINE
  8
_0-0_
  6
CONTINUOUS
 62
    7
 10
808.11016302805126
 20
223.59255436858197
 11
808.11016302805126
 21
232.23208264497165
  0
LINE
  8
_0-0_
  6
CONTINUOUS
 62
    7
 10
832.35887366037457
 20
222.23208264311901
 11
811.57426481943219
 21
222.23208264311901
  0
LINE
  8
_0-0_
  6
CONTINUOUS
 62
    7
 10
829.96656924175693
 20
218.17635455311787
 11
829.96656924175693
 21
222.23208264311901
  0
LINE
  8
_0-0_
  6
CONTINUOUS
 62
    7
 10
813.96656924175693
 20
218.17635455311787
 11
829.96656924175693
 21
218.17635455311787
  0
LINE
  8
_0-0_
  6
CONTINUOUS
 62
    7
 10
813.96656924175693
 20
222.23208264311901
 11
813.96656924175693
 21
218.17635455311787
  0
LINE
  8
_0-0_
  6
CONTINUOUS
 62
    7
 10
815.03836613397777
 20
232.23208264497075
 11
815.03836613397777
 21
223.59255436858197
  0
LINE
  8
_0-0_
  6
CONTINUOUS
 62
    7
 10
813.96656924175693
 20
258.73208664497031
 11
813.96656924175693
 21
232.23208264311901
  0
LINE
  8
_0-0_
  6
CONTINUOUS
 62
    7
 10
832.35887366037457
 20
258.73208664497031
 11
811.57426481943219
 21
258.73208664497031
  0
LINE
  8
_0-0_
  6
CONTINUOUS
 62
    7
 10
835.82297545175732
 20
270.37161357219554
 11
835.82297545175732
 21
260.09255837043418
  0
LINE
  8
_0-0_
  6
CONTINUOUS
 62
    7
 10
847.8106699019803
 20
234.2320826431181
 11
836.63299869265427
 21
270.94471505401532
  0
LINE
  8
_0-0_
  6
CONTINUOUS
 62
    7
 10
851.96656924175784
 20
271.45264603577732
 11
851.96656924175784
 21
242.91046779284929
  0
LINE
  8
_0-0_
  6
CONTINUOUS
 62
    7
 10
864.96656924175693
 20
291.2749565458538
 11
864.96656924175693
 21
272.37770453882001
  0
LINE
  8
_0-0_
  6
CONTINUOUS
 62
    7
 10
899.23689734300967
 20
273.92826867573319
 11
882.89256068481552
 21
215.55299429256488
  0
LINE
  8
_0-0_
  6
CONTINUOUS
 62
    7
 10
864.96656924175693
 20
271.73208664311858
 11
913.82479594918311
 21
278.39646822438169
  0
LINE
  8
_0-0_
  6
CONTINUOUS
 62
    7
 10
782.912653751216
 20
271.73208664311858
 11
864.96656924175693
 21
271.73208664311858
  0
LINE
  8
_0-0_
  6
CONTINUOUS
 62
    7
 10
916.93899394649304
 20
291.20591466499661
 11
916.41523168775836
 21
281.21193541420269
  0
LINE
  8
_0-0_
  6
CONTINUOUS
 62
    7
 10
780.46656924175693
 20
291.73208264311813
 11
916.4396791791163
 21
291.73208264311813
  0
LINE
  8
_0-0_
  6
CONTINUOUS
 62
    7
 10
780.9153946817072
 20
273.62741473063249
 11
779.96656924175693
 21
291.73208264311813
  0
ARC
  8
_0-0_
  6
CONTINUOUS
 62
    7
 10
404.82299403246907
 20
105.33693955863566
 40
4
 50
245.97555071439754
 51
216.27561782572616
  0
ARC
  8
_0-0_
  6
CONTINUOUS
 62
    7
 10
404.82299403246907
 20
105.33693955863566
 40
6.25
 50
279.05167849862158
 51
183.19949004150453
  0
ARC
  8
_0-0_
  6
CONTINUOUS
 62
    7
 10
359.82299403246907
 20
105.33693955863566
 40
4
 50
323.72438217427384
 51
294.02444928559902
  0
ARC
  8
_0-0_
  6
CONTINUOUS
 62
    7
 10
359.82299403246907
 20
105.33693955863566
 40
6.25
 50
356.80050995849547
 51
260.94832150137637
  0
CIRCLE
  8
_0-0_
  6
CONTINUOUS
 62
    7
 10
404.82299403246907
 20
105.33693955863566
 40
3.4600000381469727
  0
CIRCLE
  8
_0-0_
  6
CONTINUOUS
 62
    7
 10
359.82299403246907
 20
105.33693955863566
 40
3.4600000381469727
  0
ARC
  8
_0-0_
  6
CONTINUOUS
 62
    7
 10
428.32299403246907
 20
149.836939558636
 40
3.0000000000000009
 50
270
 51
0
  0
ARC
  8
_0-0_
  6
CONTINUOUS
 62
    7
 10
333.56563471958816
 20
143.836939558636
 40
3.0000000000000009
 50
90.000000000000057
 51
135.00000000000006
  0
ARC
  8
_0-0_
  6
CONTINUOUS
 62
    7
 10
301.32299403246907
 20
22.836939558635208
 40
3.0000000000000009
 50
270
 51
0
  0
ARC
  8
_0-0_
  6
CONTINUOUS
 62
    7
 10
419.09254665416938
 20
68.836939558636118
 40
4.25
 50
219.70834612844322
 51
140.29165387155689
  0
ARC
  8
_0-0_
  6
CONTINUOUS
 62
    7
 10
418.82299403246907
 20
46.336939558636118
 40
4.2500000000000009
 50
298.07248693585296
 51
118.07248693585296
  0
ARC
  8
_0-0_
  6
CONTINUOUS
 62
    7
 10
345.82299403246907
 20
46.336939558636118
 40
4.2500000000000009
 50
45.099127844027301
 51
314.90087215597271
  0
ARC
  8
_0-0_
  6
CONTINUOUS
 62
    7
 10
345.55344141076876
 20
68.836939558636118
 40
4.25
 50
39.70834612844326
 51
320.29165387155678
  0
ARC
  8
_0-0_
  6
CONTINUOUS
 62
    7
 10
345.82299403246907
 20
91.336939558636118
 40
4.2500000000000009
 50
45.099127844027414
 51
314.90087215597259
  0
ARC
  8
_0-0_
  6
CONTINUOUS
 62
    7
 10
418.82299403246907
 20
91.336939558636118
 40
4.2500000000000009
 50
225.09912784402729
 51
134.90087215597271
  0
ARC
  8
_0-0_
  6
CONTINUOUS
 62
    7
 10
382.32299403246907
 20
105.60649218033643
 40
4.25
 50
62.183052208199804
 51
117.8169477918002
  0
ARC
  8
_0-0_
  6
CONTINUOUS
 62
    7
 10
382.32299403246907
 20
68.836939558635663
 40
21
 50
347.67230522904612
 51
192.3276947709534
  0
ARC
  8
_0-0_
  6
CONTINUOUS
 62
    7
 10
382.32299403246907
 20
68.836939558635663
 40
12
 50
38.682187453489483
 51
141.31781254651054
  0
ARC
  8
_0-0_
  6
CONTINUOUS
 62
    7
 10
382.32299403246907
 20
77.426891812164399
 40
32
 50
326.11752481942341
 51
213.88247518057665
  0
ARC
  8
_0-0_
  6
CONTINUOUS
 62
    7
 10
382.32299403246907
 20
76.767363114736895
 40
29
 50
323.91560358208682
 51
216.08439641791327
  0
ARC
  8
_0-0_
  6
CONTINUOUS
 62
    7
 10
357.02299403246889
 20
58.96121152580929
 40
2
 50
0
 51
21.279604427172014
  0
ARC
  8
_0-0_
  6
CONTINUOUS
 62
    7
 10
353.82299403246907
 20
59.078186476880205
 40
2
 50
0
 51
14.743562836469456
  0
ARC
  8
_0-0_
  6
CONTINUOUS
 62
    7
 10
410.82299403246907
 20
59.078186476880205
 40
2
 50
165.25643716352923
 51
179.99999999999997
  0
ARC
  8
_0-0_
  6
CONTINUOUS
 62
    7
 10
407.62299403246834
 20
58.96121152580929
 40
2
 50
158.72039557282559
 51
180
  0
ARC
  8
_0-0_
  6
CONTINUOUS
 62
    7
 10
404.82299403246907
 20
32.336939558635663
 40
5.5
 50
316.65824177277773
 51
324.90319877241524
  0
ARC
  8
_0-0_
  6
CONTINUOUS
 62
    7
 10
404.82299403246907
 20
32.336939558635663
 40
5.5
 50
260.58197278004229
 51
313.34175822721875
  0
ARC
  8
_0-0_
  6
CONTINUOUS
 62
    7
 10
359.82299403246907
 20
32.336939558636118
 40
5.5
 50
226.65824177278128
 51
279.41802721995526
  0
ARC
  8
_0-0_
  6
CONTINUOUS
 62
    7
 10
359.82299403246907
 20
32.336939558636118
 40
5.5
 50
215.09680122758473
 51
223.34175822721895
  0
ARC
  8
_0-0_
  6
CONTINUOUS
 62
    7
 10
365.32299403246907
 20
73.336939558635663
 40
3
 50
90
 51
180
  0
ARC
  8
_0-0_
  6
CONTINUOUS
 62
    7
 10
399.32299403246907
 20
73.336939558635663
 40
3
 50
0
 51
90
  0
ARC
  8
_0-0_
  6
CONTINUOUS
 62
    7
 10
361.85424403061825
 20
43.836939558635663
 40
11.031249998148837
 50
129.59775270452442
 51
230.40224730257353
  0
ARC
  8
_0-0_
  6
CONTINUOUS
 62
    7
 10
413.75003953246869
 20
36.187952558635175
 40
5
 50
146.64688299999955
 51
170.20040446175079
  0
ARC
  8
_0-0_
  6
CONTINUOUS
 62
    7
 10
413.75003953246869
 20
51.485926558635242
 40
5
 50
189.79959553824938
 51
213.35311700000037
  0
ARC
  8
_0-0_
  6
CONTINUOUS
 62
    7
 10
418.77454653246878
 20
44.820098058635836
 40
10
 50
156.94066600000005
 51
174.35779567859214
  0
ARC
  8
_0-0_
  6
CONTINUOUS
 62
    7
 10
418.77454653246878
 20
42.853781058635491
 40
10
 50
185.64220432140786
 51
203.05933400000001
  0
ARC
  8
_0-0_
  6
CONTINUOUS
 62
    7
 10
405.34823203246924
 20
44.546954558635321
 40
10
 50
355.92848900000001
 51
24.771375999999677
  0
ARC
  8
_0-0_
  6
CONTINUOUS
 62
    7
 10
416.07299403246907
 20
51.336939558635663
 40
0.75
 50
0
 51
90
  0
ARC
  8
_0-0_
  6
CONTINUOUS
 62
    7
 10
410.34463053246964
 20
51.622293558635306
 40
5
 50
324.75521999999961
 51
5.3321449999998736
  0
ARC
  8
_0-0_
  6
CONTINUOUS
 62
    7
 10
405.34823203246924
 20
43.126924558635096
 40
10
 50
335.22862399999991
 51
4.0715109999995889
  0
ARC
  8
_0-0_
  6
CONTINUOUS
 62
    7
 10
410.34463053246964
 20
36.051585558635111
 40
5
 50
354.66785499999975
 51
35.244780000000013
  0
ARC
  8
_0-0_
  6
CONTINUOUS
 62
    7
 10
416.07299403246907
 20
36.336939558635663
 40
0.75
 50
270
 51
0
  0
ARC
  8
_0-0_
  6
CONTINUOUS
 62
    7
 10
353.82299403246907
 20
26.336939558636118
 40
5
 50
180
 51
270
  0
ARC
  8
_0-0_
  6
CONTINUOUS
 62
    7
 10
353.82299403246907
 20
111.33693955863566
 40
5
 50
90
 51
180
  0
ARC
  8
_0-0_
  6
CONTINUOUS
 62
    7
 10
410.82299403246907
 20
26.336939558635663
 40
5
 50
270
 51
0
  0
ARC
  8
_0-0_
  6
CONTINUOUS
 62
    7
 10
410.82299403246907
 20
111.33693955863566
 40
5
 50
0
 51
90
  0
ARC
  8
_0-0_
  6
CONTINUOUS
 62
    7
 10
399.32299403246907
 20
14.336939558635663
 40
3
 50
270
 51
0
  0
ARC
  8
_0-0_
  6
CONTINUOUS
 62
    7
 10
365.32299403246907
 20
14.336939558635663
 40
3
 50
180
 51
270
  0
ARC
  8
_0-0_
  6
CONTINUOUS
 62
    7
 10
382.32299403246907
 20
68.836939558635663
 40
24
 50
334.15806723683113
 51
205.84193276316762
  0
CIRCLE
  8
_0-0_
  6
CONTINUOUS
 62
    7
 10
280.32299403246907
 20
114.83693955863612
 40
30
  0
CIRCLE
  8
_0-0_
  6
CONTINUOUS
 62
    7
 10
280.32299403246907
 20
114.83693955863612
 40
10
  0
ARC
  8
_0-0_
  6
CONTINUOUS
 62
    7
 10
431.32299403246907
 20
137.01429300328891
 40
3.0000000000000009
 50
353.2334729076797
 51
0
  0
ARC
  8
_0-0_
  6
CONTINUOUS
 62
    7
 10
297.32299403246907
 20
22.836939558635208
 40
3.0000000000000009
 50
180
 51
270
  0
ARC
  8
_0-0_
  6
CONTINUOUS
 62
    7
 10
428.32299403246907
 20
153.836939558636
 40
3.0000000000000009
 50
0
 51
90
  0
ARC
  8
_0-0_
  6
CONTINUOUS
 62
    7
 10
428.32299403246907
 20
38.07958024575521
 40
3.0000000000000009
 50
315
 51
0
  0
CIRCLE
  8
_0-0_
  6
CONTINUOUS
 62
    7
 10
363.32299403246907
 20
136.83693955863555
 40
3.2500000000000004
  0
CIRCLE
  8
_0-0_
  6
CONTINUOUS
 62
    7
 10
383.32299403246907
 20
136.83693955863555
 40
3.2500000000000004
  0
CIRCLE
  8
_0-0_
  6
CONTINUOUS
 62
    7
 10
423.32299403246907
 20
136.83693955863555
 40
3.2500000000000004
  0
CIRCLE
  8
_0-0_
  6
CONTINUOUS
 62
    7
 10
314.32299403246907
 20
87.836939558636118
 40
3.2500000000000009
  0
CIRCLE
  8
_0-0_
  6
CONTINUOUS
 62
    7
 10
314.32299403246907
 20
67.836939558635208
 40
3.2500000000000009
  0
CIRCLE
  8
_0-0_
  6
CONTINUOUS
 62
    7
 10
314.32299403246907
 20
27.836939558636118
 40
3.2500000000000009
  0
ARC
  8
_0-0_
  6
CONTINUOUS
 62
    7
 10
413.08035334534998
 20
22.836939558635208
 40
3.0000000000000009
 50
270
 51
314.99999999999977
  0
LINE
  8
_0-0_
  6
CONTINUOUS
 62
    7
 10
348.82299403246907
 20
26.336939558636118
 11
348.82299403246907
 21
111.33693955863566
  0
LINE
  8
_0-0_
  6
CONTINUOUS
 62
    7
 10
355.82299403246907
 20
35.336939558635663
 11
354.82299403246907
 21
35.336939558635663
  0
LINE
  8
_0-0_
  6
CONTINUOUS
 62
    7
 10
360.7229940324687
 20
33.836939558635663
 11
359.02299403246889
 21
33.836939558635663
  0
LINE
  8
_0-0_
  6
CONTINUOUS
 62
    7
 10
403.92299403246852
 20
63.336939558635663
 11
402.32299403246907
 21
64.836939558635663
  0
LINE
  8
_0-0_
  6
CONTINUOUS
 62
    7
 10
405.62299403246834
 20
53.836939558635663
 11
403.92299403246852
 21
53.836939558635663
  0
LINE
  8
_0-0_
  6
CONTINUOUS
 62
    7
 10
403.92299403246852
 20
33.836939558635663
 11
405.62299403246834
 21
33.836939558635663
  0
LINE
  8
_0-0_
  6
CONTINUOUS
 62
    7
 10
365.32299403246907
 20
11.336939558635663
 11
399.32299403246907
 21
11.336939558635663
  0
LINE
  8
_0-0_
  6
CONTINUOUS
 62
    7
 10
360.7229940324687
 20
63.336939558635663
 11
362.32299403246907
 21
64.836939558635663
  0
LINE
  8
_0-0_
  6
CONTINUOUS
 62
    7
 10
409.57354953246886
 20
38.936939558635117
 11
414.42810103246848
 21
38.936939558635117
  0
LINE
  8
_0-0_
  6
CONTINUOUS
 62
    7
 10
402.32299403246907
 20
21.336939558635663
 11
410.82299403246907
 21
21.336939558635663
  0
LINE
  8
_0-0_
  6
CONTINUOUS
 62
    7
 10
403.92299403246852
 20
24.336939558635663
 11
402.32299403246907
 21
22.836939558635663
  0
LINE
  8
_0-0_
  6
CONTINUOUS
 62
    7
 10
403.92299403246852
 20
63.336939558635663
 11
403.92299403246852
 21
24.336939558635663
  0
LINE
  8
_0-0_
  6
CONTINUOUS
 62
    7
 10
420.82299403246907
 20
39.5369393679008
 11
420.12299326952962
 21
38.836939558635663
  0
LINE
  8
_0-0_
  6
CONTINUOUS
 62
    7
 10
420.82299403246907
 20
48.136939749370526
 11
416.82299403246907
 21
48.136939749370526
  0
LINE
  8
_0-0_
  6
CONTINUOUS
 62
    7
 10
420.82299403246907
 20
48.136939749370526
 11
420.12299326952962
 21
48.836939558635663
  0
LINE
  8
_0-0_
  6
CONTINUOUS
 62
    7
 10
420.82299403246907
 20
39.5369393679008
 11
420.82299403246907
 21
48.136939749370526
  0
LINE
  8
_0-0_
  6
CONTINUOUS
 62
    7
 10
416.82299403246907
 20
39.5369393679008
 11
420.82299403246907
 21
39.5369393679008
  0
LINE
  8
_0-0_
  6
CONTINUOUS
 62
    7
 10
420.12299326952962
 20
38.836939558635663
 11
416.82299403246907
 21
38.836939558635663
  0
LINE
  8
_0-0_
  6
CONTINUOUS
 62
    7
 10
420.12299326952962
 20
48.836939558635663
 11
420.12299326952962
 21
38.836939558635663
  0
LINE
  8
_0-0_
  6
CONTINUOUS
 62
    7
 10
416.82299403246907
 20
48.836939558635663
 11
420.12299326952962
 21
48.836939558635663
  0
LINE
  8
_0-0_
  6
CONTINUOUS
 62
    7
 10
409.57354953246886
 20
48.736939558635299
 11
414.42810103246848
 21
48.736939558635299
  0
LINE
  8
_0-0_
  6
CONTINUOUS
 62
    7
 10
409.57354953246886
 20
53.636939558635845
 11
408.82299403246907
 21
52.336939558635663
  0
LINE
  8
_0-0_
  6
CONTINUOUS
 62
    7
 10
414.42810103246848
 20
53.636939558635845
 11
409.57354953246886
 21
53.636939558635845
  0
LINE
  8
_0-0_
  6
CONTINUOUS
 62
    7
 10
415.32299403246907
 20
52.086939558635663
 11
414.42810103246848
 21
53.636939558635845
  0
LINE
  8
_0-0_
  6
CONTINUOUS
 62
    7
 10
416.07299403246907
 20
52.086939558635663
 11
415.32299403246907
 21
52.086939558635663
  0
LINE
  8
_0-0_
  6
CONTINUOUS
 62
    7
 10
416.82299403246907
 20
36.336939558635663
 11
416.82299403246907
 21
51.336939558635663
  0
LINE
  8
_0-0_
  6
CONTINUOUS
 62
    7
 10
415.32299403246907
 20
35.586939558635663
 11
416.07299403246907
 21
35.586939558635663
  0
LINE
  8
_0-0_
  6
CONTINUOUS
 62
    7
 10
414.42810103246848
 20
34.036939558635481
 11
415.32299403246907
 21
35.586939558635663
  0
LINE
  8
_0-0_
  6
CONTINUOUS
 62
    7
 10
409.57354953246886
 20
34.036939558635481
 11
414.42810103246848
 21
34.036939558635481
  0
LINE
  8
_0-0_
  6
CONTINUOUS
 62
    7
 10
409.57354953246886
 20
34.036939558635481
 11
408.82299403246907
 21
35.336939558635663
  0
LINE
  8
_0-0_
  6
CONTINUOUS
 62
    7
 10
409.32299403246907
 20
29.174661898467207
 11
409.32299403246907
 21
34.470914327989817
  0
LINE
  8
_0-0_
  6
CONTINUOUS
 62
    7
 10
408.82299403246907
 20
59.078186476880205
 11
408.82299403246907
 21
28.336939558635663
  0
LINE
  8
_0-0_
  6
CONTINUOUS
 62
    7
 10
405.62299403246834
 20
28.336939558635663
 11
405.62299403246834
 21
58.96121152580929
  0
LINE
  8
_0-0_
  6
CONTINUOUS
 62
    7
 10
408.82299403246907
 20
28.336939558635663
 11
405.62299403246834
 21
28.336939558635663
  0
LINE
  8
_0-0_
  6
CONTINUOUS
 62
    7
 10
415.82299403246907
 20
111.33693955863566
 11
415.82299403246907
 21
26.336939558635663
  0
LINE
  8
_0-0_
  6
CONTINUOUS
 62
    7
 10
398.32299403246907
 20
109.08971641982646
 11
404.82299403246907
 21
112.84249328101725
  0
LINE
  8
_0-0_
  6
CONTINUOUS
 62
    7
 10
398.32299403246907
 20
105.13970473326629
 11
398.32299403246907
 21
109.08971641982646
  0
LINE
  8
_0-0_
  6
CONTINUOUS
 62
    7
 10
404.82299403246907
 20
112.84249328101725
 11
411.32299403246907
 21
109.08971641982646
  0
LINE
  8
_0-0_
  6
CONTINUOUS
 62
    7
 10
411.32299403246907
 20
101.58416269744487
 11
406.26180434231264
 21
98.662083380626996
  0
LINE
  8
_0-0_
  6
CONTINUOUS
 62
    7
 10
411.32299403246907
 20
109.08971641982646
 11
411.32299403246907
 21
101.58416269744487
  0
LINE
  8
_0-0_
  6
CONTINUOUS
 62
    7
 10
353.82299403246907
 20
116.33693955863566
 11
410.82299403246907
 21
116.33693955863566
  0
LINE
  8
_0-0_
  6
CONTINUOUS
 62
    7
 10
353.32299403246907
 20
101.58416269744487
 11
358.38418372262549
 21
98.662083380626996
  0
LINE
  8
_0-0_
  6
CONTINUOUS
 62
    7
 10
366.32299403246907
 20
109.08971641982646
 11
366.32299403246907
 21
105.13970473326629
  0
LINE
  8
_0-0_
  6
CONTINUOUS
 62
    7
 10
359.82299403246907
 20
112.84249328101725
 11
366.32299403246907
 21
109.08971641982646
  0
LINE
  8
_0-0_
  6
CONTINUOUS
 62
    7
 10
353.32299403246907
 20
109.08971641982646
 11
359.82299403246907
 21
112.84249328101725
  0
LINE
  8
_0-0_
  6
CONTINUOUS
 62
    7
 10
353.32299403246907
 20
101.58416269744487
 11
353.32299403246907
 21
109.08971641982646
  0
LINE
  8
_0-0_
  6
CONTINUOUS
 62
    7
 10
304.32299403246907
 20
96.836939558636118
 11
304.32299403246907
 21
22.836939558635208
  0
LINE
  8
_0-0_
  6
CONTINUOUS
 62
    7
 10
331.44431437602907
 20
145.9582599021951
 11
309.03128096633918
 21
123.54522649250521
  0
LINE
  8
_0-0_
  6
CONTINUOUS
 62
    7
 10
428.32299403246907
 20
146.836939558636
 11
333.56563471958816
 21
146.836939558636
  0
LINE
  8
_0-0_
  6
CONTINUOUS
 62
    7
 10
431.32299403246907
 20
38.07958024575521
 11
431.32299403246907
 21
153.836939558636
  0
LINE
  8
_0-0_
  6
CONTINUOUS
 62
    7
 10
415.20167368890907
 20
20.715619215076117
 11
430.44431437602907
 21
35.958259902195209
  0
LINE
  8
_0-0_
  6
CONTINUOUS
 62
    7
 10
402.32299403246907
 20
19.836939558636118
 11
413.08035334534998
 21
19.836939558636118
  0
LINE
  8
_0-0_
  6
CONTINUOUS
 62
    7
 10
402.32299403246907
 20
73.336939558635663
 11
402.32299403246907
 21
14.336939558635663
  0
LINE
  8
_0-0_
  6
CONTINUOUS
 62
    7
 10
365.32299403246907
 20
76.336939558635663
 11
399.32299403246907
 21
76.336939558635663
  0
LINE
  8
_0-0_
  6
CONTINUOUS
 62
    7
 10
362.32299403246907
 20
14.336939558635663
 11
362.32299403246907
 21
73.336939558635663
  0
LINE
  8
_0-0_
  6
CONTINUOUS
 62
    7
 10
360.7229940324687
 20
24.336939558635663
 11
362.32299403246907
 21
22.836939558635663
  0
LINE
  8
_0-0_
  6
CONTINUOUS
 62
    7
 10
360.7229940324687
 20
63.336939558635663
 11
360.7229940324687
 21
24.336939558635663
  0
LINE
  8
_0-0_
  6
CONTINUOUS
 62
    7
 10
359.02299403246889
 20
53.836939558635663
 11
360.7229940324687
 21
53.836939558635663
  0
LINE
  8
_0-0_
  6
CONTINUOUS
 62
    7
 10
354.82299403246907
 20
52.336939557764822
 11
355.82299403246907
 21
52.336939557764822
  0
LINE
  8
_0-0_
  6
CONTINUOUS
 62
    7
 10
354.82299403246907
 20
35.336939558635663
 11
354.82299403246907
 21
52.336939557764822
  0
LINE
  8
_0-0_
  6
CONTINUOUS
 62
    7
 10
355.32299403246907
 20
29.174661898467207
 11
355.32299403246907
 21
35.336939558635663
  0
LINE
  8
_0-0_
  6
CONTINUOUS
 62
    7
 10
355.82299403246907
 20
59.078186476880205
 11
355.82299403246907
 21
28.336939558635663
  0
LINE
  8
_0-0_
  6
CONTINUOUS
 62
    7
 10
359.02299403246889
 20
28.336939558635663
 11
359.02299403246889
 21
58.96121152580929
  0
LINE
  8
_0-0_
  6
CONTINUOUS
 62
    7
 10
355.82299403246907
 20
28.336939558635663
 11
359.02299403246889
 21
28.336939558635663
  0
LINE
  8
_0-0_
  6
CONTINUOUS
 62
    7
 10
362.32299403246907
 20
21.336939558635663
 11
353.82299403246907
 21
21.336939558635663
  0
LINE
  8
_0-0_
  6
CONTINUOUS
 62
    7
 10
297.32299403246907
 20
19.836939558636118
 11
362.32299403246907
 21
19.836939558636118
  0
LINE
  8
_0-0_
  6
CONTINUOUS
 62
    7
 10
294.32299403246907
 20
72.836939558636118
 11
294.32299403246907
 21
22.836939558635208
  0
LINE
  8
_0-0_
  6
CONTINUOUS
 62
    7
 10
282.67843912988974
 20
84.929551200689389
 11
294.32299403246907
 21
72.836939558636118
  0
LINE
  8
_0-0_
  6
CONTINUOUS
 62
    7
 10
294.32299403246907
 20
156.836939558636
 11
282.67843912988974
 21
144.74432791658273
  0
LINE
  8
_0-0_
  6
CONTINUOUS
 62
    7
 10
428.32299403246907
 20
156.836939558636
 11
294.32299403246907
 21
156.836939558636
  0
ARC
  8
_0-0_
  6
CONTINUOUS
 62
    7
 10
265.16988773261346
 20
298.73208664311858
 40
3.0000000000000009
 50
89.999999999999972
 51
177.00000000000009
  0
ARC
  8
_0-0_
  6
CONTINUOUS
 62
    7
 10
264.22092316589897
 20
273.73208664311767
 40
2
 50
182.99999999999991
 51
270
  0
ARC
  8
_0-0_
  6
CONTINUOUS
 62
    7
 10
292.84995146329311
 20
300.73208664311858
 40
1
 50
3.0000000000000546
 51
90
  0
ARC
  8
_0-0_
  6
CONTINUOUS
 62
    7
 10
261.80172871907962
 20
291.23208264311813
 40
0.5
 50
89.999999999999972
 51
182.9999999999998
  0
ARC
  8
_0-0_
  6
CONTINUOUS
 62
    7
 10
429.32299403246907
 20
273.73208664311858
 40
2
 50
270
 51
0
  0
ARC
  8
_0-0_
  6
CONTINUOUS
 62
    7
 10
430.82299403246907
 20
291.23208264311813
 40
0.5
 50
0
 51
90
  0
ARC
  8
_0-0_
  6
CONTINUOUS
 62
    7
 10
280.32299403432171
 20
240.55325631102582
 40
18.321172714233402
 50
247.78068542480463
 51
292.21929931640619
  0
LINE
  8
_0-0_
  6
CONTINUOUS
 62
    7
 10
272.72809746169639
 20
223.10724224029801
 11
273.39478945995882
 21
223.59255412480823
  0
LINE
  8
_0-0_
  6
CONTINUOUS
 62
    7
 10
271.1708642752796
 20
222.40075684507414
 11
272.72809746169639
 21
223.10724224029801
  0
LINE
  8
_0-0_
  6
CONTINUOUS
 62
    7
 10
269.57594900933395
 20
222.24582596051519
 11
271.1708642752796
 21
222.40075684507414
  0
LINE
  8
_0-0_
  6
CONTINUOUS
 62
    7
 10
267.99181235714917
 20
222.64715708314984
 11
269.57594900933395
 21
222.24582596051519
  0
LINE
  8
_0-0_
  6
CONTINUOUS
 62
    7
 10
266.46658750929004
 20
223.59255596990002
 11
267.99181235714917
 21
222.64715708314984
  0
LINE
  8
_0-0_
  6
CONTINUOUS
 62
    7
 10
293.51270630263878
 20
223.10724224029801
 11
294.1793983009012
 21
223.59255412480823
  0
LINE
  8
_0-0_
  6
CONTINUOUS
 62
    7
 10
291.95547311622198
 20
222.40075684507414
 11
293.51270630263878
 21
223.10724224029801
  0
LINE
  8
_0-0_
  6
CONTINUOUS
 62
    7
 10
290.36055785027634
 20
222.24582596051519
 11
291.95547311622198
 21
222.40075684507414
  0
LINE
  8
_0-0_
  6
CONTINUOUS
 62
    7
 10
288.77642119809155
 20
222.64715708314984
 11
290.36055785027634
 21
222.24582596051519
  0
LINE
  8
_0-0_
  6
CONTINUOUS
 62
    7
 10
287.25119635023242
 20
223.59255596990002
 11
288.77642119809155
 21
222.64715708314984
  0
ARC
  8
_0-0_
  6
CONTINUOUS
 62
    7
 10
280.32299403246907
 20
209.23208264311901
 40
12.000000000000004
 50
131.81031489577896
 51
165.52248781407013
  0
ARC
  8
_0-0_
  6
CONTINUOUS
 62
    7
 10
280.32299403246907
 20
209.23208264311901
 40
12.000000000000004
 50
14.477512185929864
 51
48.189685104221027
  0
ARC
  8
_0-0_
  6
CONTINUOUS
 62
    7
 10
280.32299403432171
 20
277.05326031287802
 40
18.321172714233402
 50
247.78068542480463
 51
292.21929931640619
  0
LINE
  8
_0-0_
  6
CONTINUOUS
 62
    7
 10
272.72809746169639
 20
259.60724624215015
 11
273.39478945995882
 21
260.09255812666038
  0
LINE
  8
_0-0_
  6
CONTINUOUS
 62
    7
 10
271.1708642752796
 20
258.90076084692635
 11
272.72809746169639
 21
259.60724624215015
  0
LINE
  8
_0-0_
  6
CONTINUOUS
 62
    7
 10
269.57594900933395
 20
258.74582996236734
 11
271.1708642752796
 21
258.90076084692635
  0
LINE
  8
_0-0_
  6
CONTINUOUS
 62
    7
 10
267.99181235714917
 20
259.14716108500204
 11
269.57594900933395
 21
258.74582996236734
  0
LINE
  8
_0-0_
  6
CONTINUOUS
 62
    7
 10
266.46658750929004
 20
260.09255997175217
 11
267.99181235714917
 21
259.14716108500204
  0
LINE
  8
_0-0_
  6
CONTINUOUS
 62
    7
 10
293.51270630263878
 20
259.60724624215015
 11
294.1793983009012
 21
260.09255812666038
  0
LINE
  8
_0-0_
  6
CONTINUOUS
 62
    7
 10
291.95547311622198
 20
258.90076084692635
 11
293.51270630263878
 21
259.60724624215015
  0
LINE
  8
_0-0_
  6
CONTINUOUS
 62
    7
 10
290.36055785027634
 20
258.74582996236734
 11
291.95547311622198
 21
258.90076084692635
  0
LINE
  8
_0-0_
  6
CONTINUOUS
 62
    7
 10
288.77642119809155
 20
259.14716108500204
 11
290.36055785027634
 21
258.74582996236734
  0
LINE
  8
_0-0_
  6
CONTINUOUS
 62
    7
 10
287.25119635023242
 20
260.09255997175217
 11
288.77642119809155
 21
259.14716108500204
  0
LINE
  8
_0-0_
  6
CONTINUOUS
 62
    7
 10
267.13327944292928
 20
270.85692555594846
 11
266.46658782246948
 21
270.37161357219532
  0
LINE
  8
_0-0_
  6
CONTINUOUS
 62
    7
 10
268.69051253527181
 20
271.56341178060495
 11
267.13327944292928
 21
270.85692555594846
  0
LINE
  8
_0-0_
  6
CONTINUOUS
 62
    7
 10
270.2854277805871
 20
271.71834351466703
 11
268.69051253527181
 21
271.56341178060495
  0
LINE
  8
_0-0_
  6
CONTINUOUS
 62
    7
 10
271.86956448621231
 20
271.31701323579466
 11
270.2854277805871
 21
271.71834351466703
  0
LINE
  8
_0-0_
  6
CONTINUOUS
 62
    7
 10
273.39478945995882
 20
270.37161516142839
 11
271.86956448621231
 21
271.31701323579466
  0
LINE
  8
_0-0_
  6
CONTINUOUS
 62
    7
 10
287.91789028480792
 20
270.85692683932189
 11
287.25119635023242
 21
270.37161331633661
  0
LINE
  8
_0-0_
  6
CONTINUOUS
 62
    7
 10
289.4751234581795
 20
271.56341234956312
 11
287.91789028480792
 21
270.85692683932189
  0
LINE
  8
_0-0_
  6
CONTINUOUS
 62
    7
 10
291.07003872126432
 20
271.71834335192261
 11
289.4751234581795
 21
271.56341234956312
  0
LINE
  8
_0-0_
  6
CONTINUOUS
 62
    7
 10
292.65417538085967
 20
271.31701234629236
 11
291.07003872126432
 21
271.71834335192261
  0
LINE
  8
_0-0_
  6
CONTINUOUS
 62
    7
 10
294.17940024617559
 20
270.37161357219543
 11
292.65417538085967
 21
271.31701234629236
  0
ARC
  8
_0-0_
  6
CONTINUOUS
 62
    7
 10
280.32299403432171
 20
253.41091297521083
 40
18.321172714233402
 50
67.780689151566392
 51
112.21931084843362
  0
ARC
  8
_0-0_
  6
CONTINUOUS
 62
    7
 10
365.32299403246907
 20
249.23208264311856
 40
3
 50
90
 51
180
  0
ARC
  8
_0-0_
  6
CONTINUOUS
 62
    7
 10
399.32299403246907
 20
249.23208264311856
 40
3
 50
0
 51
90
  0
ARC
  8
_0-0_
  6
CONTINUOUS
 62
    7
 10
399.32299403246907
 20
190.23208264311856
 40
3
 50
270
 51
0
  0
ARC
  8
_0-0_
  6
CONTINUOUS
 62
    7
 10
365.32299403246907
 20
190.23208264311856
 40
3
 50
180
 51
270
  0
ARC
  8
_0-0_
  6
CONTINUOUS
 62
    7
 10
402.79174403431989
 20
219.73208264311856
 40
11.031249998148837
 50
309.59775270452445
 51
50.402247302573535
  0
ARC
  8
_0-0_
  6
CONTINUOUS
 62
    7
 10
350.89594853246945
 20
227.38106964311905
 40
5
 50
326.64688299999955
 51
350.20040446175079
  0
ARC
  8
_0-0_
  6
CONTINUOUS
 62
    7
 10
350.89594853246945
 20
212.08309564311898
 40
5
 50
9.7995955382493722
 51
33.353117000000431
  0
ARC
  8
_0-0_
  6
CONTINUOUS
 62
    7
 10
345.87144153246936
 20
218.74892414311839
 40
10
 50
336.94066600000002
 51
354.35779567859214
  0
ARC
  8
_0-0_
  6
CONTINUOUS
 62
    7
 10
345.87144153246936
 20
220.71524114311873
 40
10
 50
5.6422043214078608
 51
23.059334000000003
  0
ARC
  8
_0-0_
  6
CONTINUOUS
 62
    7
 10
359.2977560324689
 20
219.0220676431189
 40
10
 50
175.92848900000004
 51
204.77137599999966
  0
ARC
  8
_0-0_
  6
CONTINUOUS
 62
    7
 10
348.57299403246907
 20
212.23208264311856
 40
0.75
 50
180
 51
270
  0
ARC
  8
_0-0_
  6
CONTINUOUS
 62
    7
 10
354.3013575324685
 20
211.94672864311892
 40
5
 50
144.75521999999964
 51
185.33214499999977
  0
ARC
  8
_0-0_
  6
CONTINUOUS
 62
    7
 10
359.2977560324689
 20
220.44209764311913
 40
10
 50
155.22862399999991
 51
184.07151099999959
  0
ARC
  8
_0-0_
  6
CONTINUOUS
 62
    7
 10
354.3013575324685
 20
227.51743664311911
 40
5
 50
174.66785499999978
 51
215.24477999999991
  0
ARC
  8
_0-0_
  6
CONTINUOUS
 62
    7
 10
348.57299403246907
 20
227.23208264311856
 40
0.75
 50
90
 51
180
  0
ARC
  8
_0-0_
  6
CONTINUOUS
 62
    7
 10
357.32299403246907
 20
269.23208264301854
 40
1.9999999998999982
 50
180
 51
270
  0
ARC
  8
_0-0_
  6
CONTINUOUS
 62
    7
 10
407.32299403246907
 20
269.23208264301854
 40
1.9999999998999982
 50
270
 51
0
  0
ARC
  8
_0-0_
  6
CONTINUOUS
 62
    7
 10
354.82299403246907
 20
261.23208264311859
 40
6
 50
90
 51
180
  0
ARC
  8
_0-0_
  6
CONTINUOUS
 62
    7
 10
409.82299403246907
 20
261.23208264311859
 40
6
 50
0
 51
90
  0
ARC
  8
_0-0_
  6
CONTINUOUS
 62
    7
 10
405.82299403246907
 20
216.90690593371014
 40
10
 50
323.16371269154922
 51
0.0000000000000318
  0
ARC
  8
_0-0_
  6
CONTINUOUS
 62
    7
 10
382.32299403246907
 20
163.2504159821118
 40
91.981666661191412
 50
75.326452380014757
 51
103.69273104114845
  0
ARC
  8
_0-0_
  6
CONTINUOUS
 62
    7
 10
361.02299403246889
 20
250.67472801901462
 40
2
 50
103.69273104115079
 51
180
  0
ARC
  8
_0-0_
  6
CONTINUOUS
 62
    7
 10
357.82299403246907
 20
244.19618425825624
 40
2
 50
149.99999999999977
 51
180
  0
ARC
  8
_0-0_
  6
CONTINUOUS
 62
    7
 10
361.02299403246889
 20
244.19618425825624
 40
2
 50
150.00000000000009
 51
180
  0
ARC
  8
_0-0_
  6
CONTINUOUS
 62
    7
 10
359.02299403246889
 20
248.73208264311856
 40
2
 50
329.99999999999994
 51
0
  0
ARC
  8
_0-0_
  6
CONTINUOUS
 62
    7
 10
407.62299403246925
 20
250.81054361220126
 40
2
 50
180
 51
209.99999999999986
  0
ARC
  8
_0-0_
  6
CONTINUOUS
 62
    7
 10
405.62299403246925
 20
248.73208264311856
 40
2
 50
180
 51
210.00000000000082
  0
ARC
  8
_0-0_
  6
CONTINUOUS
 62
    7
 10
403.62299403246925
 20
244.19618425825624
 40
2
 50
0
 51
30.000000000001442
  0
ARC
  8
_0-0_
  6
CONTINUOUS
 62
    7
 10
406.82299403246907
 20
244.19618425825624
 40
2
 50
0
 51
29.999999999999915
  0
LINE
  8
_0-0_
  6
CONTINUOUS
 62
    7
 10
353.32299403246907
 20
271.00986042081831
 11
353.54067332389303
 21
271.73208664311835
  0
LINE
  8
_0-0_
  6
CONTINUOUS
 62
    7
 10
411.10531474104511
 20
271.73208664311835
 11
411.32299403246907
 21
271.00986042081831
  0
LINE
  8
_0-0_
  6
CONTINUOUS
 62
    7
 10
405.62299403246925
 20
204.23208264311856
 11
408.82299403246907
 21
204.23208264311856
  0
LINE
  8
_0-0_
  6
CONTINUOUS
 62
    7
 10
403.92299403246943
 20
209.73208264311856
 11
405.62299403246925
 21
209.73208264311856
  0
LINE
  8
_0-0_
  6
CONTINUOUS
 62
    7
 10
360.72299403246961
 20
200.23208264311856
 11
362.32299403246907
 21
198.73208264311856
  0
LINE
  8
_0-0_
  6
CONTINUOUS
 62
    7
 10
360.72299403246961
 20
229.73208264311856
 11
359.02299403246889
 21
229.73208264311856
  0
LINE
  8
_0-0_
  6
CONTINUOUS
 62
    7
 10
399.32299403246907
 20
252.23208264311856
 11
365.32299403246907
 21
252.23208264311856
  0
LINE
  8
_0-0_
  6
CONTINUOUS
 62
    7
 10
405.35504484003832
 20
245.19618425825624
 11
403.89094322490018
 21
247.73208264311856
  0
LINE
  8
_0-0_
  6
CONTINUOUS
 62
    7
 10
405.62299403246925
 20
204.23208264311856
 11
405.62299403246925
 21
244.19618425825624
  0
LINE
  8
_0-0_
  6
CONTINUOUS
 62
    7
 10
403.92299403246943
 20
200.23208264311856
 11
402.32299403246907
 21
198.73208264311856
  0
LINE
  8
_0-0_
  6
CONTINUOUS
 62
    7
 10
403.92299403246943
 20
239.23208264311856
 11
403.92299403246943
 21
200.23208264311856
  0
LINE
  8
_0-0_
  6
CONTINUOUS
 62
    7
 10
403.92299403246943
 20
239.23208264311856
 11
402.32299403246907
 21
240.73208264311856
  0
LINE
  8
_0-0_
  6
CONTINUOUS
 62
    7
 10
405.62299403246925
 20
229.73208264311856
 11
403.92299403246943
 21
229.73208264311856
  0
LINE
  8
_0-0_
  6
CONTINUOUS
 62
    7
 10
409.82299403246907
 20
228.23208264311856
 11
408.82299403246907
 21
228.23208264311856
  0
LINE
  8
_0-0_
  6
CONTINUOUS
 62
    7
 10
409.82299403246907
 20
211.2320826439894
 11
409.82299403246907
 21
228.23208264311856
  0
LINE
  8
_0-0_
  6
CONTINUOUS
 62
    7
 10
409.82299403246907
 20
211.2320826439894
 11
408.82299403246907
 21
211.2320826439894
  0
LINE
  8
_0-0_
  6
CONTINUOUS
 62
    7
 10
408.82299403246907
 20
204.23208264311856
 11
413.82651232211811
 21
210.91159985418048
  0
LINE
  8
_0-0_
  6
CONTINUOUS
 62
    7
 10
408.82299403246907
 20
244.19618425825624
 11
408.82299403246907
 21
204.23208264311856
  0
LINE
  8
_0-0_
  6
CONTINUOUS
 62
    7
 10
405.89094322490018
 20
249.81054361220126
 11
408.55504484003814
 21
245.19618425825624
  0
LINE
  8
_0-0_
  6
CONTINUOUS
 62
    7
 10
405.62299403246925
 20
252.23208264311856
 11
405.62299403246925
 21
250.81054361220126
  0
LINE
  8
_0-0_
  6
CONTINUOUS
 62
    7
 10
403.62299403246925
 20
248.73208264311856
 11
403.62299403246925
 21
252.73190569797711
  0
LINE
  8
_0-0_
  6
CONTINUOUS
 62
    7
 10
402.32299403246907
 20
190.23208264311856
 11
402.32299403246907
 21
249.23208264311856
  0
LINE
  8
_0-0_
  6
CONTINUOUS
 62
    7
 10
365.32299403246907
 20
187.23208264311856
 11
399.32299403246907
 21
187.23208264311856
  0
LINE
  8
_0-0_
  6
CONTINUOUS
 62
    7
 10
362.32299403246907
 20
249.23208264311856
 11
362.32299403246907
 21
190.23208264311856
  0
LINE
  8
_0-0_
  6
CONTINUOUS
 62
    7
 10
360.72299403246961
 20
239.23208264311856
 11
362.32299403246907
 21
240.73208264311856
  0
LINE
  8
_0-0_
  6
CONTINUOUS
 62
    7
 10
360.72299403246961
 20
200.23208264311856
 11
360.72299403246961
 21
239.23208264311856
  0
LINE
  8
_0-0_
  6
CONTINUOUS
 62
    7
 10
359.02299403246889
 20
209.73208264311856
 11
360.72299403246961
 21
209.73208264311856
  0
LINE
  8
_0-0_
  6
CONTINUOUS
 62
    7
 10
355.82299403246907
 20
244.19618425825624
 11
355.82299403246907
 21
204.23208264311856
  0
LINE
  8
_0-0_
  6
CONTINUOUS
 62
    7
 10
359.02299403246889
 20
250.27464522733894
 11
356.0909432249
 21
245.19618425825624
  0
LINE
  8
_0-0_
  6
CONTINUOUS
 62
    7
 10
359.02299403246889
 20
250.67472801901462
 11
359.02299403246889
 21
250.27464522733894
  0
LINE
  8
_0-0_
  6
CONTINUOUS
 62
    7
 10
361.02299403246889
 20
248.73208264311856
 11
361.02299403246889
 21
252.73190569797711
  0
LINE
  8
_0-0_
  6
CONTINUOUS
 62
    7
 10
359.29094322490073
 20
245.19618425825624
 11
360.75504484003795
 21
247.73208264311856
  0
LINE
  8
_0-0_
  6
CONTINUOUS
 62
    7
 10
359.02299403246889
 20
204.23208264311856
 11
359.02299403246889
 21
244.19618425825624
  0
LINE
  8
_0-0_
  6
CONTINUOUS
 62
    7
 10
355.82299403246907
 20
204.23208264311856
 11
359.02299403246889
 21
204.23208264311856
  0
LINE
  8
_0-0_
  6
CONTINUOUS
 62
    7
 10
351.55321624018052
 20
209.93208264311838
 11
355.82299403246907
 21
204.23208264311856
  0
LINE
  8
_0-0_
  6
CONTINUOUS
 62
    7
 10
343.82299403246907
 20
215.4320824523837
 11
347.82299403246907
 21
215.4320824523837
  0
LINE
  8
_0-0_
  6
CONTINUOUS
 62
    7
 10
347.82299403246907
 20
214.73208264311856
 11
344.52299479540852
 21
214.73208264311856
  0
LINE
  8
_0-0_
  6
CONTINUOUS
 62
    7
 10
355.07243853246928
 20
214.83208264311892
 11
350.21788703246966
 21
214.83208264311892
  0
LINE
  8
_0-0_
  6
CONTINUOUS
 62
    7
 10
355.07243853246928
 20
209.93208264311838
 11
355.82299403246907
 21
211.23208264311856
  0
LINE
  8
_0-0_
  6
CONTINUOUS
 62
    7
 10
350.21788703246966
 20
209.93208264311838
 11
355.07243853246928
 21
209.93208264311838
  0
LINE
  8
_0-0_
  6
CONTINUOUS
 62
    7
 10
349.32299403246907
 20
211.48208264311856
 11
350.21788703246966
 21
209.93208264311838
  0
LINE
  8
_0-0_
  6
CONTINUOUS
 62
    7
 10
348.57299403246907
 20
211.48208264311856
 11
349.32299403246907
 21
211.48208264311856
  0
LINE
  8
_0-0_
  6
CONTINUOUS
 62
    7
 10
347.82299403246907
 20
227.23208264311856
 11
347.82299403246907
 21
212.23208264311856
  0
LINE
  8
_0-0_
  6
CONTINUOUS
 62
    7
 10
355.07243853246928
 20
224.63208264311911
 11
350.21788703246966
 21
224.63208264311911
  0
LINE
  8
_0-0_
  6
CONTINUOUS
 62
    7
 10
355.07243853246928
 20
229.53208264311874
 11
355.82299403246907
 21
228.23208264311856
  0
LINE
  8
_0-0_
  6
CONTINUOUS
 62
    7
 10
350.21788703246966
 20
229.53208264311874
 11
355.07243853246928
 21
229.53208264311874
  0
LINE
  8
_0-0_
  6
CONTINUOUS
 62
    7
 10
349.32299403246907
 20
227.98208264311856
 11
350.21788703246966
 21
229.53208264311874
  0
LINE
  8
_0-0_
  6
CONTINUOUS
 62
    7
 10
348.57299403246907
 20
227.98208264311856
 11
349.32299403246907
 21
227.98208264311856
  0
LINE
  8
_0-0_
  6
CONTINUOUS
 62
    7
 10
348.82299403246907
 20
261.23208264311859
 11
348.82299403246907
 21
227.98208264311856
  0
LINE
  8
_0-0_
  6
CONTINUOUS
 62
    7
 10
411.32299403246907
 20
269.23208264301854
 11
353.32299403246907
 21
269.23208264301854
  0
LINE
  8
_0-0_
  6
CONTINUOUS
 62
    7
 10
411.32299403246907
 20
271.00986042081865
 11
411.32299403246907
 21
269.23208264301854
  0
LINE
  8
_0-0_
  6
CONTINUOUS
 62
    7
 10
353.32299403246907
 20
271.00986042081865
 11
411.32299403246907
 21
271.00986042081865
  0
LINE
  8
_0-0_
  6
CONTINUOUS
 62
    7
 10
353.32299403246907
 20
269.23208264301854
 11
353.32299403246907
 21
271.00986042081865
  0
LINE
  8
_0-0_
  6
CONTINUOUS
 62
    7
 10
409.82299403246907
 20
267.23208264311859
 11
354.82299403246907
 21
267.23208264311859
  0
LINE
  8
_0-0_
  6
CONTINUOUS
 62
    7
 10
415.82299403246907
 20
216.90690593371014
 11
415.82299403246907
 21
261.23208264311859
  0
LINE
  8
_0-0_
  6
CONTINUOUS
 62
    7
 10
343.82299403246907
 20
224.03208283385342
 11
344.52299479540852
 21
224.73208264311856
  0
LINE
  8
_0-0_
  6
CONTINUOUS
 62
    7
 10
343.82299403246907
 20
215.4320824523837
 11
343.82299403246907
 21
224.03208283385342
  0
LINE
  8
_0-0_
  6
CONTINUOUS
 62
    7
 10
344.52299479540852
 20
214.73208264311856
 11
343.82299403246907
 21
215.4320824523837
  0
LINE
  8
_0-0_
  6
CONTINUOUS
 62
    7
 10
344.52299479540852
 20
224.73208264311856
 11
344.52299479540852
 21
214.73208264311856
  0
LINE
  8
_0-0_
  6
CONTINUOUS
 62
    7
 10
347.82299403246907
 20
224.73208264311856
 11
344.52299479540852
 21
224.73208264311856
  0
LINE
  8
_0-0_
  6
CONTINUOUS
 62
    7
 10
343.82299403246907
 20
224.03208283385342
 11
347.82299403246907
 21
224.03208283385342
  0
LINE
  8
_0-0_
  6
CONTINUOUS
 62
    7
 10
261.30241395170287
 20
291.20591466499661
 11
262.22366409639017
 21
273.62741473063249
  0
LINE
  8
_0-0_
  6
CONTINUOUS
 62
    7
 10
288.32299403246907
 20
332.33208302458797
 11
288.32299403246907
 21
301.73208664311858
  0
LINE
  8
_0-0_
  6
CONTINUOUS
 62
    7
 10
287.42299393710164
 20
333.23208264311916
 11
288.32299403246907
 21
332.33208302458797
  0
LINE
  8
_0-0_
  6
CONTINUOUS
 62
    7
 10
273.2229941278365
 20
333.23208264311916
 11
287.42299393710164
 21
333.23208264311916
  0
LINE
  8
_0-0_
  6
CONTINUOUS
 62
    7
 10
272.32299403246907
 20
332.33208302458797
 11
272.32299403246907
 21
301.73208664311858
  0
LINE
  8
_0-0_
  6
CONTINUOUS
 62
    7
 10
273.2229941278365
 20
333.23208264311916
 11
272.32299403246907
 21
332.33208302458797
  0
LINE
  8
_0-0_
  6
CONTINUOUS
 62
    7
 10
250.32299403246907
 20
200.0320826431192
 11
262.52299403246889
 21
212.23208264311901
  0
LINE
  8
_0-0_
  6
CONTINUOUS
 62
    7
 10
254.32299403246907
 20
187.23208264311901
 11
254.32299403246907
 21
188.23208264311901
  0
LINE
  8
_0-0_
  6
CONTINUOUS
 62
    7
 10
306.32299403246907
 20
187.23208264311901
 11
254.32299403246907
 21
187.23208264311901
  0
LINE
  8
_0-0_
  6
CONTINUOUS
 62
    7
 10
306.32299403246907
 20
188.23208264311901
 11
306.32299403246907
 21
187.23208264311901
  0
LINE
  8
_0-0_
  6
CONTINUOUS
 62
    7
 10
250.32299403246907
 20
200.0320826431192
 11
310.32299403246907
 21
200.0320826431192
  0
LINE
  8
_0-0_
  6
CONTINUOUS
 62
    7
 10
250.32299403246907
 20
188.23208264311901
 11
250.32299403246907
 21
200.0320826431192
  0
LINE
  8
_0-0_
  6
CONTINUOUS
 62
    7
 10
310.32299403246907
 20
188.23208264311901
 11
250.32299403246907
 21
188.23208264311901
  0
LINE
  8
_0-0_
  6
CONTINUOUS
 62
    7
 10
310.32299403246907
 20
200.0320826431192
 11
310.32299403246907
 21
188.23208264311901
  0
LINE
  8
_0-0_
  6
CONTINUOUS
 62
    7
 10
298.12299403246925
 20
212.23208264311901
 11
310.32299403246907
 21
200.0320826431192
  0
LINE
  8
_0-0_
  6
CONTINUOUS
 62
    7
 10
262.52299403246889
 20
212.23208264311901
 11
298.12299403246925
 21
212.23208264311901
  0
LINE
  8
_0-0_
  6
CONTINUOUS
 62
    7
 10
287.25119714024822
 20
270.37161376697657
 11
287.25119714024822
 21
260.09255837043418
  0
LINE
  8
_0-0_
  6
CONTINUOUS
 62
    7
 10
431.32299403246907
 20
273.73208664311858
 11
431.32299403246907
 21
291.23208264311813
  0
LINE
  8
_0-0_
  6
CONTINUOUS
 62
    7
 10
264.22092316589897
 20
271.73208664311858
 11
429.32299403246907
 21
271.73208664311858
  0
LINE
  8
_0-0_
  6
CONTINUOUS
 62
    7
 10
266.46658782246868
 20
270.37161357219554
 11
266.46658782246868
 21
260.09255837043418
  0
LINE
  8
_0-0_
  6
CONTINUOUS
 62
    7
 10
273.3947909283952
 20
260.09255837043418
 11
273.3947909283952
 21
270.37161376697657
  0
LINE
  8
_0-0_
  6
CONTINUOUS
 62
    7
 10
288.32299403246907
 20
232.23208264311901
 11
288.32299403246907
 21
258.73208664497031
  0
LINE
  8
_0-0_
  6
CONTINUOUS
 62
    7
 10
287.25119714024822
 20
223.59255436858197
 11
287.25119714024822
 21
232.23208264497075
  0
LINE
  8
_0-0_
  6
CONTINUOUS
 62
    7
 10
294.17940024617474
 20
232.23208264497165
 11
294.17940024617474
 21
223.59255436858197
  0
LINE
  8
_0-0_
  6
CONTINUOUS
 62
    7
 10
266.46658782246868
 20
232.23208264497165
 11
294.17940024617474
 21
232.23208264497165
  0
LINE
  8
_0-0_
  6
CONTINUOUS
 62
    7
 10
266.46658782246868
 20
223.59255436858197
 11
266.46658782246868
 21
232.23208264497165
  0
LINE
  8
_0-0_
  6
CONTINUOUS
 62
    7
 10
290.71529845479381
 20
222.23208264311901
 11
269.93068961385143
 21
222.23208264311901
  0
LINE
  8
_0-0_
  6
CONTINUOUS
 62
    7
 10
288.32299403246907
 20
218.17635455311787
 11
288.32299403246907
 21
222.23208264311901
  0
LINE
  8
_0-0_
  6
CONTINUOUS
 62
    7
 10
272.32299403246907
 20
218.17635455311787
 11
288.32299403246907
 21
218.17635455311787
  0
LINE
  8
_0-0_
  6
CONTINUOUS
 62
    7
 10
272.32299403246907
 20
222.23208264311901
 11
272.32299403246907
 21
218.17635455311787
  0
LINE
  8
_0-0_
  6
CONTINUOUS
 62
    7
 10
273.3947909283952
 20
232.23208264497075
 11
273.3947909283952
 21
223.59255436858197
  0
LINE
  8
_0-0_
  6
CONTINUOUS
 62
    7
 10
272.32299403246907
 20
258.73208664497031
 11
272.32299403246907
 21
232.23208264311901
  0
LINE
  8
_0-0_
  6
CONTINUOUS
 62
    7
 10
290.71529845479381
 20
258.73208664497031
 11
269.93068961385143
 21
258.73208664497031
  0
LINE
  8
_0-0_
  6
CONTINUOUS
 62
    7
 10
294.17940024617474
 20
270.37161357219554
 11
294.17940024617474
 21
260.09255837043418
  0
LINE
  8
_0-0_
  6
CONTINUOUS
 62
    7
 10
294.32299403246998
 20
289.42208750041516
 11
294.32299403246998
 21
273.73208664311767
  0
LINE
  8
_0-0_
  6
CONTINUOUS
 62
    7
 10
293.84858099804751
 20
300.78442259936162
 11
294.32299403246998
 21
291.73208264311813
  0
LINE
  8
_0-0_
  6
CONTINUOUS
 62
    7
 10
265.16988773261346
 20
301.73208664311858
 11
292.84995146329311
 21
301.73208664311858
  0
LINE
  8
_0-0_
  6
CONTINUOUS
 62
    7
 10
261.79963426069571
 20
291.74578730105475
 11
262.17399912835026
 21
298.8890945118477
  0
LINE
  8
_0-0_
  6
CONTINUOUS
 62
    7
 10
430.82299403246907
 20
291.73208264311813
 11
261.80172871907962
 21
291.73208264311813
  0
ARC
  8
_0-0_
  6
CONTINUOUS
 62
    7
 10
75.980237423181052
 20
219.7320826431181
 40
20.999999999999986
 50
89.956682792545706
 51
332.72158301459029
  0
ARC
  8
_0-0_
  6
CONTINUOUS
 62
    7
 10
75.980237423181052
 20
219.7320826431181
 40
24.999999999999986
 50
85.643716984156185
 51
344.41035184164332
  0
ARC
  8
_0-0_
  6
CONTINUOUS
 62
    7
 10
75.980237423181052
 20
219.7320826431181
 40
26.499999999999986
 50
84.846905317308256
 51
347.84722568943033
  0
ARC
  8
_0-0_
  6
CONTINUOUS
 62
    7
 10
188.48023742318105
 20
291.23208264311813
 40
0.5
 50
0
 51
90
  0
ARC
  8
_0-0_
  6
CONTINUOUS
 62
    7
 10
166.45327999235701
 20
292.73208264311813
 40
1
 50
183
 51
270
  0
ARC
  8
_0-0_
  6
CONTINUOUS
 62
    7
 10
127.50719485400418
 20
292.73208264311813
 40
1
 50
270
 51
357.00000000000006
  0
ARC
  8
_0-0_
  6
CONTINUOUS
 62
    7
 10
162.13334372303666
 20
298.73208664311858
 40
3
 50
2.9999999999996856
 51
90
  0
ARC
  8
_0-0_
  6
CONTINUOUS
 62
    7
 10
131.82713112332544
 20
298.73208664311858
 40
3
 50
89.999999999999972
 51
177.00000000000028
  0
ARC
  8
_0-0_
  6
CONTINUOUS
 62
    7
 10
186.03415291372107
 20
273.73208664311858
 40
2
 50
270
 51
356.99999999999989
  0
ARC
  8
_0-0_
  6
CONTINUOUS
 62
    7
 10
52.507127485821684
 20
291.23208264311813
 40
0.5
 50
89.999999999999972
 51
183.00000000000006
  0
ARC
  8
_0-0_
  6
CONTINUOUS
 62
    7
 10
55.527463581442817
 20
281.36894328293181
 40
3
 50
183.00000000000011
 51
262.23265101441376
  0
ARC
  8
_0-0_
  6
CONTINUOUS
 62
    7
 10
146.98023742503369
 20
240.55325631102582
 40
18.321172714233402
 50
247.78068542480463
 51
292.21929931640619
  0
LINE
  8
_0-0_
  6
CONTINUOUS
 62
    7
 10
139.38534085240747
 20
223.10724224029801
 11
140.05203285066989
 21
223.59255412480823
  0
LINE
  8
_0-0_
  6
CONTINUOUS
 62
    7
 10
137.82810766599061
 20
222.40075684507414
 11
139.38534085240747
 21
223.10724224029801
  0
LINE
  8
_0-0_
  6
CONTINUOUS
 62
    7
 10
136.23319240004503
 20
222.24582596051519
 11
137.82810766599061
 21
222.40075684507414
  0
LINE
  8
_0-0_
  6
CONTINUOUS
 62
    7
 10
134.64905574786019
 20
222.64715708314984
 11
136.23319240004503
 21
222.24582596051519
  0
LINE
  8
_0-0_
  6
CONTINUOUS
 62
    7
 10
133.12383090000111
 20
223.59255596990002
 11
134.64905574786019
 21
222.64715708314984
  0
LINE
  8
_0-0_
  6
CONTINUOUS
 62
    7
 10
160.16994969334985
 20
223.10724224029801
 11
160.83664169161227
 21
223.59255412480823
  0
LINE
  8
_0-0_
  6
CONTINUOUS
 62
    7
 10
158.612716506933
 20
222.40075684507414
 11
160.16994969334985
 21
223.10724224029801
  0
LINE
  8
_0-0_
  6
CONTINUOUS
 62
    7
 10
157.01780124098741
 20
222.24582596051519
 11
158.612716506933
 21
222.40075684507414
  0
LINE
  8
_0-0_
  6
CONTINUOUS
 62
    7
 10
155.43366458880257
 20
222.64715708314984
 11
157.01780124098741
 21
222.24582596051519
  0
LINE
  8
_0-0_
  6
CONTINUOUS
 62
    7
 10
153.90843974094349
 20
223.59255596990002
 11
155.43366458880257
 21
222.64715708314984
  0
ARC
  8
_0-0_
  6
CONTINUOUS
 62
    7
 10
146.98023742318105
 20
209.23208264311901
 40
12.000000000000004
 50
131.81031489577896
 51
165.52248781407013
  0
ARC
  8
_0-0_
  6
CONTINUOUS
 62
    7
 10
146.98023742318105
 20
209.23208264311901
 40
12.000000000000004
 50
14.477512185929864
 51
48.189685104221027
  0
ARC
  8
_0-0_
  6
CONTINUOUS
 62
    7
 10
146.98023742503369
 20
277.05326031287802
 40
18.321172714233402
 50
247.78068542480463
 51
292.21929931640619
  0
LINE
  8
_0-0_
  6
CONTINUOUS
 62
    7
 10
139.38534085240747
 20
259.60724624215015
 11
140.05203285066989
 21
260.09255812666038
  0
LINE
  8
_0-0_
  6
CONTINUOUS
 62
    7
 10
137.82810766599061
 20
258.90076084692635
 11
139.38534085240747
 21
259.60724624215015
  0
LINE
  8
_0-0_
  6
CONTINUOUS
 62
    7
 10
136.23319240004503
 20
258.74582996236734
 11
137.82810766599061
 21
258.90076084692635
  0
LINE
  8
_0-0_
  6
CONTINUOUS
 62
    7
 10
134.64905574786019
 20
259.14716108500204
 11
136.23319240004503
 21
258.74582996236734
  0
LINE
  8
_0-0_
  6
CONTINUOUS
 62
    7
 10
133.12383090000111
 20
260.09255997175217
 11
134.64905574786019
 21
259.14716108500204
  0
LINE
  8
_0-0_
  6
CONTINUOUS
 62
    7
 10
160.16994969334985
 20
259.60724624215015
 11
160.83664169161227
 21
260.09255812666038
  0
LINE
  8
_0-0_
  6
CONTINUOUS
 62
    7
 10
158.612716506933
 20
258.90076084692635
 11
160.16994969334985
 21
259.60724624215015
  0
LINE
  8
_0-0_
  6
CONTINUOUS
 62
    7
 10
157.01780124098741
 20
258.74582996236734
 11
158.612716506933
 21
258.90076084692635
  0
LINE
  8
_0-0_
  6
CONTINUOUS
 62
    7
 10
155.43366458880257
 20
259.14716108500204
 11
157.01780124098741
 21
258.74582996236734
  0
LINE
  8
_0-0_
  6
CONTINUOUS
 62
    7
 10
153.90843974094349
 20
260.09255997175217
 11
155.43366458880257
 21
259.14716108500204
  0
LINE
  8
_0-0_
  6
CONTINUOUS
 62
    7
 10
133.79052283364035
 20
270.85692555594846
 11
133.12383121318055
 21
270.37161357219532
  0
LINE
  8
_0-0_
  6
CONTINUOUS
 62
    7
 10
135.34775592598288
 20
271.56341178060495
 11
133.79052283364035
 21
270.85692555594846
  0
LINE
  8
_0-0_
  6
CONTINUOUS
 62
    7
 10
136.94267117129817
 20
271.71834351466703
 11
135.34775592598288
 21
271.56341178060495
  0
LINE
  8
_0-0_
  6
CONTINUOUS
 62
    7
 10
138.52680787692339
 20
271.31701323579466
 11
136.94267117129817
 21
271.71834351466703
  0
LINE
  8
_0-0_
  6
CONTINUOUS
 62
    7
 10
140.05203285066989
 20
270.37161516142839
 11
138.52680787692339
 21
271.31701323579466
  0
LINE
  8
_0-0_
  6
CONTINUOUS
 62
    7
 10
154.575133675519
 20
270.85692683932189
 11
153.90843974094349
 21
270.37161331633661
  0
LINE
  8
_0-0_
  6
CONTINUOUS
 62
    7
 10
156.13236684889057
 20
271.56341234956312
 11
154.575133675519
 21
270.85692683932189
  0
LINE
  8
_0-0_
  6
CONTINUOUS
 62
    7
 10
157.72728211197534
 20
271.71834335192261
 11
156.13236684889057
 21
271.56341234956312
  0
LINE
  8
_0-0_
  6
CONTINUOUS
 62
    7
 10
159.31141877157074
 20
271.31701234629236
 11
157.72728211197534
 21
271.71834335192261
  0
LINE
  8
_0-0_
  6
CONTINUOUS
 62
    7
 10
160.83664363688666
 20
270.37161357219543
 11
159.31141877157074
 21
271.31701234629236
  0
ARC
  8
_0-0_
  6
CONTINUOUS
 62
    7
 10
146.98023742503369
 20
253.41091297521083
 40
18.321172714233402
 50
67.780689151566392
 51
112.21931084843362
  0
CIRCLE
  8
_0-0_
  6
CONTINUOUS
 62
    7
 10
75.980237423181052
 20
219.7320826431181
 40
8.5
  0
LINE
  8
_0-0_
  6
CONTINUOUS
 62
    7
 10
72.279564874102903
 20
272.56197196844198
 11
72.272033490698618
 21
272.78763819861831
  0
LINE
  8
_0-0_
  6
CONTINUOUS
 62
    7
 10
72.206284241422509
 20
271.77427719079094
 11
72.279564874102903
 21
272.56197196844198
  0
LINE
  8
_0-0_
  6
CONTINUOUS
 62
    7
 10
71.980237423181052
 20
271.00986042081831
 11
72.206284241422509
 21
271.77427719079094
  0
ARC
  8
_0-0_
  6
CONTINUOUS
 62
    7
 10
75.980237423181052
 20
269.23208264301809
 40
1.9999999998999982
 50
180
 51
270
  0
ARC
  8
_0-0_
  6
CONTINUOUS
 62
    7
 10
125.98023742318105
 20
269.23208264301809
 40
1.9999999998999982
 50
270
 51
0
  0
ARC
  8
_0-0_
  6
CONTINUOUS
 62
    7
 10
67.480237423181052
 20
267.23208264311813
 40
63.254533465779254
 50
280.14554443389653
 51
350.90386635813945
  0
ARC
  8
_0-0_
  6
CONTINUOUS
 62
    7
 10
73.480237423181052
 20
261.23208264311813
 40
6
 50
90
 51
180
  0
ARC
  8
_0-0_
  6
CONTINUOUS
 62
    7
 10
54.480237425077348
 20
253.46263259537258
 40
24.999999999999943
 50
302.51361463000001
 51
344.13883118963389
  0
ARC
  8
_0-0_
  6
CONTINUOUS
 62
    7
 10
72.756845857874168
 20
248.26979289110417
 40
6
 50
344.13883118963372
 51
80.536854608056856
  0
ARC
  8
_0-0_
  6
CONTINUOUS
 62
    7
 10
75.980237423181052
 20
219.7320826431181
 40
15
 50
122.51361463000015
 51
280.14554443389676
  0
LINE
  8
_0-0_
  6
CONTINUOUS
 62
    7
 10
129.76255813175703
 20
271.73208664311858
 11
129.98023742318105
 21
271.00986042081831
  0
LINE
  8
_0-0_
  6
CONTINUOUS
 62
    7
 10
72.392112684961603
 20
273.11271913278824
 11
72.272033490681679
 21
272.7876381986182
  0
LINE
  8
_0-0_
  6
CONTINUOUS
 62
    7
 10
72.903003384293584
 20
274.09767496612096
 11
72.392112684961603
 21
273.11271913278824
  0
LINE
  8
_0-0_
  6
CONTINUOUS
 62
    7
 10
73.59854776466841
 20
274.98880911700417
 11
72.903003384293584
 21
274.09767496612096
  0
LINE
  8
_0-0_
  6
CONTINUOUS
 62
    7
 10
74.457612062050657
 20
275.75904492519896
 11
73.59854776466841
 21
274.98880911700417
  0
ARC
  8
_0-0_
  6
CONTINUOUS
 62
    7
 10
128.48023742318105
 20
261.23208264311813
 40
6
 50
39.29166890339333
 51
90
  0
ARC
  8
_0-0_
  6
CONTINUOUS
 62
    7
 10
75.980237423181052
 20
219.7320826431181
 40
32.499999999999986
 50
87.698542921362574
 51
358.81215746833811
  0
LINE
  8
_0-0_
  6
CONTINUOUS
 62
    7
 10
128.50582438875949
 20
292.67974668687509
 11
128.83124251906224
 21
298.8890945118477
  0
LINE
  8
_0-0_
  6
CONTINUOUS
 62
    7
 10
165.12923232729986
 20
298.8890945118477
 11
165.45465045760261
 21
292.67974668687509
  0
LINE
  8
_0-0_
  6
CONTINUOUS
 62
    7
 10
131.82713112332544
 20
301.73208664311858
 11
162.13334372303666
 21
301.73208664311858
  0
LINE
  8
_0-0_
  6
CONTINUOUS
 62
    7
 10
138.98023742318105
 20
332.33208302458797
 11
138.98023742318105
 21
301.73208664311858
  0
LINE
  8
_0-0_
  6
CONTINUOUS
 62
    7
 10
138.98023742318105
 20
332.33208302458797
 11
139.88023751854757
 21
333.23208264311916
  0
LINE
  8
_0-0_
  6
CONTINUOUS
 62
    7
 10
154.98023742318014
 20
332.33208302458797
 11
154.98023742318014
 21
301.73208664311858
  0
LINE
  8
_0-0_
  6
CONTINUOUS
 62
    7
 10
154.08023732781362
 20
333.23208264311916
 11
154.98023742318014
 21
332.33208302458797
  0
LINE
  8
_0-0_
  6
CONTINUOUS
 62
    7
 10
139.88023751854757
 20
333.23208264311916
 11
154.08023732781362
 21
333.23208264311916
  0
LINE
  8
_0-0_
  6
CONTINUOUS
 62
    7
 10
140.05203431910718
 20
260.09255837043418
 11
140.05203431910718
 21
270.37161376697657
  0
LINE
  8
_0-0_
  6
CONTINUOUS
 62
    7
 10
160.83664363688672
 20
270.37161357219554
 11
160.83664363688672
 21
260.09255837043418
  0
LINE
  8
_0-0_
  6
CONTINUOUS
 62
    7
 10
153.90844053096021
 20
260.09255837043418
 11
153.90844053096021
 21
270.37161376697657
  0
LINE
  8
_0-0_
  6
CONTINUOUS
 62
    7
 10
138.98023742318105
 20
232.23208264311901
 11
138.98023742318105
 21
258.73208664497031
  0
LINE
  8
_0-0_
  6
CONTINUOUS
 62
    7
 10
140.05203431910718
 20
223.59255436858197
 11
140.05203431910718
 21
232.23208264497075
  0
LINE
  8
_0-0_
  6
CONTINUOUS
 62
    7
 10
133.12383121318067
 20
232.23208264497165
 11
133.12383121318067
 21
223.59255436858197
  0
LINE
  8
_0-0_
  6
CONTINUOUS
 62
    7
 10
160.83664363688672
 20
232.23208264497165
 11
133.12383121318067
 21
232.23208264497165
  0
LINE
  8
_0-0_
  6
CONTINUOUS
 62
    7
 10
160.83664363688672
 20
223.59255436858197
 11
160.83664363688672
 21
232.23208264497165
  0
LINE
  8
_0-0_
  6
CONTINUOUS
 62
    7
 10
136.5879330045625
 20
222.23208264311901
 11
157.37254184550488
 21
222.23208264311901
  0
LINE
  8
_0-0_
  6
CONTINUOUS
 62
    7
 10
138.98023742318105
 20
218.17635455311787
 11
138.98023742318105
 21
222.23208264311901
  0
LINE
  8
_0-0_
  6
CONTINUOUS
 62
    7
 10
154.98023742318014
 20
218.17635455311787
 11
138.98023742318105
 21
218.17635455311787
  0
LINE
  8
_0-0_
  6
CONTINUOUS
 62
    7
 10
154.98023742318014
 20
222.23208264311901
 11
154.98023742318014
 21
218.17635455311787
  0
LINE
  8
_0-0_
  6
CONTINUOUS
 62
    7
 10
153.90844053096021
 20
232.23208264497075
 11
153.90844053096021
 21
223.59255436858197
  0
LINE
  8
_0-0_
  6
CONTINUOUS
 62
    7
 10
154.98023742318014
 20
258.73208664497031
 11
154.98023742318014
 21
232.23208264311901
  0
LINE
  8
_0-0_
  6
CONTINUOUS
 62
    7
 10
136.5879330045625
 20
258.73208664497031
 11
157.37254184550488
 21
258.73208664497031
  0
LINE
  8
_0-0_
  6
CONTINUOUS
 62
    7
 10
133.12383121318067
 20
260.03725462875116
 11
129.93931205588228
 21
257.23208264311813
  0
LINE
  8
_0-0_
  6
CONTINUOUS
 62
    7
 10
133.12383121318067
 20
270.37161357219554
 11
133.12383121318067
 21
260.09255837043418
  0
LINE
  8
_0-0_
  6
CONTINUOUS
 62
    7
 10
71.980237423181052
 20
269.23208264301809
 11
129.98023742318105
 21
269.23208264301809
  0
LINE
  8
_0-0_
  6
CONTINUOUS
 62
    7
 10
71.980237423181052
 20
271.0098604208182
 11
71.980237423181052
 21
269.23208264301809
  0
LINE
  8
_0-0_
  6
CONTINUOUS
 62
    7
 10
129.98023742318105
 20
271.0098604208182
 11
71.980237423181052
 21
271.0098604208182
  0
LINE
  8
_0-0_
  6
CONTINUOUS
 62
    7
 10
129.98023742318105
 20
269.23208264301809
 11
129.98023742318105
 21
271.0098604208182
  0
LINE
  8
_0-0_
  6
CONTINUOUS
 62
    7
 10
73.480237423181052
 20
267.23208264311813
 11
128.48023742318105
 21
267.23208264311813
  0
LINE
  8
_0-0_
  6
CONTINUOUS
 62
    7
 10
67.480237423181052
 20
255.2320826431181
 11
67.480237423181052
 21
261.23208264311813
  0
LINE
  8
_0-0_
  6
CONTINUOUS
 62
    7
 10
67.480237423181052
 20
255.2320826431181
 11
73.743324812329547
 21
254.1881422616992
  0
LINE
  8
_0-0_
  6
CONTINUOUS
 62
    7
 10
129.18023742318087
 20
212.23208264311901
 11
116.98023742318105
 21
200.0320826431192
  0
LINE
  8
_0-0_
  6
CONTINUOUS
 62
    7
 10
164.78023742318032
 20
212.23208264311901
 11
129.18023742318087
 21
212.23208264311901
  0
LINE
  8
_0-0_
  6
CONTINUOUS
 62
    7
 10
176.98023742318105
 20
200.0320826431192
 11
164.78023742318032
 21
212.23208264311901
  0
LINE
  8
_0-0_
  6
CONTINUOUS
 62
    7
 10
172.98023742318014
 20
187.23208264311901
 11
172.98023742318014
 21
188.23208264311901
  0
LINE
  8
_0-0_
  6
CONTINUOUS
 62
    7
 10
120.98023742318105
 20
187.23208264311901
 11
172.98023742318014
 21
187.23208264311901
  0
LINE
  8
_0-0_
  6
CONTINUOUS
 62
    7
 10
120.98023742318105
 20
188.23208264311901
 11
120.98023742318105
 21
187.23208264311901
  0
LINE
  8
_0-0_
  6
CONTINUOUS
 62
    7
 10
116.98023742318105
 20
200.0320826431192
 11
116.98023742318105
 21
188.23208264311901
  0
LINE
  8
_0-0_
  6
CONTINUOUS
 62
    7
 10
176.98023742318105
 20
200.0320826431192
 11
116.98023742318105
 21
200.0320826431192
  0
LINE
  8
_0-0_
  6
CONTINUOUS
 62
    7
 10
176.98023742318105
 20
188.23208264311901
 11
176.98023742318105
 21
200.0320826431192
  0
LINE
  8
_0-0_
  6
CONTINUOUS
 62
    7
 10
116.98023742318105
 20
188.23208264311901
 11
176.98023742318105
 21
188.23208264311901
  0
LINE
  8
_0-0_
  6
CONTINUOUS
 62
    7
 10
88.983539686016002
 20
212.78180905954864
 11
81.879350137571009
 21
249.88146559031733
  0
LINE
  8
_0-0_
  6
CONTINUOUS
 62
    7
 10
103.98023742318105
 20
272.37770453882001
 11
103.98023742318105
 21
291.2749565458538
  0
LINE
  8
_0-0_
  6
CONTINUOUS
 62
    7
 10
72.272033490681451
 20
272.78763819861831
 11
96.241728370071314
 21
272.78763819861831
  0
LINE
  8
_0-0_
  6
CONTINUOUS
 62
    7
 10
103.98023742318105
 20
271.73208664311858
 11
55.122010715754868
 21
278.39646822438169
  0
LINE
  8
_0-0_
  6
CONTINUOUS
 62
    7
 10
186.03415291372107
 20
271.73208664311858
 11
103.98023742318105
 21
271.73208664311858
  0
LINE
  8
_0-0_
  6
CONTINUOUS
 62
    7
 10
52.007812718444029
 20
291.20591466499661
 11
52.531574977178707
 21
281.21193541420269
  0
LINE
  8
_0-0_
  6
CONTINUOUS
 62
    7
 10
188.48023742318105
 20
291.73208264311813
 11
52.507127485821684
 21
291.73208264311813
  0
LINE
  8
_0-0_
  6
CONTINUOUS
 62
    7
 10
188.03141198323078
 20
273.62741473063249
 11
188.98023742318105
 21
291.73208264311813
  0
TEXT
  8
_0-0_
 62
    7
 10
365.14484160454549
 20
168.1319366123642
 40
10
 41
1
 50
0
  1
L
  0
TEXT
  8
_0-0_
 62
    7
 10
614.67231413201807
 20
165.35940913983674
 40
10
 41
1
 50
0
  1
R
  0
ENDSEC
  0
EOF
