  0
SECTION
  2
HEADER
  9
$ACADVER
  1
AC1009
  9
$INSBASE
 10
0
 20
0
 30
0
  9
$EXTMIN
 10
0
 20
0
  9
$EXTMAX
 10
1189
 20
841
  9
$LIMMIN
 10
0
 20
0
  9
$LIMMAX
 10
1189
 20
841
  9
$LTSCALE
 40
1
  0
ENDSEC
  0
SECTION
  2
TABLES
  0
TABLE
  2
LTYPE
 70
     9
  0
LTYPE
  2
CONTINUOUS
 70
    64
  3
実線
 72
    65
 73
     0
 40
0.0
  0
LTYPE
  2
DASHED1
 70
    64
  3
--  --  --  --  --  --  --  --  
 72
    65
 73
     2
 40
2.5
 49
1.25
 49
-1.25
  0
LTYPE
  2
DASHED2
 70
    64
  3
----    ----    ----    ----    
 72
    65
 73
     2
 40
5.0
 49
2.5
 49
-2.5
  0
LTYPE
  2
DASHED3
 70
    64
  3
------  ------  ------  ------  
 72
    65
 73
     2
 40
5.0
 49
3.75
 49
-1.25
  0
LTYPE
  2
CENTER1
 70
    64
  3
----- - ----- - ----- - ----- - 
 72
    65
 73
     4
 40
10.0
 49
6.25
 49
-1.25
 49
1.25
 49
-1.25
  0
LTYPE
  2
CENTER2
 70
    64
  3
----------  --  ----------  --  
 72
    65
 73
     4
 40
20.0
 49
12.5
 49
-2.5
 49
2.5
 49
-2.5
  0
LTYPE
  2
PHANTOM1
 70
    64
  3
--- - - --- - - --- - - --- - - 
 72
    65
 73
     6
 40
10.0
 49
3.25
 49
-1.25
 49
1.25
 49
-1.25
 49
1.25
 49
-1.25
  0
LTYPE
  2
PHANTOM2
 70
    64
  3
--------  -  -  --------  -  -  
 72
    65
 73
     6
 40
20.0
 49
10.0
 49
-2.5
 49
1.25
 49
-2.5
 49
1.25
 49
-2.5
  0
LTYPE
  2
DOT
 70
    64
  3
-   -   -   -   -   -   -   -   
 72
    65
 73
     2
 40
2.5
 49
0.625
 49
-1.875
  0
LTYPE
  2
DUMMY
 70
    64
  3
ダミー
 72
    65
 73
     0
 40
0.0
  0
LTYPE
  2
RAND1
 70
    64
  3
ランダム線1
 72
    65
 73
     4
 40
10.0
 49
1.0
 49
-2.0
 49
3.0
 49
-4.0
  0
LTYPE
  2
RAND2
 70
    64
  3
ランダム線2
 72
    65
 73
     4
 40
14.0
 49
2.0
 49
-3.0
 49
4.0
 49
-5.0
  0
LTYPE
  2
RAND3
 70
    64
  3
ランダム線3
 72
    65
 73
     4
 40
18.0
 49
3.0
 49
-4.0
 49
5.0
 49
-6.0
  0
LTYPE
  2
RAND4
 70
    64
  3
ランダム線4
 72
    65
 73
     4
 40
22.0
 49
4.0
 49
-5.0
 49
6.0
 49
-7.0
  0
LTYPE
  2
RAND5
 70
    64
  3
ランダム線5
 72
    65
 73
     4
 40
26.0
 49
5.0
 49
-6.0
 49
7.0
 49
-8.0
  0
LTYPE
  2
LONG1
 70
    64
  3
----------  --  ----------  --  
 72
    65
 73
     4
 40
40.0
 49
32.5
 49
-2.5
 49
2.5
 49
-2.5
  0
LTYPE
  2
LONG2
 70
    64
  3
--------  -  -  --------  -  -  
 72
    65
 73
     6
 40
40.0
 49
30.0
 49
-2.5
 49
1.25
 49
-2.5
 49
1.25
 49
-2.5
  0
LTYPE
  2
LONG3
 70
    64
  3
+++++++++++++++..+++++++++++++++
 72
    65
 73
     2
 40
40.0
 49
37.5
 49
-2.5
  0
LTYPE
  2
LONG4
 70
    64
  3
+++++++++++++++..+++++++++++++++
 72
    65
 73
     2
 40
80.0
 49
75.0
 49
-5.0
  0
LTYPE
  2
LONG5
 70
    64
  3
----------  --  ----------  --  
 72
    65
 73
     4
 40
60.0
 49
37.5
 49
-7.5
 49
7.5
 49
-7.5
  0
LTYPE
  2
dashed
 70
   64
  3
-------   -------------   ------
 72
   65
 73
    2
 40
7.5
 49
6
 49
-1.5
  0
LTYPE
  2
dashed_spaced
 70
   64
  3
----        --------        ----
 72
   65
 73
    2
 40
12
 49
6
 49
-6
  0
LTYPE
  2
long_dashed_dotted
 70
   64
  3
------------- --- --------------
 72
   65
 73
    4
 40
15.25
 49
12
 49
-1.5
 49
0.25
 49
-1.5
  0
LTYPE
  2
long_dashed_double-dotted
 70
   64
  3
----------- --- --- ------------
 72
   65
 73
    6
 40
17
 49
12
 49
-1.5
 49
0.25
 49
-1.5
 49
0.25
 49
-1.5
  0
LTYPE
  2
long_dashed_triplicate-dotted
 70
   64
  3
--------- --- --- --- ----------
 72
   65
 73
    8
 40
18.75
 49
12
 49
-1.5
 49
0.25
 49
-1.5
 49
0.25
 49
-1.5
 49
0.25
 49
-1.5
  0
LTYPE
  2
dotted
 70
   64
  3
   -       -       -       -    
 72
   65
 73
    2
 40
1.75
 49
0.25
 49
-1.5
  0
LTYPE
  2
chain
 70
   64
  3
-------------- -- --------------
 72
   65
 73
    4
 40
18.5
 49
12
 49
-1.5
 49
3.5
 49
-1.5
  0
LTYPE
  2
chain_double_dash
 70
   64
  3
------------ -- -- -------------
 72
   65
 73
    6
 40
23.5
 49
12
 49
-1.5
 49
3.5
 49
-1.5
 49
3.5
 49
-1.5
  0
LTYPE
  2
dashed_dotted
 70
   64
  3
-----------     -     ----------
 72
   65
 73
    4
 40
9.25
 49
6
 49
-1.5
 49
0.25
 49
-1.5
  0
LTYPE
  2
double-dashed_dotted
 70
   64
  3
------   -----------   -   -----
 72
   65
 73
    6
 40
16.75
 49
6
 49
-1.5
 49
6
 49
-1.5
 49
0.25
 49
-1.5
  0
LTYPE
  2
dashed_double-dotted
 70
   64
  3
---------    -    -    ---------
 72
   65
 73
    6
 40
11
 49
6
 49
-1.5
 49
0.25
 49
-1.5
 49
0.25
 49
-1.5
  0
LTYPE
  2
double-dashed_double-dotted
 70
   64
  3
-----   ---------   -   -   ----
 72
   65
 73
    8
 40
18.5
 49
6
 49
-1.5
 49
6
 49
-1.5
 49
0.25
 49
-1.5
 49
0.25
 49
-1.5
  0
LTYPE
  2
dashed_triplicate-dotted
 70
   64
  3
-------    -    -    -    ------
 72
   65
 73
    8
 40
12.75
 49
6
 49
-1.5
 49
0.25
 49
-1.5
 49
0.25
 49
-1.5
 49
0.25
 49
-1.5
  0
LTYPE
  2
double-dashed_triplicate-dotted
 70
   64
  3
-----  ---------  -  -  -  -----
 72
   65
 73
   10
 40
20.25
 49
6
 49
-1.5
 49
6
 49
-1.5
 49
0.25
 49
-1.5
 49
0.25
 49
-1.5
 49
0.25
 49
-1.5
  0
LTYPE
  2
undefined
 70
   64
  3
--------------------------------
 72
   65
 73
    0
 40
0
  0
ENDTAB
  0
TABLE
  2
STYLE
  5
3
100
AcDbSymbolTable
 70
     1
  0
STYLE
  5
10
100
AcDbSymbolTableRecord
100
AcDbTextStyleTableRecord
  2
STANDARD
 70
     0
 40
0.0
 41
1.0
 50
0.0
 71
     0
 42
0.2
  3
txt
  4
bigfont.shx
  0
STYLE
  5
26
100
AcDbSymbolTableRecord
100
AcDbTextStyleTableRecord
  2
TATEGAKI
 70
    68
 40
0.0
 41
1.0
 50
0.0
 71
     0
 42
1.0
  3
txt
  4
bigfont.shx
  0
ENDTAB
  0
TABLE
  2
LAYER
 70
    6
  0
LAYER
  2
_0-0_
 70
   64
 62
    7
  6
CONTINUOUS
  0
LAYER
  2
_0-1_
 70
   64
 62
    7
  6
CONTINUOUS
  0
LAYER
  2
_0-8_
 70
   64
 62
    7
  6
CONTINUOUS
  0
LAYER
  2
_0-9_
 70
   64
 62
    7
  6
CONTINUOUS
  0
LAYER
  2
_0-f_
 70
   64
 62
    7
  6
CONTINUOUS
  0
LAYER
  2
ADD_LINE
 70
   64
 62
    7
  6
CONTINUOUS
  0
ENDTAB
  0
ENDSEC
  0
SECTION
  2
BLOCKS
  0
ENDSEC
  0
SECTION
  2
ENTITIES
  0
LINE
  8
_0-1_
  6
PHANTOM1
 62
  152
 10
13.3227929450278
 20
370.19007715319242
 11
26.655382603917701
 21
320.43217514974737
  0
LINE
  8
_0-1_
  6
PHANTOM1
 62
  152
 10
25.189644025245684
 20
325.9023859959654
 11
148.98023742403609
 21
325.9023859959654
  0
LINE
  8
_0-1_
  6
PHANTOM1
 62
  152
 10
148.98023742403609
 20
325.9023859959654
 11
148.98023742403609
 21
428.74543615556126
  0
LINE
  8
_0-1_
  6
PHANTOM1
 62
  152
 10
143.47573713131408
 20
430.22036256373298
 11
194.6726043372941
 21
416.50220334088721
  0
LINE
  8
_0-1_
  6
PHANTOM1
 62
  152
 10
188.98023742403609
 20
418.02746845831638
 11
188.98023742403609
 21
325.9023859959654
  0
LINE
  8
_0-0_
  6
CONTINUOUS
 62
    7
 10
188.98023742318105
 20
325.9023859959654
 11
188.03141198323078
 21
307.79771808347977
  0
LINE
  8
_0-0_
  6
CONTINUOUS
 62
    7
 10
186.03415291372107
 20
305.90238999596585
 11
103.98023742318105
 21
305.90238999596585
  0
LINE
  8
_0-0_
  6
CONTINUOUS
 62
    7
 10
103.98023742318105
 20
305.90238999596585
 11
55.122010715754755
 21
312.56677157722896
  0
LINE
  8
_0-1_
  6
DASHED2
 62
  152
 10
53.953965955725494
 20
315.4023859959654
 11
175.53627922016381
 21
315.4023859959654
  0
LINE
  8
_0-1_
  6
DASHED2
 62
  152
 10
177.53353828967261
 20
313.50705790845149
 11
177.83275211107207
 21
307.79771808347977
  0
LINE
  8
_0-0_
  6
CONTINUOUS
 62
    7
 10
134.48023742318117
 20
295.40238599596648
 11
129.93931205588228
 21
291.4023859959654
  0
LINE
  8
_0-0_
  6
CONTINUOUS
 62
    7
 10
128.48023742318105
 20
301.4023859959654
 11
73.480237423180938
 21
301.4023859959654
  0
LINE
  8
_0-0_
  6
CONTINUOUS
 62
    7
 10
71.980237423180938
 20
303.40238599586536
 11
71.980237423180938
 21
305.18016377366547
  0
LINE
  8
_0-0_
  6
CONTINUOUS
 62
    7
 10
71.980237423180938
 20
305.18016377366547
 11
129.98023742318105
 21
305.18016377366547
  0
LINE
  8
_0-0_
  6
CONTINUOUS
 62
    7
 10
129.98023742318105
 20
305.18016377366547
 11
129.98023742318105
 21
303.40238599586536
  0
LINE
  8
_0-0_
  6
CONTINUOUS
 62
    7
 10
129.98023742318105
 20
303.40238599586536
 11
71.980237423180938
 21
303.40238599586536
  0
LINE
  8
_0-0_
  6
CONTINUOUS
 62
    7
 10
71.980237423180938
 20
305.18016377366564
 11
72.206284241422395
 21
305.94458054363827
  0
LINE
  8
_0-0_
  6
CONTINUOUS
 62
    7
 10
72.206284241422395
 20
305.94458054363827
 11
72.279564874102903
 21
306.73227532128925
  0
LINE
  8
_0-0_
  6
CONTINUOUS
 62
    7
 10
72.279564874102903
 20
306.73227532128925
 11
72.272033490698618
 21
306.95794155146564
  0
LINE
  8
_0-0_
  6
CONTINUOUS
 62
    7
 10
72.272033490681338
 20
306.95794155146558
 11
96.241728370071314
 21
306.95794155146558
  0
LINE
  8
_0-0_
  6
CONTINUOUS
 62
    7
 10
103.98023742318105
 20
306.54800789166728
 11
103.98023742318105
 21
325.44525989870107
  0
LINE
  8
_0-1_
  6
CENTER1
 62
  152
 10
100.98023742318105
 20
320.64389932851481
 11
100.98023742318105
 21
247.74713458500463
  0
LINE
  8
_0-0_
  6
CONTINUOUS
 62
    7
 10
88.983539686016002
 20
246.95211241239593
 11
81.879350137570896
 21
284.05176894316463
  0
LINE
  8
_0-1_
  6
CENTER1
 62
  152
 10
75.980237423180938
 20
286.4023859959654
 11
75.980237423180938
 21
221.4023859959654
  0
LINE
  8
_0-1_
  6
PHANTOM1
 62
  152
 10
148.98023742403609
 20
365.9023859959654
 11
14.471676328000854
 21
365.9023859959654
  0
LINE
  8
_0-0_
  6
CONTINUOUS
 62
    7
 10
52.50712748582157
 20
325.9023859959654
 11
188.48023742318105
 21
325.9023859959654
  0
LINE
  8
_0-0_
  6
CONTINUOUS
 62
    7
 10
165.45465045760261
 20
326.85005003972236
 11
165.12923232729986
 21
333.05939786469497
  0
LINE
  8
_0-0_
  6
CONTINUOUS
 62
    7
 10
162.13334372303666
 20
335.90238999596585
 11
131.82713112332544
 21
335.90238999596585
  0
LINE
  8
_0-0_
  6
CONTINUOUS
 62
    7
 10
128.83124251906224
 20
333.05939786469497
 11
128.50582438875949
 21
326.85005003972236
  0
LINE
  8
_0-0_
  6
CONTINUOUS
 62
    7
 10
129.98023742318105
 20
305.18016377366564
 11
129.76255813175703
 21
305.90238999596585
  0
LINE
  8
_0-0_
  6
CONTINUOUS
 62
    7
 10
72.272033490681793
 20
306.95794155146547
 11
72.392112684961489
 21
307.28302248563551
  0
LINE
  8
_0-0_
  6
CONTINUOUS
 62
    7
 10
72.392112684961489
 20
307.28302248563551
 11
72.903003384293584
 21
308.26797831896823
  0
LINE
  8
_0-0_
  6
CONTINUOUS
 62
    7
 10
72.903003384293584
 20
308.26797831896823
 11
73.598547764668297
 21
309.15911246985144
  0
LINE
  8
_0-0_
  6
CONTINUOUS
 62
    7
 10
73.598547764668297
 20
309.15911246985144
 11
74.457612062050543
 21
309.92934827804623
  0
LINE
  8
_0-0_
  6
CONTINUOUS
 62
    7
 10
67.480237423180938
 20
295.4023859959654
 11
67.480237423180938
 21
289.4023859959654
  0
LINE
  8
_0-0_
  6
CONTINUOUS
 62
    7
 10
67.480237423180938
 20
289.4023859959654
 11
73.743324812329433
 21
288.3584456145465
  0
LINE
  8
_0-0_
  6
CONTINUOUS
 62
    7
 10
52.531574977178593
 20
315.38223876704996
 11
52.007812718443915
 21
325.37621801784388
  0
LINE
  8
_0-1_
  6
CENTER1
 62
  152
 10
43.480237423180938
 20
253.9023859959654
 11
108.48023742318105
 21
253.9023859959654
  0
LINE
  8
_0-0_
  6
CONTINUOUS
 62
    7
 10
292.84995146329311
 20
335.90238999596585
 11
265.16988773261346
 21
335.90238999596585
  0
LINE
  8
_0-0_
  6
CONTINUOUS
 62
    7
 10
262.17399912835026
 20
333.05939786469497
 11
261.79963426069571
 21
325.91609065390202
  0
LINE
  8
_0-0_
  6
CONTINUOUS
 62
    7
 10
261.80172871907962
 20
325.9023859959654
 11
430.82299403246907
 21
325.9023859959654
  0
LINE
  8
_0-0_
  6
CONTINUOUS
 62
    7
 10
431.32299403246907
 20
325.4023859959654
 11
431.32299403246907
 21
307.90238999596585
  0
LINE
  8
_0-0_
  6
CONTINUOUS
 62
    7
 10
429.32299403246907
 20
305.90238999596585
 11
264.22092316589897
 21
305.90238999596585
  0
LINE
  8
_0-0_
  6
CONTINUOUS
 62
    7
 10
262.22366409639017
 20
307.79771808347977
 11
261.30241395170287
 21
325.37621801784388
  0
LINE
  8
_0-0_
  6
CONTINUOUS
 62
    7
 10
294.32299403246998
 20
307.90238999596494
 11
294.32299403246998
 21
323.59239085326243
  0
LINE
  8
_0-0_
  6
CONTINUOUS
 62
    7
 10
294.32299403246998
 20
325.9023859959654
 11
293.84858099804751
 21
334.95472595220889
  0
LINE
  8
_0-1_
  6
PHANTOM1
 62
  152
 10
294.32299403246896
 20
325.9023859959654
 11
294.32299403246896
 21
428.74543615556126
  0
LINE
  8
_0-1_
  6
PHANTOM1
 62
  152
 10
288.78986814924053
 20
430.22803276759208
 11
339.68379531258154
 21
416.59104608452645
  0
LINE
  8
_0-1_
  6
PHANTOM1
 62
  152
 10
334.32299403246896
 20
418.02746845831638
 11
334.32299403246896
 21
325.9023859959654
  0
LINE
  8
_0-1_
  6
DASHED2
 62
  152
 10
308.65064851203533
 20
315.4023859959654
 11
429.32299403246907
 21
315.4023859959654
  0
LINE
  8
_0-0_
  6
CONTINUOUS
 62
    7
 10
411.10531474104511
 20
305.90238999596562
 11
411.32299403246907
 21
305.18016377366564
  0
LINE
  8
_0-0_
  6
CONTINUOUS
 62
    7
 10
411.32299403246907
 20
305.18016377366592
 11
353.32299403246907
 21
305.18016377366592
  0
LINE
  8
_0-0_
  6
CONTINUOUS
 62
    7
 10
353.32299403246907
 20
305.18016377366592
 11
353.32299403246907
 21
303.40238599586581
  0
LINE
  8
_0-0_
  6
CONTINUOUS
 62
    7
 10
353.32299403246907
 20
303.40238599586581
 11
411.32299403246907
 21
303.40238599586581
  0
LINE
  8
_0-0_
  6
CONTINUOUS
 62
    7
 10
411.32299403246907
 20
303.40238599586581
 11
411.32299403246907
 21
305.18016377366592
  0
LINE
  8
_0-0_
  6
CONTINUOUS
 62
    7
 10
409.82299403246907
 20
301.40238599596586
 11
354.82299403246907
 21
301.40238599596586
  0
LINE
  8
_0-0_
  6
CONTINUOUS
 62
    7
 10
353.32299403246907
 20
305.18016377366564
 11
353.54067332389303
 21
305.90238999596562
  0
LINE
  8
_0-0_
  6
CONTINUOUS
 62
    7
 10
348.82299403246907
 20
295.40238599596586
 11
348.82299403246907
 21
262.15238599596586
  0
LINE
  8
_0-0_
  6
CONTINUOUS
 62
    7
 10
348.57299403246907
 20
262.15238599596586
 11
349.32299403246907
 21
262.15238599596586
  0
LINE
  8
_0-0_
  6
CONTINUOUS
 62
    7
 10
349.32299403246907
 20
262.15238599596586
 11
350.21788703246966
 21
263.70238599596604
  0
LINE
  8
_0-0_
  6
CONTINUOUS
 62
    7
 10
350.21788703246966
 20
263.70238599596604
 11
355.07243853246928
 21
263.70238599596604
  0
LINE
  8
_0-0_
  6
CONTINUOUS
 62
    7
 10
355.07243853246928
 20
263.70238599596604
 11
355.82299403246907
 21
262.40238599596586
  0
LINE
  8
_0-0_
  6
CONTINUOUS
 62
    7
 10
355.07243853246928
 20
258.8023859959664
 11
350.21788703246966
 21
258.8023859959664
  0
LINE
  8
_0-0_
  6
CONTINUOUS
 62
    7
 10
347.82299403246907
 20
258.90238599596586
 11
344.52299479540852
 21
258.90238599596586
  0
LINE
  8
_0-0_
  6
CONTINUOUS
 62
    7
 10
344.52299479540852
 20
258.90238599596586
 11
344.52299479540852
 21
248.90238599596586
  0
LINE
  8
_0-0_
  6
CONTINUOUS
 62
    7
 10
344.52299479540852
 20
248.90238599596586
 11
343.82299403246907
 21
249.60238580523099
  0
LINE
  8
_0-0_
  6
CONTINUOUS
 62
    7
 10
343.82299403246907
 20
249.60238580523099
 11
343.82299403246907
 21
258.20238618670072
  0
LINE
  8
_0-0_
  6
CONTINUOUS
 62
    7
 10
343.82299403246907
 20
258.20238618670072
 11
347.82299403246907
 21
258.20238618670072
  0
LINE
  8
_0-0_
  6
CONTINUOUS
 62
    7
 10
347.82299403246907
 20
261.40238599596586
 11
347.82299403246907
 21
246.40238599596586
  0
LINE
  8
_0-0_
  6
CONTINUOUS
 62
    7
 10
348.57299403246907
 20
245.65238599596586
 11
349.32299403246907
 21
245.65238599596586
  0
LINE
  8
_0-0_
  6
CONTINUOUS
 62
    7
 10
349.32299403246907
 20
245.65238599596586
 11
350.21788703246966
 21
244.10238599596568
  0
LINE
  8
_0-0_
  6
CONTINUOUS
 62
    7
 10
350.21788703246966
 20
244.10238599596568
 11
355.07243853246928
 21
244.10238599596568
  0
LINE
  8
_0-0_
  6
CONTINUOUS
 62
    7
 10
355.07243853246928
 20
244.10238599596568
 11
355.82299403246907
 21
245.40238599596586
  0
LINE
  8
_0-0_
  6
CONTINUOUS
 62
    7
 10
355.07243853246928
 20
249.00238599596622
 11
350.21788703246966
 21
249.00238599596622
  0
LINE
  8
_0-0_
  6
CONTINUOUS
 62
    7
 10
347.82299403246907
 20
248.90238599596586
 11
344.52299479540852
 21
248.90238599596586
  0
LINE
  8
_0-0_
  6
CONTINUOUS
 62
    7
 10
343.82299403246907
 20
249.60238580523099
 11
347.82299403246907
 21
249.60238580523099
  0
LINE
  8
_0-1_
  6
CENTER1
 62
  152
 10
343.82299403246907
 20
253.90238599596586
 11
413.82299403246907
 21
253.90238599596586
  0
LINE
  8
_0-0_
  6
CONTINUOUS
 62
    7
 10
415.82299403246907
 20
251.07720928655743
 11
415.82299403246907
 21
295.40238599596586
  0
LINE
  8
_0-0_
  6
CONTINUOUS
 62
    7
 10
405.62299403246925
 20
286.40238599596586
 11
405.62299403246925
 21
284.98084696504856
  0
LINE
  8
_0-0_
  6
CONTINUOUS
 62
    7
 10
405.89094322490018
 20
283.98084696504856
 11
408.55504484003814
 21
279.36648761110354
  0
LINE
  8
_0-0_
  6
CONTINUOUS
 62
    7
 10
408.82299403246907
 20
278.36648761110354
 11
408.82299403246907
 21
238.40238599596586
  0
LINE
  8
_0-0_
  6
CONTINUOUS
 62
    7
 10
408.82299403246907
 20
238.40238599596586
 11
413.82651232211811
 21
245.08190320702778
  0
LINE
  8
_0-0_
  6
CONTINUOUS
 62
    7
 10
409.82299403246907
 20
245.4023859968367
 11
408.82299403246907
 21
245.4023859968367
  0
LINE
  8
_0-0_
  6
CONTINUOUS
 62
    7
 10
409.82299403246907
 20
245.4023859968367
 11
409.82299403246907
 21
262.40238599596586
  0
LINE
  8
_0-0_
  6
CONTINUOUS
 62
    7
 10
409.82299403246907
 20
262.40238599596586
 11
408.82299403246907
 21
262.40238599596586
  0
LINE
  8
_0-0_
  6
CONTINUOUS
 62
    7
 10
405.62299403246925
 20
263.90238599596586
 11
403.92299403246943
 21
263.90238599596586
  0
LINE
  8
_0-0_
  6
CONTINUOUS
 62
    7
 10
403.92299403246943
 20
273.40238599596586
 11
402.32299403246907
 21
274.90238599596586
  0
LINE
  8
_0-0_
  6
CONTINUOUS
 62
    7
 10
403.92299403246943
 20
273.40238599596586
 11
403.92299403246943
 21
234.40238599596586
  0
LINE
  8
_0-0_
  6
CONTINUOUS
 62
    7
 10
403.92299403246943
 20
234.40238599596586
 11
402.32299403246907
 21
232.90238599596586
  0
LINE
  8
_0-0_
  6
CONTINUOUS
 62
    7
 10
402.32299403246907
 20
224.40238599596586
 11
402.32299403246907
 21
283.40238599596586
  0
LINE
  8
_0-0_
  6
CONTINUOUS
 62
    7
 10
403.62299403246925
 20
282.90238599596586
 11
403.62299403246925
 21
286.90220905082441
  0
LINE
  8
_0-0_
  6
CONTINUOUS
 62
    7
 10
399.32299403246907
 20
286.40238599596586
 11
365.32299403246907
 21
286.40238599596586
  0
LINE
  8
_0-0_
  6
CONTINUOUS
 62
    7
 10
361.02299403246889
 20
286.90220905082441
 11
361.02299403246889
 21
282.90238599596586
  0
LINE
  8
_0-0_
  6
CONTINUOUS
 62
    7
 10
360.75504484003795
 20
281.90238599596586
 11
359.29094322490073
 21
279.36648761110354
  0
LINE
  8
_0-0_
  6
CONTINUOUS
 62
    7
 10
359.02299403246889
 20
278.36648761110354
 11
359.02299403246889
 21
238.40238599596586
  0
LINE
  8
_0-0_
  6
CONTINUOUS
 62
    7
 10
359.02299403246889
 20
238.40238599596586
 11
355.82299403246907
 21
238.40238599596586
  0
LINE
  8
_0-0_
  6
CONTINUOUS
 62
    7
 10
355.82299403246907
 20
238.40238599596586
 11
351.55321624018052
 21
244.10238599596568
  0
LINE
  8
_0-0_
  6
CONTINUOUS
 62
    7
 10
359.02299403246889
 20
243.90238599596586
 11
360.72299403246961
 21
243.90238599596586
  0
LINE
  8
_0-0_
  6
CONTINUOUS
 62
    7
 10
360.72299403246961
 20
234.40238599596586
 11
360.72299403246961
 21
273.40238599596586
  0
LINE
  8
_0-0_
  6
CONTINUOUS
 62
    7
 10
360.72299403246961
 20
273.40238599596586
 11
362.32299403246907
 21
274.90238599596586
  0
LINE
  8
_0-0_
  6
CONTINUOUS
 62
    7
 10
362.32299403246907
 20
283.40238599596586
 11
362.32299403246907
 21
224.40238599596586
  0
LINE
  8
_0-0_
  6
CONTINUOUS
 62
    7
 10
365.32299403246907
 20
221.40238599596586
 11
399.32299403246907
 21
221.40238599596586
  0
LINE
  8
_0-1_
  6
CENTER1
 62
  152
 10
382.32299403246907
 20
221.40238599596631
 11
382.32299403246907
 21
325.90238599596631
  0
LINE
  8
_0-0_
  6
CONTINUOUS
 62
    7
 10
359.02299403246889
 20
284.84503137186192
 11
359.02299403246889
 21
284.44494858018624
  0
LINE
  8
_0-0_
  6
CONTINUOUS
 62
    7
 10
359.02299403246889
 20
284.44494858018624
 11
356.0909432249
 21
279.36648761110354
  0
LINE
  8
_0-0_
  6
CONTINUOUS
 62
    7
 10
355.82299403246907
 20
278.36648761110354
 11
355.82299403246907
 21
238.40238599596586
  0
LINE
  8
_0-0_
  6
CONTINUOUS
 62
    7
 10
360.72299403246961
 20
234.40238599596586
 11
362.32299403246907
 21
232.90238599596586
  0
LINE
  8
ADD_LINE
  6
DOT
 62
  152
 10
356.53010081365574
 20
253.19527921477919
 11
355.82299403246907
 21
253.90238599596586
  0
LINE
  8
ADD_LINE
  6
DOT
 62
  152
 10
355.82299403246907
 20
253.90238599596586
 11
356.53010081365574
 21
254.60949277715252
  0
LINE
  8
_0-0_
  6
CONTINUOUS
 62
    7
 10
359.02299403246889
 20
263.90238599596586
 11
360.72299403246961
 21
263.90238599596586
  0
LINE
  8
_0-0_
  6
CONTINUOUS
 62
    7
 10
344.52299479540852
 20
258.90238599596586
 11
343.82299403246907
 21
258.20238618670072
  0
LINE
  8
_0-0_
  6
CONTINUOUS
 62
    7
 10
403.92299403246943
 20
243.90238599596586
 11
405.62299403246925
 21
243.90238599596586
  0
LINE
  8
_0-0_
  6
CONTINUOUS
 62
    7
 10
405.62299403246925
 20
238.40238599596586
 11
405.62299403246925
 21
278.36648761110354
  0
LINE
  8
_0-0_
  6
CONTINUOUS
 62
    7
 10
405.35504484003832
 20
279.36648761110354
 11
403.89094322490018
 21
281.90238599596586
  0
LINE
  8
_0-0_
  6
CONTINUOUS
 62
    7
 10
405.62299403246925
 20
238.40238599596586
 11
408.82299403246907
 21
238.40238599596586
  0
LINE
  8
_0-0_
  6
CONTINUOUS
 62
    7
 10
428.32299403246907
 20
156.836939558636
 11
294.32299403246907
 21
156.836939558636
  0
LINE
  8
_0-0_
  6
CONTINUOUS
 62
    7
 10
294.32299403246907
 20
156.836939558636
 11
277.83319405088872
 21
139.71264851439702
  0
LINE
  8
_0-1_
  6
CENTER1
 62
  152
 10
280.32299403246907
 20
132.83693955863623
 11
280.32299403246907
 21
96.836939558636118
  0
LINE
  8
_0-0_
  6
CONTINUOUS
 62
    7
 10
277.83319405088855
 20
89.961230602875276
 11
294.32299403246907
 21
72.836939558636118
  0
LINE
  8
_0-0_
  6
CONTINUOUS
 62
    7
 10
294.32299403246907
 20
72.836939558636118
 11
294.32299403246907
 21
22.836939558635208
  0
LINE
  8
_0-0_
  6
CONTINUOUS
 62
    7
 10
297.32299403246907
 20
19.836939558636118
 11
362.32299403246907
 21
19.836939558636118
  0
LINE
  8
_0-0_
  6
CONTINUOUS
 62
    7
 10
362.32299403246907
 20
21.336939558635663
 11
353.82299403246907
 21
21.336939558635663
  0
LINE
  8
_0-0_
  6
CONTINUOUS
 62
    7
 10
355.82299403246907
 20
28.336939558635663
 11
355.82299403246907
 21
59.078186476880205
  0
LINE
  8
_0-0_
  6
CONTINUOUS
 62
    7
 10
359.02299403246889
 20
58.96121152580929
 11
359.02299403246889
 21
28.336939558635663
  0
LINE
  8
_0-0_
  6
CONTINUOUS
 62
    7
 10
359.02299403246889
 20
28.336939558635663
 11
355.82299403246907
 21
28.336939558635663
  0
LINE
  8
_0-0_
  6
CONTINUOUS
 62
    7
 10
355.32299403246907
 20
29.174661898467207
 11
355.32299403246907
 21
35.336939558635663
  0
LINE
  8
_0-0_
  6
CONTINUOUS
 62
    7
 10
355.82299403246907
 20
35.336939558635663
 11
354.82299403246907
 21
35.336939558635663
  0
LINE
  8
_0-0_
  6
CONTINUOUS
 62
    7
 10
354.82299403246907
 20
35.336939558635663
 11
354.82299403246907
 21
52.336939557764822
  0
LINE
  8
_0-0_
  6
CONTINUOUS
 62
    7
 10
354.82299403246907
 20
52.336939557764822
 11
355.82299403246907
 21
52.336939557764822
  0
LINE
  8
_0-0_
  6
CONTINUOUS
 62
    7
 10
359.02299403246889
 20
53.836939558635663
 11
360.7229940324687
 21
53.836939558635663
  0
LINE
  8
_0-0_
  6
CONTINUOUS
 62
    7
 10
360.7229940324687
 20
63.336939558635663
 11
362.32299403246907
 21
64.836939558635663
  0
LINE
  8
_0-0_
  6
CONTINUOUS
 62
    7
 10
360.7229940324687
 20
63.336939558635663
 11
360.7229940324687
 21
24.336939558635663
  0
LINE
  8
_0-0_
  6
CONTINUOUS
 62
    7
 10
360.7229940324687
 20
24.336939558635663
 11
362.32299403246907
 21
22.836939558635663
  0
LINE
  8
_0-0_
  6
CONTINUOUS
 62
    7
 10
362.32299403246907
 20
14.336939558635663
 11
362.32299403246907
 21
73.336939558635663
  0
LINE
  8
_0-0_
  6
CONTINUOUS
 62
    7
 10
365.32299403246907
 20
76.336939558635663
 11
399.32299403246907
 21
76.336939558635663
  0
LINE
  8
_0-0_
  6
CONTINUOUS
 62
    7
 10
402.32299403246907
 20
73.336939558635663
 11
402.32299403246907
 21
14.336939558635663
  0
LINE
  8
_0-0_
  6
CONTINUOUS
 62
    7
 10
402.32299403246907
 20
19.836939558636118
 11
413.08035334534998
 21
19.836939558636118
  0
LINE
  8
_0-0_
  6
CONTINUOUS
 62
    7
 10
415.20167368890907
 20
20.715619215076117
 11
430.44431437602907
 21
35.958259902195209
  0
LINE
  8
_0-0_
  6
CONTINUOUS
 62
    7
 10
431.32299403246907
 20
38.07958024575521
 11
431.32299403246907
 21
153.836939558636
  0
LINE
  8
_0-0_
  6
CONTINUOUS
 62
    7
 10
428.32299403246907
 20
146.836939558636
 11
333.56563471958816
 21
146.836939558636
  0
LINE
  8
_0-0_
  6
CONTINUOUS
 62
    7
 10
331.44431437602907
 20
145.9582599021951
 11
304.90037376958247
 21
119.4143192957485
  0
LINE
  8
_0-0_
  6
CONTINUOUS
 62
    7
 10
304.32299403246907
 20
107.83693955863612
 11
304.32299403246907
 21
22.836939558635208
  0
LINE
  8
_0-1_
  6
CENTER1
 62
  152
 10
307.86691203721693
 20
27.836939558636118
 11
321.23763371434416
 21
27.836939558636118
  0
LINE
  8
_0-0_
  6
CONTINUOUS
 62
   56
 10
316.82299403246907
 20
26.393563851963449
 11
316.82299403246907
 21
29.280315265308786
  0
LINE
  8
_0-0_
  6
CONTINUOUS
 62
   56
 10
316.82299403246907
 20
29.280315265308786
 11
314.32299403246907
 21
30.723690971981455
  0
LINE
  8
_0-0_
  6
CONTINUOUS
 62
   56
 10
314.32299403246907
 20
30.723690971981455
 11
311.82299403246907
 21
29.280315265308786
  0
LINE
  8
_0-0_
  6
CONTINUOUS
 62
   56
 10
311.82299403246907
 20
29.280315265308786
 11
311.82299403246907
 21
26.393563851963449
  0
LINE
  8
_0-0_
  6
CONTINUOUS
 62
   56
 10
311.82299403246907
 20
26.393563851963449
 11
314.32299403246907
 21
24.950188145290781
  0
LINE
  8
_0-0_
  6
CONTINUOUS
 62
   56
 10
314.32299403246907
 20
24.950188145290781
 11
316.82299403246907
 21
26.393563851963449
  0
LINE
  8
_0-1_
  6
CENTER1
 62
  152
 10
314.32299403246907
 20
18.336939558636118
 11
314.32299403246907
 21
92.988666478180789
  0
LINE
  8
_0-0_
  6
CONTINUOUS
 62
   56
 10
314.32299403246907
 20
90.723690971981455
 11
316.82299403246907
 21
89.280315265308786
  0
LINE
  8
_0-0_
  6
CONTINUOUS
 62
   56
 10
316.82299403246907
 20
89.280315265308786
 11
316.82299403246907
 21
86.393563851963449
  0
LINE
  8
_0-0_
  6
CONTINUOUS
 62
   56
 10
316.82299403246907
 20
86.393563851963449
 11
314.32299403246907
 21
84.950188145290781
  0
LINE
  8
_0-0_
  6
CONTINUOUS
 62
   56
 10
314.32299403246907
 20
84.950188145290781
 11
311.82299403246907
 21
86.393563851963449
  0
LINE
  8
_0-0_
  6
CONTINUOUS
 62
   56
 10
311.82299403246907
 20
86.393563851963449
 11
311.82299403246907
 21
89.280315265308786
  0
LINE
  8
_0-0_
  6
CONTINUOUS
 62
   56
 10
311.82299403246907
 20
89.280315265308786
 11
314.32299403246907
 21
90.723690971981455
  0
LINE
  8
_0-1_
  6
CENTER1
 62
  152
 10
307.86691203721693
 20
87.836939558636118
 11
321.23763371434416
 21
87.836939558636118
  0
LINE
  8
_0-1_
  6
CENTER1
 62
  152
 10
321.23763371434416
 20
67.836939558635208
 11
307.86691203721693
 21
67.836939558635208
  0
LINE
  8
_0-1_
  6
CENTER1
 62
  152
 10
337.8513784595325
 20
68.836939558636118
 11
351.49747343212675
 21
68.836939558636118
  0
LINE
  8
_0-1_
  6
CENTER1
 62
  152
 10
345.55344141076876
 20
60.584499255444939
 11
345.55344141076876
 21
77.124205982976605
  0
LINE
  8
_0-1_
  6
CENTER1
 62
  152
 10
345.82299403246907
 20
83.084499255444939
 11
345.82299403246907
 21
99.624205982976605
  0
LINE
  8
_0-0_
  6
CONTINUOUS
 62
    7
 10
353.32299403246907
 20
101.58416269744487
 11
358.38418372262549
 21
98.662083380626996
  0
LINE
  8
_0-1_
  6
CENTER1
 62
  152
 10
359.82299403246907
 20
95.06353757826912
 11
359.82299403246907
 21
113.6242059829766
  0
LINE
  8
_0-0_
  6
CONTINUOUS
 62
    7
 10
359.82299403246907
 20
112.84249328101725
 11
366.32299403246907
 21
109.08971641982646
  0
LINE
  8
_0-0_
  6
CONTINUOUS
 62
    7
 10
366.32299403246907
 20
109.08971641982646
 11
366.32299403246907
 21
105.13970473326629
  0
LINE
  8
_0-1_
  6
CENTER1
 62
  152
 10
367.7448486778776
 20
105.33693955863566
 11
352.12093108123281
 21
105.33693955863566
  0
LINE
  8
_0-0_
  6
CONTINUOUS
 62
    7
 10
353.32299403246907
 20
109.08971641982646
 11
359.82299403246907
 21
112.84249328101725
  0
LINE
  8
_0-0_
  6
CONTINUOUS
 62
    7
 10
353.82299403246907
 20
116.33693955863566
 11
410.82299403246907
 21
116.33693955863566
  0
LINE
  8
_0-0_
  6
CONTINUOUS
 62
    7
 10
411.32299403246907
 20
109.08971641982646
 11
404.82299403246907
 21
112.84249328101725
  0
LINE
  8
_0-0_
  6
CONTINUOUS
 62
    7
 10
404.82299403246907
 20
112.84249328101725
 11
398.32299403246907
 21
109.08971641982646
  0
LINE
  8
_0-0_
  6
CONTINUOUS
 62
    7
 10
398.32299403246907
 20
109.08971641982646
 11
398.32299403246907
 21
105.13970473326629
  0
LINE
  8
_0-1_
  6
CENTER1
 62
  152
 10
397.12093108123281
 20
105.33693955863566
 11
412.7448486778776
 21
105.33693955863566
  0
LINE
  8
_0-0_
  6
CONTINUOUS
 62
    7
 10
411.32299403246907
 20
101.58416269744487
 11
406.26180434231264
 21
98.662083380626996
  0
LINE
  8
_0-1_
  6
CENTER1
 62
  152
 10
404.82299403246907
 20
95.06353757826912
 11
404.82299403246907
 21
113.6242059829766
  0
LINE
  8
_0-0_
  6
CONTINUOUS
 62
    7
 10
411.32299403246907
 20
109.08971641982646
 11
411.32299403246907
 21
101.58416269744487
  0
LINE
  8
_0-1_
  6
CENTER1
 62
  152
 10
418.82299403246907
 20
99.624205982976605
 11
418.82299403246907
 21
83.084499255444939
  0
LINE
  8
_0-1_
  6
CENTER1
 62
  152
 10
419.09254665416938
 20
77.124205982976605
 11
419.09254665416938
 21
60.584499255444939
  0
LINE
  8
_0-1_
  6
CENTER1
 62
  152
 10
418.82299403246907
 20
54.624205982976605
 11
418.82299403246907
 21
38.084499255444939
  0
LINE
  8
_0-0_
  6
CONTINUOUS
 62
    7
 10
420.12299326952962
 20
38.836939558635663
 11
420.82299403246907
 21
39.5369393679008
  0
LINE
  8
_0-0_
  6
CONTINUOUS
 62
    7
 10
420.82299403246907
 20
39.5369393679008
 11
420.82299403246907
 21
48.136939749370526
  0
LINE
  8
_0-0_
  6
CONTINUOUS
 62
    7
 10
420.82299403246907
 20
48.136939749370526
 11
416.82299403246907
 21
48.136939749370526
  0
LINE
  8
_0-0_
  6
CONTINUOUS
 62
    7
 10
416.82299403246907
 20
48.836939558635663
 11
420.12299326952962
 21
48.836939558635663
  0
LINE
  8
_0-0_
  6
CONTINUOUS
 62
    7
 10
420.12299326952962
 20
48.836939558635663
 11
420.82299403246907
 21
48.136939749370526
  0
LINE
  8
_0-0_
  6
CONTINUOUS
 62
    7
 10
420.12299326952962
 20
48.836939558635663
 11
420.12299326952962
 21
38.836939558635663
  0
LINE
  8
_0-0_
  6
CONTINUOUS
 62
    7
 10
420.12299326952962
 20
38.836939558635663
 11
416.82299403246907
 21
38.836939558635663
  0
LINE
  8
_0-0_
  6
CONTINUOUS
 62
    7
 10
416.82299403246907
 20
39.5369393679008
 11
420.82299403246907
 21
39.5369393679008
  0
LINE
  8
_0-0_
  6
CONTINUOUS
 62
    7
 10
414.42810103246848
 20
38.936939558635117
 11
409.57354953246886
 21
38.936939558635117
  0
LINE
  8
_0-0_
  6
CONTINUOUS
 62
    7
 10
408.82299403246907
 20
35.336939558635663
 11
409.57354953246886
 21
34.036939558635481
  0
LINE
  8
_0-0_
  6
CONTINUOUS
 62
    7
 10
409.57354953246886
 20
34.036939558635481
 11
414.42810103246848
 21
34.036939558635481
  0
LINE
  8
_0-0_
  6
CONTINUOUS
 62
    7
 10
414.42810103246848
 20
34.036939558635481
 11
415.32299403246907
 21
35.586939558635663
  0
LINE
  8
_0-0_
  6
CONTINUOUS
 62
    7
 10
415.32299403246907
 20
35.586939558635663
 11
416.07299403246907
 21
35.586939558635663
  0
LINE
  8
_0-0_
  6
CONTINUOUS
 62
    7
 10
416.82299403246907
 20
36.336939558635663
 11
416.82299403246907
 21
51.336939558635663
  0
LINE
  8
_0-0_
  6
CONTINUOUS
 62
    7
 10
416.07299403246907
 20
52.086939558635663
 11
415.32299403246907
 21
52.086939558635663
  0
LINE
  8
_0-0_
  6
CONTINUOUS
 62
    7
 10
415.32299403246907
 20
52.086939558635663
 11
414.42810103246848
 21
53.636939558635845
  0
LINE
  8
_0-0_
  6
CONTINUOUS
 62
    7
 10
414.42810103246848
 20
53.636939558635845
 11
409.57354953246886
 21
53.636939558635845
  0
LINE
  8
_0-0_
  6
CONTINUOUS
 62
    7
 10
409.57354953246886
 20
53.636939558635845
 11
408.82299403246907
 21
52.336939558635663
  0
LINE
  8
_0-0_
  6
CONTINUOUS
 62
    7
 10
409.57354953246886
 20
48.736939558635299
 11
414.42810103246848
 21
48.736939558635299
  0
LINE
  8
_0-1_
  6
CENTER1
 62
  152
 10
415.18672549944677
 20
46.336939558636118
 11
426.74484867787669
 21
46.336939558636118
  0
LINE
  8
ADD_LINE
  6
DOT
 62
  152
 10
408.82299403246907
 20
43.836939558635663
 11
408.1158872512824
 21
44.54404633982233
  0
LINE
  8
ADD_LINE
  6
DOT
 62
  152
 10
408.1158872512824
 20
43.129832777448996
 11
408.82299403246907
 21
43.836939558635663
  0
LINE
  8
_0-1_
  6
CENTER1
 62
  152
 10
404.82299403246907
 20
39.981003286092005
 11
404.82299403246907
 21
24.084499255444939
  0
LINE
  8
_0-0_
  6
CONTINUOUS
 62
    7
 10
403.92299403246852
 20
24.336939558635663
 11
402.32299403246907
 21
22.836939558635663
  0
LINE
  8
_0-0_
  6
CONTINUOUS
 62
    7
 10
402.32299403246907
 20
21.336939558635663
 11
410.82299403246907
 21
21.336939558635663
  0
LINE
  8
_0-0_
  6
CONTINUOUS
 62
    7
 10
408.82299403246907
 20
28.336939558635663
 11
408.82299403246907
 21
59.078186476880205
  0
LINE
  8
_0-0_
  6
CONTINUOUS
 62
    7
 10
405.62299403246834
 20
58.96121152580929
 11
405.62299403246834
 21
28.336939558635663
  0
LINE
  8
_0-0_
  6
CONTINUOUS
 62
    7
 10
405.62299403246834
 20
28.336939558635663
 11
408.82299403246907
 21
28.336939558635663
  0
LINE
  8
_0-0_
  6
CONTINUOUS
 62
    7
 10
409.32299403246907
 20
29.174661898467207
 11
409.32299403246907
 21
34.470914327989817
  0
LINE
  8
_0-0_
  6
CONTINUOUS
 62
    7
 10
405.62299403246834
 20
33.836939558635663
 11
403.92299403246852
 21
33.836939558635663
  0
LINE
  8
_0-0_
  6
CONTINUOUS
 62
    7
 10
403.92299403246852
 20
24.336939558635663
 11
403.92299403246852
 21
63.336939558635663
  0
LINE
  8
_0-0_
  6
CONTINUOUS
 62
    7
 10
403.92299403246852
 20
63.336939558635663
 11
402.32299403246907
 21
64.836939558635663
  0
LINE
  8
_0-0_
  6
CONTINUOUS
 62
    7
 10
403.92299403246852
 20
53.836939558635663
 11
405.62299403246834
 21
53.836939558635663
  0
LINE
  8
_0-1_
  6
CENTER1
 62
  152
 10
401.24313919752785
 20
46.336939558636118
 11
363.72528180404697
 21
46.336939558636118
  0
LINE
  8
_0-1_
  6
CENTER1
 62
  152
 10
351.11001411304551
 20
46.336939558636118
 11
338.12093108123281
 21
46.336939558636118
  0
LINE
  8
_0-1_
  6
CENTER1
 62
  152
 10
345.82299403246907
 20
38.084499255444939
 11
345.82299403246907
 21
54.624205982976605
  0
LINE
  8
_0-0_
  6
CONTINUOUS
 62
    7
 10
348.82299403246907
 20
26.336939558636118
 11
348.82299403246907
 21
111.33693955863566
  0
LINE
  8
_0-0_
  6
CONTINUOUS
 62
    7
 10
353.32299403246907
 20
109.08971641982646
 11
353.32299403246907
 21
101.58416269744487
  0
LINE
  8
_0-1_
  6
CENTER1
 62
  152
 10
353.50441371193847
 20
91.336939558636118
 11
338.12093108123281
 21
91.336939558636118
  0
LINE
  8
_0-1_
  6
CENTER1
 62
  152
 10
363.32299403246907
 20
129.92229987676114
 11
363.32299403246907
 21
143.29302155388814
  0
LINE
  8
_0-0_
  6
CONTINUOUS
 62
   56
 10
363.32299403246907
 20
139.72369097198089
 11
365.82299403246907
 21
138.28031526530822
  0
LINE
  8
_0-0_
  6
CONTINUOUS
 62
   56
 10
365.82299403246907
 20
138.28031526530822
 11
365.82299403246907
 21
135.39356385196288
  0
LINE
  8
_0-0_
  6
CONTINUOUS
 62
   56
 10
365.82299403246907
 20
135.39356385196288
 11
363.32299403246907
 21
133.95018814529021
  0
LINE
  8
_0-0_
  6
CONTINUOUS
 62
   56
 10
363.32299403246907
 20
133.95018814529021
 11
360.82299403246907
 21
135.39356385196288
  0
LINE
  8
_0-0_
  6
CONTINUOUS
 62
   56
 10
360.82299403246907
 20
135.39356385196288
 11
360.82299403246907
 21
138.28031526530822
  0
LINE
  8
_0-0_
  6
CONTINUOUS
 62
   56
 10
360.82299403246907
 20
138.28031526530822
 11
363.32299403246907
 21
139.72369097198089
  0
LINE
  8
_0-1_
  6
CENTER1
 62
  152
 10
356.72077694914697
 20
136.83693955863555
 11
434.3177470699784
 21
136.83693955863555
  0
LINE
  8
_0-0_
  6
CONTINUOUS
 62
   56
 10
425.82299403246907
 20
135.39356385196288
 11
425.82299403246907
 21
138.28031526530822
  0
LINE
  8
_0-0_
  6
CONTINUOUS
 62
   56
 10
425.82299403246907
 20
138.28031526530822
 11
423.32299403246907
 21
139.72369097198089
  0
LINE
  8
_0-0_
  6
CONTINUOUS
 62
   56
 10
423.32299403246907
 20
139.72369097198089
 11
420.82299403246907
 21
138.28031526530822
  0
LINE
  8
_0-0_
  6
CONTINUOUS
 62
   56
 10
420.82299403246907
 20
138.28031526530822
 11
420.82299403246907
 21
135.39356385196288
  0
LINE
  8
_0-0_
  6
CONTINUOUS
 62
   56
 10
420.82299403246907
 20
135.39356385196288
 11
423.32299403246907
 21
133.95018814529021
  0
LINE
  8
_0-0_
  6
CONTINUOUS
 62
   56
 10
423.32299403246907
 20
133.95018814529021
 11
425.82299403246907
 21
135.39356385196288
  0
LINE
  8
_0-1_
  6
CENTER1
 62
  152
 10
423.32299403246907
 20
129.92229987676114
 11
423.32299403246907
 21
143.29302155388814
  0
LINE
  8
_0-0_
  6
CONTINUOUS
 62
    7
 10
415.82299403246907
 20
111.33693955863566
 11
415.82299403246907
 21
26.336939558635663
  0
LINE
  8
_0-0_
  6
CONTINUOUS
 62
    7
 10
399.32299403246907
 20
11.336939558635663
 11
365.32299403246907
 21
11.336939558635663
  0
LINE
  8
_0-0_
  6
CONTINUOUS
 62
    7
 10
360.7229940324687
 20
33.836939558635663
 11
359.02299403246889
 21
33.836939558635663
  0
LINE
  8
_0-1_
  6
CENTER1
 62
  152
 10
382.32299403246907
 20
23.814946633744626
 11
382.32299403246907
 21
68.858932478635893
  0
LINE
  8
_0-1_
  6
CENTER1
 62
  152
 10
413.14851463281047
 20
68.836939558636118
 11
427.014401299577
 21
68.836939558636118
  0
LINE
  8
_0-1_
  6
CENTER1
 62
  152
 10
426.74484867787669
 20
91.336939558636118
 11
411.14157435299967
 21
91.336939558636118
  0
LINE
  8
_0-1_
  6
CENTER1
 62
  152
 10
383.32299403246907
 20
129.92229987676114
 11
383.32299403246907
 21
143.29302155388814
  0
LINE
  8
_0-1_
  6
CENTER1
 62
  152
 10
296.0093460443004
 20
114.83693955863612
 11
264.63664202246855
 21
114.83693955863612
  0
LINE
  8
_0-1_
  6
DASHED2
 62
  152
 10
306.35417562112707
 20
307.79771808347977
 11
306.65338944252562
 21
313.50705790845149
  0
LINE
  8
_0-1_
  6
PHANTOM1
 62
  152
 10
294.32299403246896
 20
325.9023859959654
 11
453.02134405744846
 21
325.9023859959654
  0
LINE
  8
_0-1_
  6
PHANTOM1
 62
  152
 10
454.48708263612053
 20
320.43217514974737
 11
441.15449297723052
 21
370.19007715319242
  0
LINE
  8
_0-1_
  6
PHANTOM1
 62
  152
 10
442.30337636020352
 20
365.90238599596563
 11
334.32299403246896
 21
365.90238599596563
  0
LINE
  8
_0-0_
  6
CONTINUOUS
 62
    7
 10
484.47340333246899
 20
325.9023859959654
 11
484.47340333246899
 21
428.74543615556126
  0
LINE
  8
_0-1_
  6
PHANTOM1
 62
  152
 10
527.79231368770741
 20
370.19007715319242
 11
514.4597240288175
 21
320.43217514974737
  0
LINE
  8
_0-1_
  6
PHANTOM1
 62
  152
 10
515.92546260748952
 20
325.9023859959654
 11
674.62381263246903
 21
325.9023859959654
  0
LINE
  8
_0-1_
  6
PHANTOM1
 62
  152
 10
674.62381263246903
 20
325.9023859959654
 11
674.62381263246903
 21
428.74543615556126
  0
LINE
  8
_0-1_
  6
PHANTOM1
 62
  152
 10
680.15693851569745
 20
430.22803276759208
 11
629.26301135235644
 21
416.59104608452645
  0
LINE
  8
_0-1_
  6
PHANTOM1
 62
  152
 10
634.62381263246903
 20
418.02746845831638
 11
634.62381263246903
 21
325.9023859959654
  0
LINE
  8
_0-1_
  6
DASHED2
 62
  152
 10
660.29615815290265
 20
315.4023859959654
 11
539.62381263246891
 21
315.4023859959654
  0
LINE
  8
_0-0_
  6
CONTINUOUS
 62
    7
 10
539.62381263246891
 20
305.90238999596585
 11
704.72588349903901
 21
305.90238999596585
  0
LINE
  8
_0-0_
  6
CONTINUOUS
 62
    7
 10
706.72314256854781
 20
307.79771808347977
 11
707.64439271323511
 21
325.37621801784388
  0
LINE
  8
_0-0_
  6
CONTINUOUS
 62
    7
 10
707.14507794585836
 20
325.9023859959654
 11
538.12381263246891
 21
325.9023859959654
  0
LINE
  8
_0-0_
  6
CONTINUOUS
 62
    7
 10
537.62381263246891
 20
325.4023859959654
 11
537.62381263246891
 21
307.90238999596585
  0
LINE
  8
_0-0_
  6
CONTINUOUS
 62
    7
 10
563.32381263246964
 20
305.90238999596534
 11
563.32381263246964
 21
238.40238599596535
  0
LINE
  8
_0-0_
  6
CONTINUOUS
 62
    7
 10
563.32381263246964
 20
238.40238599596535
 11
560.12381263246891
 21
238.40238599596535
  0
LINE
  8
_0-0_
  6
CONTINUOUS
 62
    7
 10
560.12381263246891
 20
238.40238599596535
 11
560.12381263246891
 21
268.40238599596489
  0
LINE
  8
_0-0_
  6
CONTINUOUS
 62
    7
 10
560.12381263246891
 20
262.40238599596535
 11
559.12381263246891
 21
262.40238599596535
  0
LINE
  8
_0-0_
  6
CONTINUOUS
 62
    7
 10
559.12381263246891
 20
262.40238599596535
 11
559.12381263246891
 21
245.40238599683619
  0
LINE
  8
_0-0_
  6
CONTINUOUS
 62
    7
 10
559.12381263246891
 20
245.40238599683619
 11
560.12381263246891
 21
245.40238599683619
  0
LINE
  8
_0-0_
  6
CONTINUOUS
 62
    7
 10
563.32381263246964
 20
243.90238599596535
 11
565.02381263246855
 21
243.90238599596535
  0
LINE
  8
_0-0_
  6
CONTINUOUS
 62
    7
 10
565.02381263246855
 20
234.40238599596535
 11
565.02381263246855
 21
273.40238599596535
  0
LINE
  8
_0-0_
  6
CONTINUOUS
 62
    7
 10
565.02381263246855
 20
273.40238599596535
 11
566.62381263246891
 21
274.90238599596535
  0
LINE
  8
_0-0_
  6
CONTINUOUS
 62
    7
 10
566.62381263246891
 20
283.40238599596535
 11
566.62381263246891
 21
224.40238599596535
  0
LINE
  8
_0-0_
  6
CONTINUOUS
 62
    7
 10
569.62381263246891
 20
221.40238599596535
 11
603.62381263246891
 21
221.40238599596535
  0
LINE
  8
_0-0_
  6
CONTINUOUS
 62
    7
 10
606.62381263246891
 20
224.40238599596535
 11
606.62381263246891
 21
283.40238599596535
  0
LINE
  8
_0-0_
  6
CONTINUOUS
 62
    7
 10
603.62381263246891
 20
286.40238599596535
 11
569.62381263246891
 21
286.40238599596535
  0
LINE
  8
_0-0_
  6
CONTINUOUS
 62
    7
 10
565.02381263246855
 20
263.90238599596535
 11
563.32381263246964
 21
263.90238599596535
  0
LINE
  8
_0-1_
  6
CENTER1
 62
  152
 10
555.12381263246891
 20
253.90238599596535
 11
625.12381263246891
 21
253.90238599596535
  0
LINE
  8
_0-0_
  6
CONTINUOUS
 62
    7
 10
625.12381263246891
 20
258.20238618670021
 11
621.12381263246891
 21
258.20238618670021
  0
LINE
  8
_0-0_
  6
CONTINUOUS
 62
    7
 10
621.12381263246891
 20
258.90238599596535
 11
624.42381186952946
 21
258.90238599596535
  0
LINE
  8
_0-0_
  6
CONTINUOUS
 62
    7
 10
624.42381186952946
 20
258.90238599596535
 11
624.42381186952946
 21
248.90238599596535
  0
LINE
  8
_0-0_
  6
CONTINUOUS
 62
    7
 10
624.42381186952946
 20
248.90238599596535
 11
621.12381263246891
 21
248.90238599596535
  0
LINE
  8
_0-0_
  6
CONTINUOUS
 62
    7
 10
621.12381263246891
 20
249.60238580523048
 11
625.12381263246891
 21
249.60238580523048
  0
LINE
  8
_0-0_
  6
CONTINUOUS
 62
    7
 10
625.12381263246891
 20
249.60238580523048
 11
624.42381186952946
 21
248.90238599596535
  0
LINE
  8
_0-0_
  6
CONTINUOUS
 62
    7
 10
625.12381263246891
 20
249.60238580523048
 11
625.12381263246891
 21
258.20238618670021
  0
LINE
  8
_0-0_
  6
CONTINUOUS
 62
    7
 10
625.12381263246891
 20
258.20238618670021
 11
624.42381186952946
 21
258.90238599596535
  0
LINE
  8
_0-0_
  6
CONTINUOUS
 62
    7
 10
618.72891963246923
 20
258.80238599596589
 11
613.87436813246961
 21
258.80238599596589
  0
LINE
  8
_0-0_
  6
CONTINUOUS
 62
    7
 10
613.12381263246891
 20
262.40238599596535
 11
613.87436813246961
 21
263.70238599596553
  0
LINE
  8
_0-0_
  6
CONTINUOUS
 62
    7
 10
613.87436813246961
 20
263.70238599596553
 11
618.72891963246923
 21
263.70238599596553
  0
LINE
  8
_0-0_
  6
CONTINUOUS
 62
    7
 10
618.72891963246923
 20
263.70238599596553
 11
619.62381263246891
 21
262.15238599596535
  0
LINE
  8
_0-0_
  6
CONTINUOUS
 62
    7
 10
619.62381263246891
 20
262.15238599596535
 11
620.37381263246891
 21
262.15238599596535
  0
LINE
  8
_0-0_
  6
CONTINUOUS
 62
    7
 10
621.12381263246891
 20
261.40238599596535
 11
621.12381263246891
 21
246.40238599596535
  0
LINE
  8
_0-0_
  6
CONTINUOUS
 62
    7
 10
620.37381263246891
 20
245.65238599596535
 11
619.62381263246891
 21
245.65238599596535
  0
LINE
  8
_0-0_
  6
CONTINUOUS
 62
    7
 10
619.62381263246891
 20
245.65238599596535
 11
618.72891963246923
 21
244.10238599596516
  0
LINE
  8
_0-0_
  6
CONTINUOUS
 62
    7
 10
618.72891963246923
 20
244.10238599596516
 11
613.87436813246961
 21
244.10238599596516
  0
LINE
  8
_0-0_
  6
CONTINUOUS
 62
    7
 10
613.87436813246961
 20
244.10238599596516
 11
613.12381263246891
 21
245.40238599596535
  0
LINE
  8
_0-0_
  6
CONTINUOUS
 62
    7
 10
613.87436813246961
 20
249.00238599596571
 11
618.72891963246923
 21
249.00238599596571
  0
LINE
  8
ADD_LINE
  6
DOT
 62
  152
 10
612.41670585128315
 20
253.19527921477868
 11
613.12381263246891
 21
253.90238599596535
  0
LINE
  8
ADD_LINE
  6
DOT
 62
  152
 10
613.12381263246891
 20
253.90238599596535
 11
612.41670585128315
 21
254.60949277715201
  0
LINE
  8
_0-0_
  6
CONTINUOUS
 62
    7
 10
609.92381263246909
 20
263.90238599596535
 11
608.22381263246928
 21
263.90238599596535
  0
LINE
  8
_0-0_
  6
CONTINUOUS
 62
    7
 10
613.12381263246891
 20
268.40238599596489
 11
613.12381263246891
 21
238.40238599596535
  0
LINE
  8
_0-0_
  6
CONTINUOUS
 62
    7
 10
613.12381263246891
 20
238.40238599596535
 11
609.92381263246909
 21
238.40238599596535
  0
LINE
  8
_0-0_
  6
CONTINUOUS
 62
    7
 10
609.92381263246909
 20
238.40238599596535
 11
609.92381263246909
 21
305.90238999596534
  0
LINE
  8
_0-0_
  6
CONTINUOUS
 62
    7
 10
608.22381263246928
 20
273.40238599596535
 11
606.62381263246891
 21
274.90238599596535
  0
LINE
  8
_0-0_
  6
CONTINUOUS
 62
    7
 10
608.22381263246928
 20
273.40238599596535
 11
608.22381263246928
 21
234.40238599596535
  0
LINE
  8
_0-0_
  6
CONTINUOUS
 62
    7
 10
608.22381263246928
 20
234.40238599596535
 11
606.62381263246891
 21
232.90238599596535
  0
LINE
  8
_0-0_
  6
CONTINUOUS
 62
    7
 10
608.22381263246928
 20
243.90238599596535
 11
609.92381263246909
 21
243.90238599596535
  0
LINE
  8
_0-1_
  6
CENTER1
 62
  152
 10
586.62381263246891
 20
221.40238599596631
 11
586.62381263246891
 21
325.90238599596631
  0
LINE
  8
_0-1_
  6
PHANTOM1
 62
  152
 10
634.62381263246903
 20
365.90238599596563
 11
526.64343030473447
 21
365.90238599596563
  0
LINE
  8
_0-0_
  6
CONTINUOUS
 62
    7
 10
674.623812632468
 20
307.90238999596494
 11
674.623812632468
 21
323.59239085326243
  0
LINE
  8
_0-0_
  6
CONTINUOUS
 62
    7
 10
674.623812632468
 20
325.9023859959654
 11
675.09822566689047
 21
334.95472595220889
  0
LINE
  8
_0-0_
  6
CONTINUOUS
 62
    7
 10
676.09685520164487
 20
335.90238999596585
 11
703.77691893232452
 21
335.90238999596585
  0
LINE
  8
_0-0_
  6
CONTINUOUS
 62
    7
 10
706.77280753658772
 20
333.05939786469497
 11
707.14717240424227
 21
325.91609065390202
  0
LINE
  8
_0-1_
  6
DASHED2
 62
  152
 10
662.59263104381091
 20
307.79771808347977
 11
662.29341722241236
 21
313.50705790845149
  0
LINE
  8
_0-0_
  6
CONTINUOUS
 62
    7
 10
780.9153946817072
 20
307.79771808347977
 11
779.96656924175693
 21
325.9023859959654
  0
LINE
  8
_0-1_
  6
PHANTOM1
 62
  152
 10
779.96656924090189
 20
325.9023859959654
 11
779.96656924090189
 21
418.02746845831638
  0
LINE
  8
_0-1_
  6
PHANTOM1
 62
  152
 10
774.27420232764382
 20
416.50220334088721
 11
825.47106953362379
 21
430.22036256373298
  0
LINE
  8
_0-1_
  6
PHANTOM1
 62
  152
 10
819.96656924090189
 20
428.74543615556126
 11
819.96656924090189
 21
325.9023859959654
  0
LINE
  8
_0-1_
  6
PHANTOM1
 62
  152
 10
819.96656924090189
 20
325.9023859959654
 11
943.7571626396923
 21
325.9023859959654
  0
LINE
  8
_0-1_
  6
PHANTOM1
 62
  152
 10
942.29142406102017
 20
320.43217514974737
 11
955.62401371991018
 21
370.19007715319242
  0
LINE
  8
_0-1_
  6
PHANTOM1
 62
  152
 10
954.47513033693713
 20
365.9023859959654
 11
819.96656924090189
 21
365.9023859959654
  0
LINE
  8
_0-1_
  6
CENTER1
 62
  152
 10
835.46656924175784
 20
253.90238599596535
 11
900.46656924175693
 21
253.90238599596535
  0
LINE
  8
_0-0_
  6
CONTINUOUS
 62
    7
 10
882.89256068481552
 20
249.72329764541212
 11
899.23689734300967
 21
308.09857202858041
  0
LINE
  8
_0-0_
  6
CONTINUOUS
 62
    7
 10
899.30013979085959
 20
305.11501840686253
 11
888.12246858153355
 21
268.40238599596535
  0
LINE
  8
_0-0_
  6
CONTINUOUS
 62
    7
 10
883.96656924175693
 20
277.08077114569653
 11
883.96656924175693
 21
305.62294938862453
  0
LINE
  8
_0-0_
  6
CONTINUOUS
 62
    7
 10
864.96656924175693
 20
305.90238999596585
 11
913.82479594918311
 21
312.56677157722896
  0
LINE
  8
_0-1_
  6
DASHED2
 62
  152
 10
914.99284070921237
 20
315.4023859959654
 11
793.41052744477417
 21
315.4023859959654
  0
LINE
  8
_0-1_
  6
DASHED2
 62
  152
 10
791.41326837526537
 20
313.50705790845149
 11
791.11405455386591
 21
307.79771808347977
  0
LINE
  8
_0-0_
  6
CONTINUOUS
 62
    7
 10
782.91265375121691
 20
305.90238999596585
 11
864.96656924175693
 21
305.90238999596585
  0
LINE
  8
_0-0_
  6
CONTINUOUS
 62
    7
 10
864.96656924175693
 20
306.54800789166728
 11
864.96656924175693
 21
325.44525989870107
  0
LINE
  8
_0-1_
  6
CENTER1
 62
  152
 10
867.96656924175693
 20
320.64389932851481
 11
867.96656924175693
 21
247.74713458500463
  0
LINE
  8
_0-0_
  6
CONTINUOUS
 62
    7
 10
853.04057779869743
 20
249.72329764541212
 11
837.31114426315469
 21
305.90238999596579
  0
LINE
  8
_0-0_
  6
CONTINUOUS
 62
    7
 10
836.63299869265427
 20
305.11501840686253
 11
847.8106699019803
 21
268.40238599596535
  0
LINE
  8
_0-0_
  6
CONTINUOUS
 62
    7
 10
806.81346294190132
 20
335.90238999596585
 11
837.11967554161254
 21
335.90238999596585
  0
LINE
  8
_0-0_
  6
CONTINUOUS
 62
    7
 10
840.11556414587574
 20
333.05939786469497
 11
840.44098227617849
 21
326.85005003972236
  0
LINE
  8
_0-0_
  6
CONTINUOUS
 62
    7
 10
803.49215620733537
 20
326.85005003972236
 11
803.81757433763812
 21
333.05939786469497
  0
LINE
  8
_0-0_
  6
CONTINUOUS
 62
    7
 10
780.46656924175693
 20
325.9023859959654
 11
916.4396791791163
 21
325.9023859959654
  0
LINE
  8
_0-0_
  6
CONTINUOUS
 62
    7
 10
916.93899394649395
 20
325.37621801784388
 11
916.41523168775927
 21
315.38223876704996
  0
LINE
  8
_0-0_
  6
CONTINUOUS
 62
    7
 10
674.62381263246891
 20
156.83693955863623
 11
540.62381263246903
 21
156.83693955863623
  0
LINE
  8
_0-0_
  6
CONTINUOUS
 62
    7
 10
537.62381263246903
 20
153.83693955863623
 11
537.62381263246903
 21
38.07958024575521
  0
LINE
  8
_0-0_
  6
CONTINUOUS
 62
    7
 10
538.50249228890902
 20
35.958259902195209
 11
554.62381263246891
 21
19.836939558636118
  0
LINE
  8
_0-0_
  6
CONTINUOUS
 62
    7
 10
555.86645331958891
 20
19.836939558636118
 11
671.62381263246891
 21
19.836939558636118
  0
LINE
  8
_0-0_
  6
CONTINUOUS
 62
    7
 10
674.62381263246891
 20
22.836939558635208
 11
674.62381263246891
 21
72.836939558636118
  0
LINE
  8
_0-0_
  6
CONTINUOUS
 62
    7
 10
674.62381263246891
 20
72.836939558636118
 11
691.11361261404875
 21
89.961230602875162
  0
LINE
  8
_0-1_
  6
CENTER1
 62
  152
 10
688.62381263246891
 20
96.836939558636118
 11
688.62381263246891
 21
132.83693955863623
  0
LINE
  8
_0-0_
  6
CONTINUOUS
 62
    7
 10
691.11361261404954
 20
139.71264851439696
 11
674.62381263246891
 21
156.83693955863623
  0
LINE
  8
_0-1_
  6
CENTER1
 62
  152
 10
672.93746062063758
 20
114.83693955863612
 11
704.31016464246943
 21
114.83693955863612
  0
LINE
  8
_0-0_
  6
CONTINUOUS
 62
    7
 10
664.04643289535568
 20
119.41431929574935
 11
637.50249228890891
 21
145.95825990219532
  0
LINE
  8
_0-0_
  6
CONTINUOUS
 62
    7
 10
635.38117194535073
 20
146.83693955863623
 11
540.62381263246903
 21
146.83693955863623
  0
LINE
  8
_0-1_
  6
CENTER1
 62
  152
 10
545.62381263246903
 20
143.29302155388837
 11
545.62381263246903
 21
129.92229987676114
  0
LINE
  8
_0-0_
  6
CONTINUOUS
 62
   56
 10
545.62381263246903
 20
133.95018814529044
 11
543.12381263246903
 21
135.39356385196311
  0
LINE
  8
_0-0_
  6
CONTINUOUS
 62
   56
 10
543.12381263246903
 20
135.39356385196311
 11
543.12381263246903
 21
138.28031526530845
  0
LINE
  8
_0-0_
  6
CONTINUOUS
 62
   56
 10
543.12381263246903
 20
138.28031526530845
 11
545.62381263246903
 21
139.72369097198111
  0
LINE
  8
_0-0_
  6
CONTINUOUS
 62
   56
 10
545.62381263246903
 20
139.72369097198111
 11
548.12381263246903
 21
138.28031526530845
  0
LINE
  8
_0-0_
  6
CONTINUOUS
 62
   56
 10
548.12381263246903
 20
138.28031526530845
 11
548.12381263246903
 21
135.39356385196311
  0
LINE
  8
_0-0_
  6
CONTINUOUS
 62
   56
 10
548.12381263246903
 20
135.39356385196311
 11
545.62381263246903
 21
133.95018814529044
  0
LINE
  8
_0-1_
  6
CENTER1
 62
  152
 10
534.62905959496061
 20
136.83693955863578
 11
612.22602971579101
 21
136.83693955863578
  0
LINE
  8
_0-0_
  6
CONTINUOUS
 62
   56
 10
608.12381263246891
 20
135.39356385196311
 11
608.12381263246891
 21
138.28031526530845
  0
LINE
  8
_0-0_
  6
CONTINUOUS
 62
   56
 10
608.12381263246891
 20
138.28031526530845
 11
605.62381263246891
 21
139.72369097198111
  0
LINE
  8
_0-0_
  6
CONTINUOUS
 62
   56
 10
605.62381263246891
 20
139.72369097198111
 11
603.12381263246891
 21
138.28031526530845
  0
LINE
  8
_0-0_
  6
CONTINUOUS
 62
   56
 10
603.12381263246891
 20
138.28031526530845
 11
603.12381263246891
 21
135.39356385196311
  0
LINE
  8
_0-0_
  6
CONTINUOUS
 62
   56
 10
603.12381263246891
 20
135.39356385196311
 11
605.62381263246891
 21
133.95018814529044
  0
LINE
  8
_0-0_
  6
CONTINUOUS
 62
   56
 10
605.62381263246891
 20
133.95018814529044
 11
608.12381263246891
 21
135.39356385196311
  0
LINE
  8
_0-1_
  6
CENTER1
 62
  152
 10
605.62381263246891
 20
129.92229987676114
 11
605.62381263246891
 21
143.29302155388837
  0
LINE
  8
_0-1_
  6
CENTER1
 62
  152
 10
585.62381263246891
 20
143.29302155388837
 11
585.62381263246891
 21
129.92229987676114
  0
LINE
  8
_0-1_
  6
CENTER1
 62
  152
 10
586.62381263246891
 20
113.89375860467692
 11
586.62381263246891
 21
23.814946633744626
  0
LINE
  8
_0-1_
  6
CENTER1
 62
  152
 10
594.32587558370608
 20
32.067386936934895
 11
578.70195798706038
 21
32.067386936934895
  0
LINE
  8
_0-1_
  6
CENTER1
 62
  152
 10
571.82587558370608
 20
32.336939558636118
 11
556.20195798706038
 21
32.336939558636118
  0
LINE
  8
_0-0_
  6
CONTINUOUS
 62
    7
 10
553.12381263246891
 20
33.408560567459631
 11
553.12381263246891
 21
26.336939558636118
  0
LINE
  8
_0-0_
  6
CONTINUOUS
 62
    7
 10
557.62381263246891
 20
28.584162697445322
 11
564.12381263246891
 21
24.831385836254526
  0
LINE
  8
_0-0_
  6
CONTINUOUS
 62
    7
 10
564.12381263246891
 20
24.831385836254526
 11
570.62381263246891
 21
28.584162697445322
  0
LINE
  8
_0-0_
  6
CONTINUOUS
 62
    7
 10
570.62381263246891
 20
28.584162697445322
 11
570.62381263246891
 21
36.089716419826914
  0
LINE
  8
_0-0_
  6
CONTINUOUS
 62
    7
 10
570.62381263246891
 20
36.089716419826914
 11
570.19560960796309
 21
36.336939558636118
  0
LINE
  8
_0-0_
  6
CONTINUOUS
 62
    7
 10
569.62381263246982
 20
36.336939558636118
 11
603.62381263247073
 21
36.336939558636118
  0
LINE
  8
_0-0_
  6
CONTINUOUS
 62
    7
 10
603.05201565697564
 20
36.336939558636118
 11
602.62381263246891
 21
36.089716419826914
  0
LINE
  8
_0-0_
  6
CONTINUOUS
 62
    7
 10
602.62381263246891
 20
36.089716419826914
 11
602.62381263246891
 21
28.584162697445322
  0
LINE
  8
_0-0_
  6
CONTINUOUS
 62
    7
 10
602.62381263246891
 20
28.584162697445322
 11
609.12381263246891
 21
24.831385836254526
  0
LINE
  8
_0-0_
  6
CONTINUOUS
 62
    7
 10
609.12381263246891
 20
24.831385836254526
 11
615.62381263246891
 21
28.584162697445322
  0
LINE
  8
_0-0_
  6
CONTINUOUS
 62
    7
 10
615.62381263246891
 20
28.584162697445322
 11
615.62381263246891
 21
36.089716419826914
  0
LINE
  8
_0-0_
  6
CONTINUOUS
 62
    7
 10
615.62381263246891
 20
36.089716419826914
 11
609.12381263246891
 21
39.84249328101771
  0
LINE
  8
_0-0_
  6
CONTINUOUS
 62
    7
 10
609.12381263246891
 20
39.84249328101771
 11
606.43530951706646
 21
38.290285237521744
  0
LINE
  8
_0-0_
  6
CONTINUOUS
 62
    7
 10
606.62381263247073
 20
39.336939558636118
 11
606.62381263246982
 21
98.336939558636118
  0
LINE
  8
_0-0_
  6
CONTINUOUS
 62
    7
 10
606.43530951706555
 20
99.383593879750265
 11
609.12381263246891
 21
97.831385836254071
  0
LINE
  8
_0-0_
  6
CONTINUOUS
 62
    7
 10
609.12381263246891
 20
97.831385836254071
 11
615.62381263246891
 21
101.58416269744487
  0
LINE
  8
_0-0_
  6
CONTINUOUS
 62
    7
 10
615.62381263246891
 20
101.58416269744487
 11
615.62381263246891
 21
109.08971641982646
  0
LINE
  8
_0-0_
  6
CONTINUOUS
 62
    7
 10
615.62381263246891
 20
109.08971641982646
 11
609.12381263246891
 21
112.84249328101725
  0
LINE
  8
_0-0_
  6
CONTINUOUS
 62
    7
 10
609.12381263246891
 20
112.84249328101725
 11
602.62381263246891
 21
109.08971641982646
  0
LINE
  8
_0-0_
  6
CONTINUOUS
 62
    7
 10
602.62381263246891
 20
109.08971641982646
 11
602.62381263246891
 21
101.58416269744487
  0
LINE
  8
_0-0_
  6
CONTINUOUS
 62
    7
 10
602.62381263246891
 20
101.58416269744487
 11
603.05201565697564
 21
101.33693955863612
  0
LINE
  8
_0-0_
  6
CONTINUOUS
 62
    7
 10
603.62381263246982
 20
101.33693955863612
 11
569.62381263246891
 21
101.33693955863612
  0
LINE
  8
_0-0_
  6
CONTINUOUS
 62
    7
 10
570.195609607964
 20
101.33693955863612
 11
570.62381263246891
 21
101.58416269744487
  0
LINE
  8
_0-0_
  6
CONTINUOUS
 62
    7
 10
570.62381263246891
 20
101.58416269744487
 11
570.62381263246891
 21
109.08971641982646
  0
LINE
  8
_0-0_
  6
CONTINUOUS
 62
    7
 10
570.62381263246891
 20
109.08971641982646
 11
564.12381263246891
 21
112.84249328101725
  0
LINE
  8
_0-0_
  6
CONTINUOUS
 62
    7
 10
564.12381263246891
 20
112.84249328101725
 11
557.62381263246891
 21
109.08971641982646
  0
LINE
  8
_0-0_
  6
CONTINUOUS
 62
    7
 10
557.62381263246891
 20
109.08971641982646
 11
557.62381263246891
 21
101.58416269744487
  0
LINE
  8
_0-0_
  6
CONTINUOUS
 62
    7
 10
557.62381263246891
 20
101.58416269744487
 11
564.12381263246891
 21
97.831385836254071
  0
LINE
  8
_0-0_
  6
CONTINUOUS
 62
    7
 10
564.12381263246891
 20
97.831385836254071
 11
566.81231574787409
 21
99.38359387975072
  0
LINE
  8
_0-0_
  6
CONTINUOUS
 62
    7
 10
566.62381263246891
 20
98.336939558636118
 11
566.62381263246982
 21
39.336939558636118
  0
LINE
  8
_0-0_
  6
CONTINUOUS
 62
    7
 10
566.81231574787409
 20
38.290285237520607
 11
564.12381263246891
 21
39.84249328101771
  0
LINE
  8
_0-0_
  6
CONTINUOUS
 62
    7
 10
564.12381263246891
 20
39.84249328101771
 11
557.62381263246891
 21
36.089716419826914
  0
LINE
  8
_0-0_
  6
CONTINUOUS
 62
    7
 10
557.62381263246891
 20
36.089716419826914
 11
557.62381263246891
 21
28.584162697445322
  0
LINE
  8
_0-0_
  6
CONTINUOUS
 62
    7
 10
558.12381263246891
 20
21.336939558636118
 11
615.12381263246891
 21
21.336939558636118
  0
LINE
  8
_0-1_
  6
CENTER1
 62
  152
 10
609.12381263246891
 20
24.084499255444939
 11
609.12381263246891
 21
113.6242059829766
  0
LINE
  8
_0-0_
  6
CONTINUOUS
 62
    7
 10
615.12381263246891
 20
116.33693955863612
 11
558.12381263246891
 21
116.33693955863612
  0
LINE
  8
_0-1_
  6
CENTER1
 62
  152
 10
564.12381263246891
 20
113.6242059829766
 11
564.12381263246891
 21
24.084499255444939
  0
LINE
  8
_0-0_
  6
CONTINUOUS
 62
    7
 10
553.12381263246891
 20
33.408560567459631
 11
551.92773100170257
 21
37.872397983481846
  0
LINE
  8
_0-1_
  6
CENTER1
 62
  152
 10
550.12381263246903
 20
38.084499255444939
 11
550.12381263246903
 21
54.624205982976605
  0
LINE
  8
_0-1_
  6
CENTER1
 62
  152
 10
549.85426001076962
 20
60.584499255444939
 11
549.85426001076962
 21
77.124205982976605
  0
LINE
  8
_0-0_
  6
CONTINUOUS
 62
    7
 10
552.87381263246891
 20
77.086939558636118
 11
553.62381263246891
 21
77.086939558636118
  0
LINE
  8
_0-0_
  6
CONTINUOUS
 62
    7
 10
553.62381263246891
 20
77.086939558636118
 11
554.5187056324695
 21
78.6369395586363
  0
LINE
  8
_0-0_
  6
CONTINUOUS
 62
    7
 10
554.5187056324695
 20
78.6369395586363
 11
559.37325713246912
 21
78.6369395586363
  0
LINE
  8
_0-0_
  6
CONTINUOUS
 62
    7
 10
559.37325713246912
 20
78.6369395586363
 11
560.12381263246982
 21
77.336939558636118
  0
LINE
  8
_0-0_
  6
CONTINUOUS
 62
    7
 10
559.37325713246912
 20
73.736939558635754
 11
554.5187056324695
 21
73.736939558635754
  0
LINE
  8
_0-0_
  6
CONTINUOUS
 62
    7
 10
552.12381263246903
 20
73.836939558636118
 11
548.82381339540939
 21
73.836939558636118
  0
LINE
  8
_0-0_
  6
CONTINUOUS
 62
    7
 10
548.82381339540939
 20
73.836939558636118
 11
548.12381263246994
 21
73.136939749370981
  0
LINE
  8
_0-0_
  6
CONTINUOUS
 62
    7
 10
548.12381263246994
 20
73.136939749370981
 11
548.12381263246994
 21
64.536939367901255
  0
LINE
  8
_0-0_
  6
CONTINUOUS
 62
    7
 10
548.12381263246994
 20
64.536939367901255
 11
552.12381263246903
 21
64.536939367901255
  0
LINE
  8
_0-0_
  6
CONTINUOUS
 62
    7
 10
552.12381263246903
 20
63.836939558636118
 11
548.82381339540939
 21
63.836939558636118
  0
LINE
  8
_0-0_
  6
CONTINUOUS
 62
    7
 10
548.82381339540939
 20
63.836939558636118
 11
548.12381263246994
 21
64.536939367901255
  0
LINE
  8
_0-0_
  6
CONTINUOUS
 62
    7
 10
548.82381339540939
 20
63.836939558636118
 11
548.82381339540939
 21
73.836939558636118
  0
LINE
  8
_0-0_
  6
CONTINUOUS
 62
    7
 10
548.12381263246994
 20
73.136939749370981
 11
552.12381263246903
 21
73.136939749370981
  0
LINE
  8
_0-0_
  6
CONTINUOUS
 62
    7
 10
552.12381263246903
 20
76.336939558636118
 11
552.12381263246903
 21
61.336939558636118
  0
LINE
  8
_0-0_
  6
CONTINUOUS
 62
    7
 10
552.87381263246891
 20
60.586939558636118
 11
553.62381263246891
 21
60.586939558636118
  0
LINE
  8
_0-0_
  6
CONTINUOUS
 62
    7
 10
553.62381263246891
 20
60.586939558636118
 11
554.5187056324695
 21
59.036939558635936
  0
LINE
  8
_0-0_
  6
CONTINUOUS
 62
    7
 10
554.5187056324695
 20
59.036939558635936
 11
559.37325713246912
 21
59.036939558635936
  0
LINE
  8
_0-0_
  6
CONTINUOUS
 62
    7
 10
559.37325713246912
 20
59.036939558635936
 11
560.12381263246982
 21
60.336939558636118
  0
LINE
  8
_0-0_
  6
CONTINUOUS
 62
    7
 10
559.37325713246912
 20
63.936939558635572
 11
554.5187056324695
 21
63.936939558635572
  0
LINE
  8
ADD_LINE
  6
DOT
 62
  152
 10
560.83091941365558
 20
68.129832777449451
 11
560.12381263246982
 21
68.836939558636118
  0
LINE
  8
ADD_LINE
  6
DOT
 62
  152
 10
560.12381263246982
 20
68.836939558636118
 11
560.83091941365558
 21
69.544046339822785
  0
LINE
  8
_0-0_
  6
CONTINUOUS
 62
    7
 10
563.32381263246964
 20
78.836939558636118
 11
565.02381263246946
 21
78.836939558636118
  0
LINE
  8
_0-0_
  6
CONTINUOUS
 62
    7
 10
563.32381263246964
 20
84.336939558636118
 11
563.32381263246964
 21
53.836939558636118
  0
LINE
  8
_0-0_
  6
CONTINUOUS
 62
    7
 10
560.12381263246982
 20
53.836939558636118
 11
560.12381263246982
 21
84.336939558636118
  0
LINE
  8
_0-0_
  6
CONTINUOUS
 62
    7
 10
565.02381263246946
 20
88.336939558636118
 11
566.62381263246982
 21
89.836939558636118
  0
LINE
  8
_0-0_
  6
CONTINUOUS
 62
    7
 10
565.02381263246946
 20
88.336939558636118
 11
565.02381263246946
 21
49.336939558636118
  0
LINE
  8
_0-0_
  6
CONTINUOUS
 62
    7
 10
565.02381263246946
 20
49.336939558636118
 11
566.62381263246982
 21
47.836939558636118
  0
LINE
  8
_0-0_
  6
CONTINUOUS
 62
    7
 10
565.02381263246946
 20
58.836939558636118
 11
563.32381263246964
 21
58.836939558636118
  0
LINE
  8
_0-1_
  6
CENTER1
 62
  152
 10
541.93240536536109
 20
68.836939558636118
 11
631.09542820540548
 21
68.836939558636118
  0
LINE
  8
_0-1_
  6
CENTER1
 62
  152
 10
623.39336525417013
 20
60.584499255444939
 11
623.39336525417013
 21
77.124205982976605
  0
LINE
  8
_0-1_
  6
CENTER1
 62
  152
 10
623.12381263246891
 20
83.084499255444939
 11
623.12381263246891
 21
99.624205982976605
  0
LINE
  8
_0-0_
  6
CONTINUOUS
 62
    7
 10
621.31989426323628
 20
99.801481133790844
 11
620.12381263246891
 21
104.26531854981306
  0
LINE
  8
_0-0_
  6
CONTINUOUS
 62
    7
 10
620.12381263246891
 20
104.26531854981306
 11
620.12381263246891
 21
111.33693955863612
  0
LINE
  8
_0-1_
  6
CENTER1
 62
  152
 10
616.82587558370608
 20
105.33693955863566
 11
601.20195798706038
 21
105.33693955863566
  0
LINE
  8
_0-0_
  6
CONTINUOUS
 62
    7
 10
606.62381263246982
 20
89.836939558636118
 11
608.22381263247019
 21
88.336939558636118
  0
LINE
  8
_0-0_
  6
CONTINUOUS
 62
    7
 10
608.22381263247019
 20
88.336939558636118
 11
608.22381263247019
 21
49.336939558636118
  0
LINE
  8
_0-0_
  6
CONTINUOUS
 62
    7
 10
608.22381263247019
 20
49.336939558636118
 11
606.62381263246982
 21
47.836939558636118
  0
LINE
  8
_0-0_
  6
CONTINUOUS
 62
    7
 10
609.92381263247
 20
53.836939558192739
 11
609.92381263247
 21
83.836939558636118
  0
LINE
  8
_0-0_
  6
CONTINUOUS
 62
    7
 10
613.12381263246982
 20
83.836939558636118
 11
613.12381263246982
 21
53.836939558636118
  0
LINE
  8
_0-0_
  6
CONTINUOUS
 62
    7
 10
613.12381263246982
 20
60.336939558636118
 11
614.12381263246982
 21
60.336939558636118
  0
LINE
  8
_0-0_
  6
CONTINUOUS
 62
    7
 10
614.12381263246982
 20
60.336939558636118
 11
614.12381263246982
 21
77.336939557765277
  0
LINE
  8
_0-0_
  6
CONTINUOUS
 62
    7
 10
614.12381263246982
 20
77.336939557765277
 11
613.12381263246982
 21
77.336939557765277
  0
LINE
  8
_0-0_
  6
CONTINUOUS
 62
    7
 10
609.92381263247
 20
78.836939558636118
 11
608.22381263247019
 21
78.836939558636118
  0
LINE
  8
_0-0_
  6
CONTINUOUS
 62
    7
 10
608.22381263247019
 20
58.836939558636118
 11
609.92381263247
 21
58.836939558636118
  0
LINE
  8
_0-1_
  6
CENTER1
 62
  152
 10
623.12381263246891
 20
54.624205982976605
 11
623.12381263246891
 21
38.084499255444939
  0
LINE
  8
_0-0_
  6
CONTINUOUS
 62
    7
 10
621.31989426323628
 20
37.872397983481846
 11
620.12381263246891
 21
33.408560567459631
  0
LINE
  8
_0-0_
  6
CONTINUOUS
 62
    7
 10
620.12381263246891
 20
33.408560567459631
 11
620.12381263246891
 21
26.336939558636118
  0
LINE
  8
_0-1_
  6
CENTER1
 62
  152
 10
616.82587558370608
 20
32.336939558636118
 11
601.20195798706038
 21
32.336939558636118
  0
LINE
  8
_0-1_
  6
CENTER1
 62
  152
 10
630.82587558370608
 20
46.336939558636118
 11
542.20195798706231
 21
46.336939558636118
  0
LINE
  8
_0-1_
  6
CENTER1
 62
  152
 10
550.12381263246903
 20
83.084499255444939
 11
550.12381263246903
 21
99.624205982976605
  0
LINE
  8
_0-0_
  6
CONTINUOUS
 62
    7
 10
551.92773100170348
 20
100.30148113334747
 11
553.12381263247073
 21
104.76531854936968
  0
LINE
  8
_0-0_
  6
CONTINUOUS
 62
    7
 10
553.12381263247073
 20
104.76531854936968
 11
553.12381263247073
 21
111.33693955863612
  0
LINE
  8
_0-1_
  6
CENTER1
 62
  152
 10
556.20195798706038
 20
105.33693955863566
 11
571.82587558370608
 21
105.33693955863566
  0
LINE
  8
_0-1_
  6
CENTER1
 62
  152
 10
542.20195798706231
 20
91.336939558636118
 11
630.82587558370608
 21
91.336939558636118
  0
LINE
  8
_0-1_
  6
CENTER1
 62
  152
 10
647.70917295059473
 20
87.836939558636118
 11
661.07989462772196
 21
87.836939558636118
  0
LINE
  8
_0-0_
  6
CONTINUOUS
 62
   56
 10
657.12381263246891
 20
86.393563851963449
 11
657.12381263246891
 21
89.280315265308786
  0
LINE
  8
_0-0_
  6
CONTINUOUS
 62
   56
 10
657.12381263246891
 20
89.280315265308786
 11
654.62381263246891
 21
90.723690971981455
  0
LINE
  8
_0-0_
  6
CONTINUOUS
 62
   56
 10
654.62381263246891
 20
90.723690971981455
 11
652.12381263246891
 21
89.280315265308786
  0
LINE
  8
_0-0_
  6
CONTINUOUS
 62
   56
 10
652.12381263246891
 20
89.280315265308786
 11
652.12381263246891
 21
86.393563851963449
  0
LINE
  8
_0-0_
  6
CONTINUOUS
 62
   56
 10
652.12381263246891
 20
86.393563851963449
 11
654.62381263246891
 21
84.950188145290781
  0
LINE
  8
_0-0_
  6
CONTINUOUS
 62
   56
 10
654.62381263246891
 20
84.950188145290781
 11
657.12381263246891
 21
86.393563851963449
  0
LINE
  8
_0-1_
  6
CENTER1
 62
  152
 10
654.62381263246891
 20
92.988666478180789
 11
654.62381263246891
 21
18.336939558636118
  0
LINE
  8
_0-0_
  6
CONTINUOUS
 62
   56
 10
654.62381263246891
 20
24.950188145290781
 11
652.12381263246891
 21
26.393563851963449
  0
LINE
  8
_0-0_
  6
CONTINUOUS
 62
   56
 10
652.12381263246891
 20
26.393563851963449
 11
652.12381263246891
 21
29.280315265308786
  0
LINE
  8
_0-0_
  6
CONTINUOUS
 62
   56
 10
652.12381263246891
 20
29.280315265308786
 11
654.62381263246891
 21
30.723690971981455
  0
LINE
  8
_0-0_
  6
CONTINUOUS
 62
   56
 10
654.62381263246891
 20
30.723690971981455
 11
657.12381263246891
 21
29.280315265308786
  0
LINE
  8
_0-0_
  6
CONTINUOUS
 62
   56
 10
657.12381263246891
 20
29.280315265308786
 11
657.12381263246891
 21
26.393563851963449
  0
LINE
  8
_0-0_
  6
CONTINUOUS
 62
   56
 10
657.12381263246891
 20
26.393563851963449
 11
654.62381263246891
 21
24.950188145290781
  0
LINE
  8
_0-1_
  6
CENTER1
 62
  152
 10
661.07989462772196
 20
27.836939558636118
 11
647.70917295059473
 21
27.836939558636118
  0
LINE
  8
_0-0_
  6
CONTINUOUS
 62
    7
 10
664.62381263246891
 20
22.836939558635208
 11
664.62381263246891
 21
107.83693955863612
  0
LINE
  8
_0-1_
  6
CENTER1
 62
  152
 10
661.07989462772196
 20
67.836939558635208
 11
647.70917295059473
 21
67.836939558635208
  0
LINE
  8
_0-0_
  6
CONTINUOUS
 62
    7
 10
566.62381263246891
 20
232.90238599596535
 11
565.02381263246855
 21
234.40238599596535
  0
ARC
  8
_0-0_
  6
CONTINUOUS
 62
    7
 10
564.12381263246891
 20
32.336939558636118
 40
6.25
 50
62.627775190797053
 51
41.057771634459925
  0
ARC
  8
_0-0_
  6
CONTINUOUS
 62
    7
 10
609.12381263246891
 20
32.336939558636118
 40
6.25
 50
138.94222836554621
 51
117.37222480918393
  0
ARC
  8
_0-0_
  6
CONTINUOUS
 62
    7
 10
609.12381263246891
 20
105.33693955863566
 40
6.25
 50
242.62777519081359
 51
221.05777163444938
  0
ARC
  8
_0-0_
  6
CONTINUOUS
 62
    7
 10
564.12381263246891
 20
105.33693955863566
 40
6.25
 50
318.94222836554957
 51
297.37222480919337
  0
CIRCLE
  8
_0-0_
  6
CONTINUOUS
 62
    7
 10
609.12381263246891
 20
32.336939558636118
 40
3.4600000381469727
  0
CIRCLE
  8
_0-0_
  6
CONTINUOUS
 62
    7
 10
609.12381263246891
 20
32.336939558636118
 40
4
  0
CIRCLE
  8
_0-0_
  6
CONTINUOUS
 62
    7
 10
564.12381263246891
 20
32.336939558636118
 40
3.4600000381469727
  0
CIRCLE
  8
_0-0_
  6
CONTINUOUS
 62
    7
 10
564.12381263246891
 20
32.336939558636118
 40
4
  0
CIRCLE
  8
_0-0_
  6
CONTINUOUS
 62
    7
 10
564.12381263246891
 20
105.33693955863566
 40
3.4600000381469727
  0
CIRCLE
  8
_0-0_
  6
CONTINUOUS
 62
    7
 10
564.12381263246891
 20
105.33693955863566
 40
4
  0
CIRCLE
  8
_0-0_
  6
CONTINUOUS
 62
    7
 10
609.12381263246891
 20
105.33693955863566
 40
3.4600000381469727
  0
CIRCLE
  8
_0-0_
  6
CONTINUOUS
 62
    7
 10
609.12381263246891
 20
105.33693955863566
 40
4
  0
ARC
  8
_0-0_
  6
CONTINUOUS
 62
    7
 10
667.62381263246891
 20
22.836939558635208
 40
3.0000000000000009
 50
180.00000000000006
 51
270
  0
ARC
  8
_0-0_
  6
CONTINUOUS
 62
    7
 10
635.38117194535073
 20
143.83693955863623
 40
3.0000000000000009
 50
44.999999999999964
 51
89.999999999999957
  0
ARC
  8
_0-0_
  6
CONTINUOUS
 62
    7
 10
540.62381263246903
 20
149.83693955863623
 40
3.0000000000000009
 50
180.00000000000006
 51
270
  0
ARC
  8
_0-0_
  6
CONTINUOUS
 62
    7
 10
534.41151050060512
 20
76.332016983386552
 40
29.999999999999993
 50
15.475764836960417
 51
54.072447628067415
  0
ARC
  8
_0-0_
  6
CONTINUOUS
 62
    7
 10
534.41151050060512
 20
61.841862133886139
 40
30
 50
305.92755237169615
 51
344.52423516303963
  0
ARC
  8
_0-0_
  6
CONTINUOUS
 62
    7
 10
638.83611476433464
 20
61.84186213344276
 40
30
 50
195.47576483696042
 51
234.07244762806744
  0
ARC
  8
_0-0_
  6
CONTINUOUS
 62
    7
 10
521.90381097601971
 20
72.537300861144217
 40
40
 50
17.15699573999882
 51
40.246450533429623
  0
ARC
  8
_0-0_
  6
CONTINUOUS
 62
    7
 10
521.90381097601971
 20
65.636578256129837
 40
40
 50
319.75354946656932
 51
342.84300425999896
  0
ARC
  8
_0-0_
  6
CONTINUOUS
 62
    7
 10
651.34381428892004
 20
72.037300861587596
 40
40
 50
139.75354946657041
 51
162.84300426000121
  0
ARC
  8
_0-0_
  6
CONTINUOUS
 62
    7
 10
651.34381428892004
 20
65.636578255686459
 40
40
 50
197.15699574000107
 51
220.24645053343068
  0
ARC
  8
_0-0_
  6
CONTINUOUS
 62
    7
 10
569.62381263246982
 20
39.336939558636118
 40
3
 50
180
 51
270
  0
ARC
  8
_0-0_
  6
CONTINUOUS
 62
    7
 10
603.62381263247073
 20
39.336939558636118
 40
3
 50
270
 51
0
  0
ARC
  8
_0-0_
  6
CONTINUOUS
 62
    7
 10
603.62381263246982
 20
98.336939558636118
 40
3
 50
0.0000000000000162
 51
90
  0
ARC
  8
_0-0_
  6
CONTINUOUS
 62
    7
 10
607.09256263432064
 20
68.836939558636118
 40
11.031249998148837
 50
309.59775269742653
 51
50.40224729547554
  0
ARC
  8
_0-0_
  6
CONTINUOUS
 62
    7
 10
555.1967671324702
 20
61.187952558635629
 40
5
 50
9.7995955382492212
 51
33.353117000000466
  0
ARC
  8
_0-0_
  6
CONTINUOUS
 62
    7
 10
555.1967671324702
 20
76.485926558635697
 40
5
 50
326.6468829999996
 51
350.20040446175062
  0
ARC
  8
_0-0_
  6
CONTINUOUS
 62
    7
 10
550.17226013247023
 20
69.82009805863629
 40
10
 50
5.642204321407867
 51
23.059333999999957
  0
ARC
  8
_0-0_
  6
CONTINUOUS
 62
    7
 10
550.17226013247023
 20
67.853781058635946
 40
10
 50
336.94066600000002
 51
354.35779567859214
  0
ARC
  8
_0-0_
  6
CONTINUOUS
 62
    7
 10
563.59857463246965
 20
69.546954558635775
 40
10
 50
155.22862400000031
 51
184.07151099999996
  0
ARC
  8
_0-0_
  6
CONTINUOUS
 62
    7
 10
552.87381263246891
 20
76.336939558636118
 40
0.75
 50
90
 51
180
  0
ARC
  8
_0-0_
  6
CONTINUOUS
 62
    7
 10
558.60217613246925
 20
76.622293558635761
 40
5
 50
174.66785500000017
 51
215.24478000000033
  0
ARC
  8
_0-0_
  6
CONTINUOUS
 62
    7
 10
563.59857463246965
 20
68.126924558635551
 40
10
 50
175.92848900000041
 51
204.77137600000009
  0
ARC
  8
_0-0_
  6
CONTINUOUS
 62
    7
 10
558.60217613246925
 20
61.051585558635566
 40
5
 50
144.75522000000004
 51
185.33214500000022
  0
ARC
  8
_0-0_
  6
CONTINUOUS
 62
    7
 10
552.87381263246891
 20
61.336939558636118
 40
0.75
 50
180
 51
270
  0
ARC
  8
_0-0_
  6
CONTINUOUS
 62
    7
 10
615.12381263246891
 20
26.336939558636118
 40
5
 50
270
 51
0
  0
ARC
  8
_0-0_
  6
CONTINUOUS
 62
    7
 10
615.12381263246891
 20
111.33693955863612
 40
5
 50
0.0000000000000035
 51
90
  0
ARC
  8
_0-0_
  6
CONTINUOUS
 62
    7
 10
619.38804261065809
 20
99.283843043585989
 40
2
 50
315.43345622852212
 51
15.000000000000938
  0
ARC
  8
_0-0_
  6
CONTINUOUS
 62
    7
 10
558.12381263246891
 20
26.336939558636118
 40
5
 50
180
 51
270
  0
ARC
  8
_0-0_
  6
CONTINUOUS
 62
    7
 10
553.85958265428064
 20
38.390036073687156
 40
2
 50
135.4334562285222
 51
195.00000000000091
  0
ARC
  8
_0-0_
  6
CONTINUOUS
 62
    7
 10
558.12381263246891
 20
111.33693955863612
 40
4.9999999999999991
 50
90
 51
180
  0
ARC
  8
_0-0_
  6
CONTINUOUS
 62
    7
 10
619.38804261065809
 20
38.390036073687156
 40
2
 50
344.99999999999898
 51
44.566543771477797
  0
ARC
  8
_0-0_
  6
CONTINUOUS
 62
    7
 10
638.83611476433464
 20
75.832016983829931
 40
30
 50
125.92755237193258
 51
164.52423516385568
  0
ARC
  8
_0-0_
  6
CONTINUOUS
 62
    7
 10
569.62381263246891
 20
98.336939558636118
 40
3
 50
90
 51
180
  0
ARC
  8
_0-0_
  6
CONTINUOUS
 62
    7
 10
553.85958265428155
 20
99.78384304314261
 40
1.9999999999999998
 50
164.99999999999903
 51
224.5665437714778
  0
ARC
  8
_0-0_
  6
CONTINUOUS
 62
    7
 10
549.85426001076962
 20
68.836939558636118
 40
4.2499999999999991
 50
114.02681136477297
 51
245.97318863522696
  0
CIRCLE
  8
_0-0_
  6
CONTINUOUS
 62
    7
 10
550.12381263246903
 20
91.336939558636118
 40
4.2500000000000009
  0
CIRCLE
  8
_0-0_
  6
CONTINUOUS
 62
    7
 10
623.12381263246891
 20
91.336939558636118
 40
4.2500000000000009
  0
CIRCLE
  8
_0-0_
  6
CONTINUOUS
 62
    7
 10
623.12381263246891
 20
46.336939558636118
 40
4.2500000000000009
  0
CIRCLE
  8
_0-0_
  6
CONTINUOUS
 62
    7
 10
550.12381263246903
 20
46.336939558636118
 40
4.2500000000000009
  0
CIRCLE
  8
_0-0_
  6
CONTINUOUS
 62
    7
 10
623.39336525417013
 20
68.836939558636118
 40
4.2499999999999991
  0
ARC
  8
_0-0_
  6
CONTINUOUS
 62
    7
 10
537.62381263246903
 20
137.01429300328914
 40
3.0000000000000009
 50
180.00000000000006
 51
186.76652709232033
  0
ARC
  8
_0-0_
  6
CONTINUOUS
 62
    7
 10
671.62381263246891
 20
22.836939558635208
 40
3.0000000000000009
 50
270
 51
0
  0
ARC
  8
_0-0_
  6
CONTINUOUS
 62
    7
 10
540.62381263246903
 20
153.83693955863623
 40
3.0000000000000009
 50
90.000000000000028
 51
180.00000000000003
  0
ARC
  8
_0-0_
  6
CONTINUOUS
 62
    7
 10
540.62381263246903
 20
38.07958024575521
 40
3.0000000000000009
 50
180.00000000000006
 51
225.00000000000006
  0
ARC
  8
_0-0_
  6
CONTINUOUS
 62
    7
 10
555.86645331958891
 20
22.836939558635208
 40
3.0000000000000009
 50
225.00000000000023
 51
270
  0
CIRCLE
  8
_0-0_
  6
CONTINUOUS
 62
    7
 10
585.62381263246891
 20
136.83693955863578
 40
3.2500000000000004
  0
CIRCLE
  8
_0-0_
  6
CONTINUOUS
 62
    7
 10
654.62381263246891
 20
67.836939558635208
 40
3.2500000000000004
  0
ARC
  8
_0-0_
  6
CONTINUOUS
 62
    7
 10
404.82299403246907
 20
105.33693955863566
 40
4
 50
245.97555071439754
 51
216.27561782572616
  0
ARC
  8
_0-0_
  6
CONTINUOUS
 62
    7
 10
404.82299403246907
 20
105.33693955863566
 40
6.25
 50
279.05167849862158
 51
183.19949004150453
  0
ARC
  8
_0-0_
  6
CONTINUOUS
 62
    7
 10
359.82299403246907
 20
105.33693955863566
 40
4
 50
323.72438217427384
 51
294.02444928559902
  0
ARC
  8
_0-0_
  6
CONTINUOUS
 62
    7
 10
359.82299403246907
 20
105.33693955863566
 40
6.25
 50
356.80050995849547
 51
260.94832150137637
  0
CIRCLE
  8
_0-0_
  6
CONTINUOUS
 62
    7
 10
404.82299403246907
 20
105.33693955863566
 40
3.4600000381469727
  0
CIRCLE
  8
_0-0_
  6
CONTINUOUS
 62
    7
 10
359.82299403246907
 20
105.33693955863566
 40
3.4600000381469727
  0
ARC
  8
_0-0_
  6
CONTINUOUS
 62
    7
 10
428.32299403246907
 20
149.836939558636
 40
3.0000000000000009
 50
270
 51
0
  0
ARC
  8
_0-0_
  6
CONTINUOUS
 62
    7
 10
333.56563471958816
 20
143.836939558636
 40
3.0000000000000009
 50
90.000000000000057
 51
135.00000000000006
  0
ARC
  8
_0-0_
  6
CONTINUOUS
 62
    7
 10
301.32299403246907
 20
22.836939558635208
 40
3.0000000000000009
 50
270
 51
0
  0
ARC
  8
_0-0_
  6
CONTINUOUS
 62
    7
 10
419.09254665416938
 20
68.836939558636118
 40
4.25
 50
219.70834612844322
 51
140.29165387155689
  0
ARC
  8
_0-0_
  6
CONTINUOUS
 62
    7
 10
418.82299403246907
 20
46.336939558636118
 40
4.2500000000000009
 50
298.07248693585296
 51
118.07248693585296
  0
ARC
  8
_0-0_
  6
CONTINUOUS
 62
    7
 10
345.82299403246907
 20
46.336939558636118
 40
4.2500000000000009
 50
45.099127844027301
 51
314.90087215597271
  0
ARC
  8
_0-0_
  6
CONTINUOUS
 62
    7
 10
345.55344141076876
 20
68.836939558636118
 40
4.25
 50
39.70834612844326
 51
320.29165387155678
  0
ARC
  8
_0-0_
  6
CONTINUOUS
 62
    7
 10
345.82299403246907
 20
91.336939558636118
 40
4.2500000000000009
 50
45.099127844027414
 51
314.90087215597259
  0
ARC
  8
_0-0_
  6
CONTINUOUS
 62
    7
 10
418.82299403246907
 20
91.336939558636118
 40
4.2500000000000009
 50
225.09912784402729
 51
134.90087215597271
  0
ARC
  8
_0-0_
  6
CONTINUOUS
 62
    7
 10
382.32299403246907
 20
105.60649218033643
 40
4.25
 50
62.183052208199804
 51
117.8169477918002
  0
ARC
  8
_0-0_
  6
CONTINUOUS
 62
    7
 10
382.32299403246907
 20
68.836939558635663
 40
21
 50
347.67230522904612
 51
192.3276947709534
  0
ARC
  8
_0-0_
  6
CONTINUOUS
 62
    7
 10
382.32299403246907
 20
68.836939558635663
 40
12
 50
38.682187453489483
 51
141.31781254651054
  0
ARC
  8
_0-0_
  6
CONTINUOUS
 62
    7
 10
382.32299403246907
 20
77.426891812164399
 40
32
 50
326.11752481942341
 51
213.88247518057665
  0
ARC
  8
_0-0_
  6
CONTINUOUS
 62
    7
 10
382.32299403246907
 20
76.767363114736895
 40
29
 50
323.91560358208682
 51
216.08439641791327
  0
ARC
  8
_0-0_
  6
CONTINUOUS
 62
    7
 10
357.02299403246889
 20
58.96121152580929
 40
2
 50
0
 51
21.279604427172014
  0
ARC
  8
_0-0_
  6
CONTINUOUS
 62
    7
 10
353.82299403246907
 20
59.078186476880205
 40
2
 50
0
 51
14.743562836469456
  0
ARC
  8
_0-0_
  6
CONTINUOUS
 62
    7
 10
410.82299403246907
 20
59.078186476880205
 40
2
 50
165.25643716352923
 51
179.99999999999997
  0
ARC
  8
_0-0_
  6
CONTINUOUS
 62
    7
 10
407.62299403246834
 20
58.96121152580929
 40
2
 50
158.72039557282559
 51
180
  0
ARC
  8
_0-0_
  6
CONTINUOUS
 62
    7
 10
404.82299403246907
 20
32.336939558635663
 40
5.5
 50
316.65824177277773
 51
324.90319877241524
  0
ARC
  8
_0-0_
  6
CONTINUOUS
 62
    7
 10
404.82299403246907
 20
32.336939558635663
 40
5.5
 50
260.58197278004229
 51
313.34175822721875
  0
ARC
  8
_0-0_
  6
CONTINUOUS
 62
    7
 10
359.82299403246907
 20
32.336939558636118
 40
5.5
 50
226.65824177278128
 51
279.41802721995526
  0
ARC
  8
_0-0_
  6
CONTINUOUS
 62
    7
 10
359.82299403246907
 20
32.336939558636118
 40
5.5
 50
215.09680122758473
 51
223.34175822721895
  0
ARC
  8
_0-0_
  6
CONTINUOUS
 62
    7
 10
365.32299403246907
 20
73.336939558635663
 40
3
 50
90
 51
180
  0
ARC
  8
_0-0_
  6
CONTINUOUS
 62
    7
 10
399.32299403246907
 20
73.336939558635663
 40
3
 50
0
 51
90
  0
ARC
  8
_0-0_
  6
CONTINUOUS
 62
    7
 10
361.85424403061825
 20
43.836939558635663
 40
11.031249998148837
 50
129.59775270452442
 51
230.40224730257353
  0
ARC
  8
_0-0_
  6
CONTINUOUS
 62
    7
 10
413.75003953246869
 20
36.187952558635175
 40
5
 50
146.64688299999955
 51
170.20040446175079
  0
ARC
  8
_0-0_
  6
CONTINUOUS
 62
    7
 10
413.75003953246869
 20
51.485926558635242
 40
5
 50
189.79959553824938
 51
213.35311700000037
  0
ARC
  8
_0-0_
  6
CONTINUOUS
 62
    7
 10
418.77454653246878
 20
44.820098058635836
 40
10
 50
156.94066600000005
 51
174.35779567859214
  0
ARC
  8
_0-0_
  6
CONTINUOUS
 62
    7
 10
418.77454653246878
 20
42.853781058635491
 40
10
 50
185.64220432140786
 51
203.05933400000001
  0
ARC
  8
_0-0_
  6
CONTINUOUS
 62
    7
 10
405.34823203246924
 20
44.546954558635321
 40
10
 50
355.92848900000001
 51
24.771375999999677
  0
ARC
  8
_0-0_
  6
CONTINUOUS
 62
    7
 10
416.07299403246907
 20
51.336939558635663
 40
0.75
 50
0
 51
90
  0
ARC
  8
_0-0_
  6
CONTINUOUS
 62
    7
 10
410.34463053246964
 20
51.622293558635306
 40
5
 50
324.75521999999961
 51
5.3321449999998736
  0
ARC
  8
_0-0_
  6
CONTINUOUS
 62
    7
 10
405.34823203246924
 20
43.126924558635096
 40
10
 50
335.22862399999991
 51
4.0715109999995889
  0
ARC
  8
_0-0_
  6
CONTINUOUS
 62
    7
 10
410.34463053246964
 20
36.051585558635111
 40
5
 50
354.66785499999975
 51
35.244780000000013
  0
ARC
  8
_0-0_
  6
CONTINUOUS
 62
    7
 10
416.07299403246907
 20
36.336939558635663
 40
0.75
 50
270
 51
0
  0
ARC
  8
_0-0_
  6
CONTINUOUS
 62
    7
 10
353.82299403246907
 20
26.336939558636118
 40
5
 50
180
 51
270
  0
ARC
  8
_0-0_
  6
CONTINUOUS
 62
    7
 10
353.82299403246907
 20
111.33693955863566
 40
5
 50
90
 51
180
  0
ARC
  8
_0-0_
  6
CONTINUOUS
 62
    7
 10
410.82299403246907
 20
26.336939558635663
 40
5
 50
270
 51
0
  0
ARC
  8
_0-0_
  6
CONTINUOUS
 62
    7
 10
410.82299403246907
 20
111.33693955863566
 40
5
 50
0
 51
90
  0
ARC
  8
_0-0_
  6
CONTINUOUS
 62
    7
 10
399.32299403246907
 20
14.336939558635663
 40
3
 50
270
 51
0
  0
ARC
  8
_0-0_
  6
CONTINUOUS
 62
    7
 10
365.32299403246907
 20
14.336939558635663
 40
3
 50
180
 51
270
  0
ARC
  8
_0-0_
  6
CONTINUOUS
 62
    7
 10
382.32299403246907
 20
68.836939558635663
 40
24
 50
334.15806723683113
 51
205.84193276316762
  0
ARC
  8
_0-0_
  6
CONTINUOUS
 62
    7
 10
431.32299403246907
 20
137.01429300328891
 40
3.0000000000000009
 50
353.2334729076797
 51
0
  0
ARC
  8
_0-0_
  6
CONTINUOUS
 62
    7
 10
297.32299403246907
 20
22.836939558635208
 40
3.0000000000000009
 50
180
 51
270
  0
ARC
  8
_0-0_
  6
CONTINUOUS
 62
    7
 10
428.32299403246907
 20
153.836939558636
 40
3.0000000000000009
 50
0
 51
90
  0
ARC
  8
_0-0_
  6
CONTINUOUS
 62
    7
 10
428.32299403246907
 20
38.07958024575521
 40
3.0000000000000009
 50
315
 51
0
  0
CIRCLE
  8
_0-0_
  6
CONTINUOUS
 62
    7
 10
383.32299403246907
 20
136.83693955863555
 40
3.2500000000000004
  0
CIRCLE
  8
_0-0_
  6
CONTINUOUS
 62
    7
 10
314.32299403246907
 20
67.836939558635208
 40
3.2500000000000009
  0
ARC
  8
_0-0_
  6
CONTINUOUS
 62
    7
 10
413.08035334534998
 20
22.836939558635208
 40
3.0000000000000009
 50
270
 51
314.99999999999977
  0
TEXT
  8
_0-0_
 62
    7
 10
365.14484160454549
 20
168.1319366123642
 40
10
 41
1
 50
0
  1
L
  0
TEXT
  8
_0-0_
 62
    7
 10
614.67231413201807
 20
165.35940913983674
 40
10
 41
1
 50
0
  1
R
  0
TEXT
  8
_0-f_
 62
    7
 10
0.4789004992366017
 20
0.6861385696795991
 40
4.2999999999999998
 41
0.744186046511628
 50
0
  1
ASFKB_M16
  0
ARC
  8
_0-0_
  6
CONTINUOUS
 62
    7
 10
75.980237423180938
 20
253.9023859959654
 40
32.499999999999986
 50
87.698542921362574
 51
358.81215746833811
  0
ARC
  8
_0-0_
  6
CONTINUOUS
 62
    7
 10
75.980237423180938
 20
253.9023859959654
 40
15
 50
122.51361463000015
 51
280.14554443389676
  0
ARC
  8
_0-0_
  6
CONTINUOUS
 62
    7
 10
72.756845857874055
 20
282.44009624395147
 40
6
 50
344.13883118963372
 51
80.536854608056856
  0
ARC
  8
_0-0_
  6
CONTINUOUS
 62
    7
 10
54.480237425077235
 20
287.63293594821988
 40
24.999999999999943
 50
302.51361463000001
 51
344.13883118963389
  0
ARC
  8
_0-0_
  6
CONTINUOUS
 62
    7
 10
73.480237423180938
 20
295.4023859959654
 40
6
 50
90
 51
180
  0
ARC
  8
_0-0_
  6
CONTINUOUS
 62
    7
 10
67.480237423180938
 20
301.4023859959654
 40
63.254533465779254
 50
280.14554443389653
 51
350.90386635813945
  0
ARC
  8
_0-0_
  6
CONTINUOUS
 62
    7
 10
125.98023742318105
 20
303.40238599586536
 40
1.9999999998999982
 50
270
 51
0
  0
ARC
  8
_0-0_
  6
CONTINUOUS
 62
    7
 10
75.980237423180938
 20
303.40238599586536
 40
1.9999999998999982
 50
180
 51
270
  0
CIRCLE
  8
_0-0_
  6
CONTINUOUS
 62
    7
 10
75.980237423180938
 20
253.9023859959654
 40
8.5
  0
ARC
  8
_0-0_
  6
CONTINUOUS
 62
    7
 10
55.527463581442703
 20
315.53924663577908
 40
3
 50
183.00000000000011
 51
262.23265101441376
  0
ARC
  8
_0-0_
  6
CONTINUOUS
 62
    7
 10
52.50712748582157
 20
325.4023859959654
 40
0.5
 50
89.999999999999972
 51
183.00000000000006
  0
ARC
  8
_0-0_
  6
CONTINUOUS
 62
    7
 10
186.03415291372107
 20
307.90238999596585
 40
2
 50
270
 51
356.99999999999989
  0
ARC
  8
_0-0_
  6
CONTINUOUS
 62
    7
 10
131.82713112332544
 20
332.90238999596585
 40
3
 50
89.999999999999972
 51
177.00000000000028
  0
ARC
  8
_0-0_
  6
CONTINUOUS
 62
    7
 10
162.13334372303666
 20
332.90238999596585
 40
3
 50
2.9999999999996856
 51
90
  0
ARC
  8
_0-0_
  6
CONTINUOUS
 62
    7
 10
127.50719485400418
 20
326.9023859959654
 40
1
 50
270
 51
357.00000000000006
  0
ARC
  8
_0-0_
  6
CONTINUOUS
 62
    7
 10
166.45327999235701
 20
326.9023859959654
 40
1
 50
183
 51
270
  0
ARC
  8
_0-0_
  6
CONTINUOUS
 62
    7
 10
188.48023742318105
 20
325.4023859959654
 40
0.5
 50
0
 51
90
  0
ARC
  8
_0-0_
  6
CONTINUOUS
 62
    7
 10
75.980237423180938
 20
253.9023859959654
 40
26.499999999999986
 50
84.846905317308256
 51
347.84722568943033
  0
ARC
  8
_0-0_
  6
CONTINUOUS
 62
    7
 10
75.980237423180938
 20
253.9023859959654
 40
24.999999999999986
 50
85.643716984156185
 51
344.41035184164332
  0
ARC
  8
_0-0_
  6
CONTINUOUS
 62
    7
 10
75.980237423180938
 20
253.9023859959654
 40
20.999999999999986
 50
89.956682792545706
 51
332.72158301459029
  0
ARC
  8
_0-0_
  6
CONTINUOUS
 62
    7
 10
406.82299403246907
 20
278.36648761110354
 40
2
 50
0
 51
29.999999999999915
  0
ARC
  8
_0-0_
  6
CONTINUOUS
 62
    7
 10
403.62299403246925
 20
278.36648761110354
 40
2
 50
0
 51
30.000000000001442
  0
ARC
  8
_0-0_
  6
CONTINUOUS
 62
    7
 10
405.62299403246925
 20
282.90238599596586
 40
2
 50
180
 51
210.00000000000082
  0
ARC
  8
_0-0_
  6
CONTINUOUS
 62
    7
 10
407.62299403246925
 20
284.98084696504856
 40
2
 50
180
 51
209.99999999999986
  0
ARC
  8
_0-0_
  6
CONTINUOUS
 62
    7
 10
359.02299403246889
 20
282.90238599596586
 40
2
 50
329.99999999999994
 51
0
  0
ARC
  8
_0-0_
  6
CONTINUOUS
 62
    7
 10
361.02299403246889
 20
278.36648761110354
 40
2
 50
150.00000000000009
 51
180
  0
ARC
  8
_0-0_
  6
CONTINUOUS
 62
    7
 10
357.82299403246907
 20
278.36648761110354
 40
2
 50
149.99999999999977
 51
180
  0
ARC
  8
_0-0_
  6
CONTINUOUS
 62
    7
 10
361.02299403246889
 20
284.84503137186192
 40
2
 50
103.69273104115079
 51
180
  0
ARC
  8
_0-0_
  6
CONTINUOUS
 62
    7
 10
382.32299403246907
 20
197.42071933495907
 40
91.981666661191412
 50
75.326452380014757
 51
103.69273104114845
  0
ARC
  8
_0-0_
  6
CONTINUOUS
 62
    7
 10
405.82299403246907
 20
251.07720928655743
 40
10
 50
323.16371269154922
 51
0.0000000000000318
  0
ARC
  8
_0-0_
  6
CONTINUOUS
 62
    7
 10
409.82299403246907
 20
295.40238599596586
 40
6
 50
0
 51
90
  0
ARC
  8
_0-0_
  6
CONTINUOUS
 62
    7
 10
354.82299403246907
 20
295.40238599596586
 40
6
 50
90
 51
180
  0
ARC
  8
_0-0_
  6
CONTINUOUS
 62
    7
 10
407.32299403246907
 20
303.40238599586581
 40
1.9999999998999982
 50
270
 51
0
  0
ARC
  8
_0-0_
  6
CONTINUOUS
 62
    7
 10
357.32299403246907
 20
303.40238599586581
 40
1.9999999998999982
 50
180
 51
270
  0
ARC
  8
_0-0_
  6
CONTINUOUS
 62
    7
 10
348.57299403246907
 20
261.40238599596586
 40
0.75
 50
90
 51
180
  0
ARC
  8
_0-0_
  6
CONTINUOUS
 62
    7
 10
354.3013575324685
 20
261.68773999596641
 40
5
 50
174.66785499999978
 51
215.24477999999988
  0
ARC
  8
_0-0_
  6
CONTINUOUS
 62
    7
 10
359.2977560324689
 20
254.61240099596642
 40
10
 50
155.22862399999991
 51
184.07151099999959
  0
ARC
  8
_0-0_
  6
CONTINUOUS
 62
    7
 10
354.3013575324685
 20
246.11703199596622
 40
5
 50
144.75521999999964
 51
185.33214499999974
  0
ARC
  8
_0-0_
  6
CONTINUOUS
 62
    7
 10
348.57299403246907
 20
246.40238599596586
 40
0.75
 50
180
 51
270
  0
ARC
  8
_0-0_
  6
CONTINUOUS
 62
    7
 10
359.2977560324689
 20
253.1923709959662
 40
10
 50
175.92848900000004
 51
204.77137599999966
  0
ARC
  8
_0-0_
  6
CONTINUOUS
 62
    7
 10
345.87144153246936
 20
254.88554449596603
 40
10
 50
5.6422043214078608
 51
23.059334000000003
  0
ARC
  8
_0-0_
  6
CONTINUOUS
 62
    7
 10
345.87144153246936
 20
252.91922749596569
 40
10
 50
336.94066600000002
 51
354.35779567859214
  0
ARC
  8
_0-0_
  6
CONTINUOUS
 62
    7
 10
350.89594853246945
 20
246.25339899596628
 40
5
 50
9.7995955382493722
 51
33.353117000000431
  0
ARC
  8
_0-0_
  6
CONTINUOUS
 62
    7
 10
350.89594853246945
 20
261.55137299596635
 40
5
 50
326.64688299999955
 51
350.20040446175079
  0
ARC
  8
_0-0_
  6
CONTINUOUS
 62
    7
 10
402.79174403431989
 20
253.90238599596586
 40
11.031249998148837
 50
309.59775270452445
 51
50.402247302573535
  0
ARC
  8
_0-0_
  6
CONTINUOUS
 62
    7
 10
365.32299403246907
 20
224.40238599596586
 40
3
 50
180
 51
270
  0
ARC
  8
_0-0_
  6
CONTINUOUS
 62
    7
 10
399.32299403246907
 20
224.40238599596586
 40
3
 50
270
 51
0
  0
ARC
  8
_0-0_
  6
CONTINUOUS
 62
    7
 10
399.32299403246907
 20
283.40238599596586
 40
3
 50
0
 51
90
  0
ARC
  8
_0-0_
  6
CONTINUOUS
 62
    7
 10
365.32299403246907
 20
283.40238599596586
 40
3
 50
90
 51
180
  0
ARC
  8
_0-0_
  6
CONTINUOUS
 62
    7
 10
430.82299403246907
 20
325.4023859959654
 40
0.5
 50
0
 51
90
  0
ARC
  8
_0-0_
  6
CONTINUOUS
 62
    7
 10
429.32299403246907
 20
307.90238999596585
 40
2
 50
270
 51
0
  0
ARC
  8
_0-0_
  6
CONTINUOUS
 62
    7
 10
261.80172871907962
 20
325.4023859959654
 40
0.5
 50
89.999999999999972
 51
182.9999999999998
  0
ARC
  8
_0-0_
  6
CONTINUOUS
 62
    7
 10
292.84995146329311
 20
334.90238999596585
 40
1
 50
3.0000000000000546
 51
90
  0
ARC
  8
_0-0_
  6
CONTINUOUS
 62
    7
 10
264.22092316589897
 20
307.90238999596494
 40
2
 50
182.99999999999991
 51
270
  0
ARC
  8
_0-0_
  6
CONTINUOUS
 62
    7
 10
265.16988773261346
 20
332.90238999596585
 40
3.0000000000000009
 50
89.999999999999972
 51
177.00000000000009
  0
ARC
  8
_0-0_
  6
CONTINUOUS
 62
    7
 10
913.41934308349516
 20
315.53924663577908
 40
3
 50
277.76734898558624
 51
356.99999999999989
  0
ARC
  8
_0-0_
  6
CONTINUOUS
 62
    7
 10
916.4396791791163
 20
325.4023859959654
 40
0.5
 50
356.99999999999994
 51
90.000000000000043
  0
ARC
  8
_0-0_
  6
CONTINUOUS
 62
    7
 10
782.91265375121691
 20
307.90238999596585
 40
2
 50
183.00000000000011
 51
270
  0
ARC
  8
_0-0_
  6
CONTINUOUS
 62
    7
 10
837.11967554161254
 20
332.90238999596585
 40
3
 50
2.9999999999997122
 51
90.000000000000028
  0
ARC
  8
_0-0_
  6
CONTINUOUS
 62
    7
 10
806.81346294190132
 20
332.90238999596585
 40
3
 50
90
 51
177.00000000000031
  0
ARC
  8
_0-0_
  6
CONTINUOUS
 62
    7
 10
841.4396118109338
 20
326.9023859959654
 40
1
 50
182.99999999999994
 51
270
  0
ARC
  8
_0-0_
  6
CONTINUOUS
 62
    7
 10
802.49352667258097
 20
326.9023859959654
 40
1
 50
269.99999999999994
 51
357
  0
ARC
  8
_0-0_
  6
CONTINUOUS
 62
    7
 10
780.46656924175693
 20
325.4023859959654
 40
0.5
 50
90
 51
180
  0
ARC
  8
_0-0_
  6
CONTINUOUS
 62
    7
 10
538.12381263246891
 20
325.4023859959654
 40
0.5
 50
90
 51
180
  0
ARC
  8
_0-0_
  6
CONTINUOUS
 62
    7
 10
539.62381263246891
 20
307.90238999596585
 40
2
 50
180
 51
270
  0
ARC
  8
_0-0_
  6
CONTINUOUS
 62
    7
 10
707.14507794585836
 20
325.4023859959654
 40
0.5
 50
357.00000000000017
 51
89.999999999999957
  0
ARC
  8
_0-0_
  6
CONTINUOUS
 62
    7
 10
676.09685520164487
 20
334.90238999596585
 40
1
 50
90
 51
176.99999999999994
  0
ARC
  8
_0-0_
  6
CONTINUOUS
 62
    7
 10
704.72588349903901
 20
307.90238999596494
 40
2
 50
270
 51
357.00000000000006
  0
ARC
  8
_0-0_
  6
CONTINUOUS
 62
    7
 10
703.77691893232452
 20
332.90238999596585
 40
3.0000000000000009
 50
2.9999999999999152
 51
90.000000000000028
  0
ARC
  8
_0-1_
  6
DASHED2
 62
  152
 10
175.53627922016381
 20
313.4023859959654
 40
2
 50
3.0000000000005773
 51
90
  0
ARC
  8
_0-1_
  6
DASHED2
 62
  152
 10
53.953965955725494
 20
316.9023859959654
 40
1.5
 50
183.00000000000003
 51
270
  0
ARC
  8
_0-1_
  6
DASHED2
 62
  152
 10
179.83001118058087
 20
307.90238999596585
 40
2
 50
183.00000000000003
 51
270
  0
ARC
  8
_0-1_
  6
DASHED2
 62
  152
 10
429.32299403246907
 20
317.4023859959654
 40
2
 50
270
 51
0
  0
ARC
  8
_0-1_
  6
DASHED2
 62
  152
 10
308.65064851203533
 20
313.4023859959654
 40
2
 50
90
 51
176.99999999999937
  0
ARC
  8
_0-1_
  6
DASHED2
 62
  152
 10
793.41052744477417
 20
313.4023859959654
 40
2
 50
90
 51
176.99999999999943
  0
ARC
  8
_0-1_
  6
DASHED2
 62
  152
 10
914.99284070921237
 20
316.9023859959654
 40
1.5
 50
270
 51
357
  0
ARC
  8
_0-1_
  6
DASHED2
 62
  152
 10
789.11679548435711
 20
307.90238999596585
 40
2
 50
270
 51
357
  0
ARC
  8
_0-1_
  6
DASHED2
 62
  152
 10
539.62381263246891
 20
317.4023859959654
 40
2
 50
180
 51
270
  0
ARC
  8
_0-1_
  6
DASHED2
 62
  152
 10
660.29615815290265
 20
313.4023859959654
 40
2
 50
3.0000000000006275
 51
90
  0
ARC
  8
_0-0_
  6
CONTINUOUS
 62
    7
 10
128.48023742318105
 20
295.4023859959654
 40
6
 50
0
 51
90
  0
CIRCLE
  8
_0-8_
  6
CONTINUOUS
 62
    7
 10
688.62381263246891
 20
114.83693955863612
 40
23.050000000000001
  0
CIRCLE
  8
_0-8_
  6
CONTINUOUS
 62
    7
 10
688.62381263246891
 20
114.83693955863612
 40
25
  0
CIRCLE
  8
_0-8_
  6
CONTINUOUS
 62
    7
 10
688.62381263246891
 20
114.83693955863612
 40
5
  0
CIRCLE
  8
_0-8_
  6
CONTINUOUS
 62
    7
 10
688.62381263246891
 20
114.83693955863612
 40
10
  0
CIRCLE
  8
_0-8_
  6
CONTINUOUS
 62
    7
 10
280.32299403246907
 20
114.83693955863612
 40
23.050000000000001
  0
CIRCLE
  8
_0-8_
  6
CONTINUOUS
 62
    7
 10
280.32299403246907
 20
114.83693955863612
 40
25
  0
CIRCLE
  8
_0-8_
  6
CONTINUOUS
 62
    7
 10
280.32299403246907
 20
114.83693955863612
 40
5
  0
CIRCLE
  8
_0-8_
  6
CONTINUOUS
 62
    7
 10
280.32299403246907
 20
114.83693955863612
 40
10
  0
CIRCLE
  8
_0-0_
  6
CONTINUOUS
 62
   56
 10
545.62381263246903
 20
136.83693955863578
 40
5
  0
CIRCLE
  8
_0-0_
  6
CONTINUOUS
 62
   56
 10
545.62381263246903
 20
136.83693955863578
 40
6.4400000569999998
  0
CIRCLE
  8
_0-0_
  6
CONTINUOUS
 62
   56
 10
605.62381263246891
 20
136.83693955863578
 40
5
  0
CIRCLE
  8
_0-0_
  6
CONTINUOUS
 62
   56
 10
605.62381263246891
 20
136.83693955863578
 40
6.4400000569999998
  0
CIRCLE
  8
_0-0_
  6
CONTINUOUS
 62
   56
 10
654.62381263246891
 20
87.836939558636118
 40
5
  0
CIRCLE
  8
_0-0_
  6
CONTINUOUS
 62
   56
 10
654.62381263246891
 20
87.836939558636118
 40
6.4400000569999998
  0
CIRCLE
  8
_0-0_
  6
CONTINUOUS
 62
   56
 10
654.62381263246891
 20
27.836939558636118
 40
5
  0
CIRCLE
  8
_0-0_
  6
CONTINUOUS
 62
   56
 10
654.62381263246891
 20
27.836939558636118
 40
6.4400000569999998
  0
CIRCLE
  8
_0-0_
  6
CONTINUOUS
 62
   56
 10
314.32299403246907
 20
27.836939558636118
 40
5
  0
CIRCLE
  8
_0-0_
  6
CONTINUOUS
 62
   56
 10
314.32299403246907
 20
27.836939558636118
 40
6.4400000569999998
  0
CIRCLE
  8
_0-0_
  6
CONTINUOUS
 62
   56
 10
314.32299403246907
 20
87.836939558636118
 40
5
  0
CIRCLE
  8
_0-0_
  6
CONTINUOUS
 62
   56
 10
314.32299403246907
 20
87.836939558636118
 40
6.4400000569999998
  0
CIRCLE
  8
_0-0_
  6
CONTINUOUS
 62
   56
 10
363.32299403246907
 20
136.83693955863555
 40
5
  0
CIRCLE
  8
_0-0_
  6
CONTINUOUS
 62
   56
 10
363.32299403246907
 20
136.83693955863555
 40
6.4400000569999998
  0
CIRCLE
  8
_0-0_
  6
CONTINUOUS
 62
   56
 10
423.32299403246907
 20
136.83693955863555
 40
5
  0
CIRCLE
  8
_0-0_
  6
CONTINUOUS
 62
   56
 10
423.32299403246907
 20
136.83693955863555
 40
6.4400000569999998
  0
ARC
  8
_0-0_
  6
CONTINUOUS
 62
    7
 10
450.28069951096882
 20
268.40238599596489
 40
109.84311312150078
 50
0
 51
19.961951297189081
  0
ARC
  8
_0-0_
  6
CONTINUOUS
 62
    7
 10
472.94779445909739
 20
268.40238599596489
 40
90.376018173817897
 50
0.0000000036577396
 51
24.515105364020599
  0
ARC
  8
_0-0_
  6
CONTINUOUS
 62
    7
 10
700.29983080584145
 20
268.40238599596489
 40
90.376018173817897
 50
155.48489463597943
 51
179.99999999634227
  0
ARC
  8
_0-0_
  6
CONTINUOUS
 62
    7
 10
722.96692575397003
 20
268.40238599596489
 40
109.84311312150078
 50
160.0380487028109
 51
180
  0
ARC
  8
_0-0_
  6
CONTINUOUS
 62
    7
 10
620.37381263246891
 20
261.40238599596535
 40
0.75
 50
0
 51
90
  0
ARC
  8
_0-0_
  6
CONTINUOUS
 62
    7
 10
614.64544913246948
 20
261.6877399959659
 40
5
 50
324.75522000000001
 51
5.3321450000002173
  0
ARC
  8
_0-0_
  6
CONTINUOUS
 62
    7
 10
609.64905063246908
 20
254.61240099596591
 40
10
 50
355.92848900000041
 51
24.771376000000082
  0
ARC
  8
_0-0_
  6
CONTINUOUS
 62
    7
 10
614.64544913246948
 20
246.1170319959657
 40
5
 50
354.66785500000015
 51
35.244780000000354
  0
ARC
  8
_0-0_
  6
CONTINUOUS
 62
    7
 10
620.37381263246891
 20
246.40238599596535
 40
0.75
 50
270
 51
0
  0
ARC
  8
_0-0_
  6
CONTINUOUS
 62
    7
 10
609.64905063246908
 20
253.19237099596569
 40
10
 50
335.22862400000025
 51
4.071510999999945
  0
ARC
  8
_0-0_
  6
CONTINUOUS
 62
    7
 10
623.07536513246953
 20
254.88554449596552
 40
10
 50
156.94066599999999
 51
174.35779567859217
  0
ARC
  8
_0-0_
  6
CONTINUOUS
 62
    7
 10
623.07536513246953
 20
252.91922749596517
 40
10
 50
185.64220432140786
 51
203.05933399999995
  0
ARC
  8
_0-0_
  6
CONTINUOUS
 62
    7
 10
618.05085813246944
 20
246.25339899596577
 40
5
 50
146.6468829999996
 51
170.20040446175059
  0
ARC
  8
_0-0_
  6
CONTINUOUS
 62
    7
 10
618.05085813246944
 20
261.55137299596583
 40
5
 50
189.79959553824918
 51
213.3531170000004
  0
ARC
  8
_0-0_
  6
CONTINUOUS
 62
    7
 10
566.15506263061809
 20
253.90238599596535
 40
11.031249998148837
 50
129.59775269742644
 51
230.40224729547555
  0
ARC
  8
_0-0_
  6
CONTINUOUS
 62
    7
 10
603.62381263246891
 20
224.40238599596535
 40
3
 50
270
 51
0
  0
ARC
  8
_0-0_
  6
CONTINUOUS
 62
    7
 10
569.62381263246891
 20
224.40238599596535
 40
3
 50
180
 51
270
  0
ARC
  8
_0-0_
  6
CONTINUOUS
 62
    7
 10
569.62381263246891
 20
283.40238599596535
 40
3
 50
90
 51
180
  0
ARC
  8
_0-0_
  6
CONTINUOUS
 62
    7
 10
603.62381263246891
 20
283.40238599596535
 40
3
 50
0
 51
90
  0
ARC
  8
_0-0_
  6
CONTINUOUS
 62
    7
 10
867.96656924175693
 20
253.90238599596535
 40
24.999999999999986
 50
143.95770726244544
 51
36.042292737554476
  0
ARC
  8
_0-0_
  6
CONTINUOUS
 62
    7
 10
867.96656924175693
 20
253.90238599596535
 40
20.999999999999986
 50
153.21098365441662
 51
26.789016345583377
  0
ARC
  8
_0-0_
  6
CONTINUOUS
 62
    7
 10
867.96656924175693
 20
253.90238599596535
 40
19.499999999999986
 50
158.28472081587677
 51
21.715279184123233
  0
ARC
  8
_0-0_
  6
CONTINUOUS
 62
    7
 10
908.86656924175747
 20
305.40238599596535
 40
9.9999999999999858
 50
147.76235769712343
 51
164.35842721122052
  0
ARC
  8
_0-0_
  6
CONTINUOUS
 62
    7
 10
908.86656924175747
 20
302.20238599596507
 40
9.9999999999999858
 50
114.04425382037398
 51
163.06640043611344
  0
ARC
  8
_0-0_
  6
CONTINUOUS
 62
    7
 10
867.96656924175693
 20
253.90238599596535
 40
15.499999999999986
 50
195.79434086698456
 51
270
  0
CIRCLE
  8
_0-0_
  6
CONTINUOUS
 62
    7
 10
867.96656924175693
 20
253.90238599596535
 40
8.5
  0
ARC
  8
_0-0_
  6
CONTINUOUS
 62
    7
 10
867.96656924175693
 20
253.90238599596535
 40
15.499999999999986
 50
270
 51
344.20565913301544
  0
ARC
  8
_0-0_
  6
CONTINUOUS
 62
    7
 10
827.06656924175729
 20
302.20238599596507
 40
9.9999999999999858
 50
16.933599563886567
 51
21.715641952300629
  0
ARC
  8
_0-0_
  6
CONTINUOUS
 62
    7
 10
867.96656924175693
 20
253.90238599596535
 40
26.499999999999986
 50
141.56203196710763
 51
38.4379680328924
  0
ARC
  8
_0-0_
  6
CONTINUOUS
 62
    7
 10
867.96656924175693
 20
253.90238599596535
 40
32.499999999999986
 50
134.53670448317044
 51
45.463295516829589
  0
LINE
  8
_0-8_
  6
CONTINUOUS
 62
  152
 10
171.98023742318105
 20
219.70238599596564
 11
121.98023742318105
 21
219.70238599596564
  0
LINE
  8
_0-8_
  6
CONTINUOUS
 62
    7
 10
121.73023742318128
 20
211.90238599596563
 11
121.73023742318128
 21
208.90238599596552
  0
LINE
  8
_0-8_
  6
CONTINUOUS
 62
    7
 10
121.73023742318128
 20
208.90238599596552
 11
172.23023742318082
 21
208.90238599596552
  0
LINE
  8
_0-8_
  6
CONTINUOUS
 62
    7
 10
172.23023742318082
 20
208.90238599596552
 11
172.23023742318082
 21
211.90238599596563
  0
LINE
  8
_0-8_
  6
CONTINUOUS
 62
    7
 10
172.23023742318082
 20
211.90238599596563
 11
121.73023742318128
 21
211.90238599596563
  0
LINE
  8
_0-8_
  6
CONTINUOUS
 62
    7
 10
123.68023742318121
 20
208.90238599596552
 11
123.68023742318121
 21
205.9023859959654
  0
LINE
  8
_0-8_
  6
CONTINUOUS
 62
    7
 10
123.68023742318121
 20
205.9023859959654
 11
170.28023742318146
 21
205.9023859959654
  0
LINE
  8
_0-8_
  6
CONTINUOUS
 62
    7
 10
170.28023742318146
 20
205.9023859959654
 11
170.28023742318146
 21
208.90238599596552
  0
LINE
  8
_0-8_
  6
CONTINUOUS
 62
    7
 10
134.27853150100964
 20
232.9023859959654
 11
159.68194334535247
 21
232.9023859959654
  0
LINE
  8
_0-8_
  6
CONTINUOUS
 62
    7
 10
140.62938446209535
 20
232.9023859959654
 11
140.62938446209535
 21
225.10238599596551
  0
LINE
  8
_0-8_
  6
CONTINUOUS
 62
    7
 10
134.27853150100964
 20
225.10238599596551
 11
134.27853150100964
 21
232.9023859959654
  0
LINE
  8
_0-8_
  6
CONTINUOUS
 62
    7
 10
159.68194334535247
 20
232.9023859959654
 11
159.68194334535247
 21
225.10238599596551
  0
LINE
  8
_0-8_
  6
CONTINUOUS
 62
    7
 10
153.33109038209534
 20
225.10238599596551
 11
153.33109038209534
 21
232.9023859959654
  0
LINE
  8
_0-8_
  6
CONTINUOUS
 62
    7
 10
164.98023742318117
 20
223.10238599596562
 11
164.98023742318117
 21
222.70238599596541
  0
LINE
  8
_0-8_
  6
CONTINUOUS
 62
    7
 10
164.98023742318117
 20
223.10238599596562
 11
128.98023742318094
 21
223.10238599596562
  0
LINE
  8
_0-8_
  6
CONTINUOUS
 62
    7
 10
128.98023742318094
 20
223.10238599596562
 11
128.98023742318094
 21
222.70238599596541
  0
LINE
  8
_0-8_
  6
CONTINUOUS
 62
    7
 10
124.98023742318117
 20
222.70238599596541
 11
168.98023742288592
 21
222.70238599596541
  0
LINE
  8
_0-8_
  6
CONTINUOUS
 62
    7
 10
121.98023742318105
 20
219.70238599596564
 11
121.98023742318105
 21
211.90238599596563
  0
LINE
  8
_0-8_
  6
CONTINUOUS
 62
    7
 10
171.98023742318105
 20
211.90238599596563
 11
171.98023742318105
 21
219.70238599596564
  0
ARC
  8
_0-8_
  6
CONTINUOUS
 62
    7
 10
124.98023742318117
 20
219.70238599596564
 40
2.9999999999999858
 50
89.999999999999829
 51
180.0000000000002
  0
ARC
  8
_0-8_
  6
CONTINUOUS
 62
    7
 10
168.98023742318094
 20
219.70238599596564
 40
2.9999999999999933
 50
359.99999999999977
 51
90.000000000000199
  0
LINE
  8
_0-8_
  6
CONTINUOUS
 62
    7
 10
134.27853150101021
 20
225.10238599596551
 11
134.32677336439417
 21
224.7550896406317
  0
LINE
  8
_0-8_
  6
CONTINUOUS
 62
    7
 10
134.32677336439417
 20
224.7550896406317
 11
134.47003314993879
 21
224.41834570931422
  0
LINE
  8
_0-8_
  6
CONTINUOUS
 62
    7
 10
134.47003314993879
 20
224.41834570931422
 11
134.70395798155312
 21
224.10238599596556
  0
LINE
  8
_0-8_
  6
CONTINUOUS
 62
    7
 10
134.70395798155312
 20
224.10238599596556
 11
135.02144017160026
 21
223.81681077659249
  0
LINE
  8
_0-8_
  6
CONTINUOUS
 62
    7
 10
135.02144017160026
 20
223.81681077659249
 11
135.41283318438946
 21
223.57029710972762
  0
LINE
  8
_0-8_
  6
CONTINUOUS
 62
    7
 10
135.41283318438946
 20
223.57029710972762
 11
135.86624474128143
 21
223.37033518839672
  0
LINE
  8
_0-8_
  6
CONTINUOUS
 62
    7
 10
135.86624474128143
 20
223.37033518839672
 11
136.36789816155749
 21
223.22300075439381
  0
LINE
  8
_0-8_
  6
CONTINUOUS
 62
    7
 10
136.36789816155749
 20
223.22300075439381
 11
136.9025509598913
 21
223.13277048994121
  0
LINE
  8
_0-8_
  6
CONTINUOUS
 62
    7
 10
136.9025509598913
 20
223.13277048994121
 11
137.45395798155278
 21
223.10238599596562
  0
LINE
  8
_0-8_
  6
CONTINUOUS
 62
    7
 10
137.45395798155278
 20
223.10238599596562
 11
138.00536500321425
 21
223.13277048994121
  0
LINE
  8
_0-8_
  6
CONTINUOUS
 62
    7
 10
138.00536500321425
 20
223.13277048994121
 11
138.54001780154806
 21
223.22300075439381
  0
LINE
  8
_0-8_
  6
CONTINUOUS
 62
    7
 10
138.54001780154806
 20
223.22300075439381
 11
139.041671221824
 21
223.37033518839672
  0
LINE
  8
_0-8_
  6
CONTINUOUS
 62
    7
 10
139.041671221824
 20
223.37033518839672
 11
139.4950827787161
 21
223.57029710972762
  0
LINE
  8
_0-8_
  6
CONTINUOUS
 62
    7
 10
139.4950827787161
 20
223.57029710972762
 11
139.88647579150529
 21
223.81681077659249
  0
LINE
  8
_0-8_
  6
CONTINUOUS
 62
    7
 10
139.88647579150529
 20
223.81681077659249
 11
140.20395798155243
 21
224.10238599596556
  0
LINE
  8
_0-8_
  6
CONTINUOUS
 62
    7
 10
140.20395798155243
 20
224.10238599596556
 11
140.43788281316677
 21
224.41834570931422
  0
LINE
  8
_0-8_
  6
CONTINUOUS
 62
    7
 10
140.43788281316677
 20
224.41834570931422
 11
140.58114259871138
 21
224.7550896406317
  0
LINE
  8
_0-8_
  6
CONTINUOUS
 62
    7
 10
140.58114259871138
 20
224.7550896406317
 11
140.62938446209535
 21
225.10238599596551
  0
LINE
  8
_0-8_
  6
CONTINUOUS
 62
    7
 10
140.62938446209535
 20
225.10238599596551
 11
140.62938446209535
 21
225.10238613959433
  0
LINE
  8
_0-8_
  6
CONTINUOUS
 62
    7
 10
140.62938446209535
 20
225.10238613959433
 11
140.7258681096489
 21
224.75508978207847
  0
LINE
  8
_0-8_
  6
CONTINUOUS
 62
    7
 10
140.7258681096489
 20
224.75508978207847
 11
141.01238760389754
 21
224.41834584428113
  0
LINE
  8
_0-8_
  6
CONTINUOUS
 62
    7
 10
141.01238760389754
 20
224.41834584428113
 11
141.4802371949944
 21
224.10238612035175
  0
LINE
  8
_0-8_
  6
CONTINUOUS
 62
    7
 10
141.4802371949944
 20
224.10238612035175
 11
142.11520150985734
 21
223.81681088661855
  0
LINE
  8
_0-8_
  6
CONTINUOUS
 62
    7
 10
142.11520150985734
 20
223.81681088661855
 11
142.89798747908662
 21
223.57029720205048
  0
LINE
  8
_0-8_
  6
CONTINUOUS
 62
    7
 10
142.89798747908662
 20
223.57029720205048
 11
143.80481054711606
 21
223.37033526021116
  0
LINE
  8
_0-8_
  6
CONTINUOUS
 62
    7
 10
143.80481054711606
 20
223.37033526021116
 11
144.8081173538983
 21
223.22300080351772
  0
LINE
  8
_0-8_
  6
CONTINUOUS
 62
    7
 10
144.8081173538983
 20
223.22300080351772
 11
145.87742292980681
 21
223.13277051488211
  0
LINE
  8
_0-8_
  6
CONTINUOUS
 62
    7
 10
145.87742292980681
 20
223.13277051488211
 11
146.98023696601251
 21
223.10238599596562
  0
LINE
  8
_0-8_
  6
CONTINUOUS
 62
    7
 10
146.98023696601251
 20
223.10238599596562
 11
148.08305101607607
 21
223.13277046500031
  0
LINE
  8
_0-8_
  6
CONTINUOUS
 62
    7
 10
148.08305101607607
 20
223.13277046500031
 11
149.15235663313717
 21
223.22300070526984
  0
LINE
  8
_0-8_
  6
CONTINUOUS
 62
    7
 10
149.15235663313717
 20
223.22300070526984
 11
150.15566350711606
 21
223.37033511658234
  0
LINE
  8
_0-8_
  6
CONTINUOUS
 62
    7
 10
150.15566350711606
 20
223.37033511658234
 11
151.06248666634474
 21
223.57029701740481
  0
LINE
  8
_0-8_
  6
CONTINUOUS
 62
    7
 10
151.06248666634474
 20
223.57029701740481
 11
151.84527274800473
 21
223.81681066656643
  0
LINE
  8
_0-8_
  6
CONTINUOUS
 62
    7
 10
151.84527274800473
 20
223.81681066656643
 11
152.48023719311357
 21
224.10238587157937
  0
LINE
  8
_0-8_
  6
CONTINUOUS
 62
    7
 10
152.48023719311357
 20
224.10238587157937
 11
152.94808692831418
 21
224.41834557434726
  0
LINE
  8
_0-8_
  6
CONTINUOUS
 62
    7
 10
152.94808692831418
 20
224.41834557434726
 11
153.23460657614589
 21
224.75508949918486
  0
LINE
  8
_0-8_
  6
CONTINUOUS
 62
    7
 10
153.23460657614589
 20
224.75508949918486
 11
153.33109038209534
 21
225.10238585233668
  0
LINE
  8
_0-8_
  6
CONTINUOUS
 62
    7
 10
153.33109038209534
 20
225.10238585233668
 11
153.33109038209534
 21
225.10238599596551
  0
LINE
  8
_0-8_
  6
CONTINUOUS
 62
    7
 10
153.33109038426676
 20
225.10238613959433
 11
153.37933220805178
 21
224.75508978207847
  0
LINE
  8
_0-8_
  6
CONTINUOUS
 62
    7
 10
153.37933220805178
 20
224.75508978207847
 11
153.5225919552006
 21
224.41834584428113
  0
LINE
  8
_0-8_
  6
CONTINUOUS
 62
    7
 10
153.5225919552006
 20
224.41834584428113
 11
153.75651675078893
 21
224.10238612035175
  0
LINE
  8
_0-8_
  6
CONTINUOUS
 62
    7
 10
153.75651675078893
 20
224.10238612035175
 11
154.07399890827469
 21
223.81681088661855
  0
LINE
  8
_0-8_
  6
CONTINUOUS
 62
    7
 10
154.07399890827469
 20
223.81681088661855
 11
154.46539189295618
 21
223.57029720205048
  0
LINE
  8
_0-8_
  6
CONTINUOUS
 62
    7
 10
154.46539189295618
 20
223.57029720205048
 11
154.91880342704837
 21
223.37033526021116
  0
LINE
  8
_0-8_
  6
CONTINUOUS
 62
    7
 10
154.91880342704837
 20
223.37033526021116
 11
155.42045683052527
 21
223.22300080351772
  0
LINE
  8
_0-8_
  6
CONTINUOUS
 62
    7
 10
155.42045683052527
 20
223.22300080351772
 11
155.95510961857087
 21
223.13277051488211
  0
LINE
  8
_0-8_
  6
CONTINUOUS
 62
    7
 10
155.95510961857087
 20
223.13277051488211
 11
156.50651663676797
 21
223.10238599596562
  0
LINE
  8
_0-8_
  6
CONTINUOUS
 62
    7
 10
156.50651663676797
 20
223.10238599596562
 11
157.05792366189394
 21
223.13277046500031
  0
LINE
  8
_0-8_
  6
CONTINUOUS
 62
    7
 10
157.05792366189394
 20
223.13277046500031
 11
157.59257647051584
 21
223.22300070526984
  0
LINE
  8
_0-8_
  6
CONTINUOUS
 62
    7
 10
157.59257647051584
 20
223.22300070526984
 11
158.09422990759094
 21
223.37033511658234
  0
LINE
  8
_0-8_
  6
CONTINUOUS
 62
    7
 10
158.09422990759094
 20
223.37033511658234
 11
158.54764148728282
 21
223.57029701740481
  0
LINE
  8
_0-8_
  6
CONTINUOUS
 62
    7
 10
158.54764148728282
 20
223.57029701740481
 11
158.9390345281796
 21
223.81681066656643
  0
LINE
  8
_0-8_
  6
CONTINUOUS
 62
    7
 10
158.9390345281796
 20
223.81681066656643
 11
159.25651675078825
 21
224.10238587157937
  0
LINE
  8
_0-8_
  6
CONTINUOUS
 62
    7
 10
159.25651675078825
 20
224.10238587157937
 11
159.49044161842858
 21
224.41834557434726
  0
LINE
  8
_0-8_
  6
CONTINUOUS
 62
    7
 10
159.49044161842858
 20
224.41834557434726
 11
159.63370144236899
 21
224.75508949918486
  0
LINE
  8
_0-8_
  6
CONTINUOUS
 62
    7
 10
159.63370144236899
 20
224.75508949918486
 11
159.6819433453519
 21
225.10238585233668
  0
LINE
  8
_0-8_
  6
CONTINUOUS
 62
    7
 10
159.6819433453519
 20
225.10238585233668
 11
159.6819433453519
 21
225.10238599596551
  0
LINE
  8
_0-8_
  6
CONTINUOUS
 62
    7
 10
133.70118123181987
 20
303.90238999596596
 11
133.70118123181987
 21
299.20238999596569
  0
LINE
  8
_0-8_
  6
CONTINUOUS
 62
    7
 10
137.02094527966017
 20
297.2023899959658
 11
156.93952956670194
 21
297.2023899959658
  0
LINE
  8
_0-8_
  6
CONTINUOUS
 62
    7
 10
153.61976551886164
 20
299.20238999596569
 11
153.61976551886164
 21
303.90238999596596
  0
LINE
  8
_0-8_
  6
CONTINUOUS
 62
    7
 10
156.93952956670194
 20
305.90238999596585
 11
137.02094527966017
 21
305.90238999596585
  0
LINE
  8
_0-8_
  6
CONTINUOUS
 62
    7
 10
140.34070932750046
 20
303.90238999596596
 11
140.34070932750046
 21
299.20238999596569
  0
LINE
  8
_0-8_
  6
CONTINUOUS
 62
    7
 10
160.25929361454223
 20
299.20238999596569
 11
160.25929361454223
 21
303.90238999596596
  0
LINE
  8
_0-8_
  6
CONTINUOUS
 62
    7
 10
133.70118123181987
 20
299.20238999596569
 11
133.75161590717585
 21
298.85509364063188
  0
LINE
  8
_0-8_
  6
CONTINUOUS
 62
    7
 10
133.75161590717585
 20
298.85509364063188
 11
133.90138750115432
 21
298.51834970931435
  0
LINE
  8
_0-8_
  6
CONTINUOUS
 62
    7
 10
133.90138750115432
 20
298.51834970931435
 11
134.14594527966017
 21
298.20238999596575
  0
LINE
  8
_0-8_
  6
CONTINUOUS
 62
    7
 10
134.14594527966017
 20
298.20238999596575
 11
134.47785847834598
 21
297.91681477659267
  0
LINE
  8
_0-8_
  6
CONTINUOUS
 62
    7
 10
134.47785847834598
 20
297.91681477659267
 11
134.88704208262561
 21
297.67030110972786
  0
LINE
  8
_0-8_
  6
CONTINUOUS
 62
    7
 10
134.88704208262561
 20
297.67030110972786
 11
135.36106325573996
 21
297.47033918839691
  0
LINE
  8
_0-8_
  6
CONTINUOUS
 62
    7
 10
135.36106325573996
 20
297.47033918839691
 11
135.8855191042104
 21
297.32300475439399
  0
LINE
  8
_0-8_
  6
CONTINUOUS
 62
    7
 10
135.8855191042104
 20
297.32300475439399
 11
136.44447430246851
 21
297.23277448994139
  0
LINE
  8
_0-8_
  6
CONTINUOUS
 62
    7
 10
136.44447430246851
 20
297.23277448994139
 11
137.02094527966017
 21
297.2023899959658
  0
LINE
  8
_0-8_
  6
CONTINUOUS
 62
    7
 10
137.02094527966017
 20
297.2023899959658
 11
137.59741625685183
 21
297.23277448994139
  0
LINE
  8
_0-8_
  6
CONTINUOUS
 62
    7
 10
137.59741625685183
 20
297.23277448994139
 11
138.15637145510993
 21
297.32300475439399
  0
LINE
  8
_0-8_
  6
CONTINUOUS
 62
    7
 10
138.15637145510993
 20
297.32300475439399
 11
138.68082730358026
 21
297.47033918839691
  0
LINE
  8
_0-8_
  6
CONTINUOUS
 62
    7
 10
138.68082730358026
 20
297.47033918839691
 11
139.15484847669472
 21
297.67030110972786
  0
LINE
  8
_0-8_
  6
CONTINUOUS
 62
    7
 10
139.15484847669472
 20
297.67030110972786
 11
139.56403208097436
 21
297.91681477659267
  0
LINE
  8
_0-8_
  6
CONTINUOUS
 62
    7
 10
139.56403208097436
 20
297.91681477659267
 11
139.89594527966017
 21
298.20238999596575
  0
LINE
  8
_0-8_
  6
CONTINUOUS
 62
    7
 10
139.89594527966017
 20
298.20238999596575
 11
140.14050305816602
 21
298.51834970931435
  0
LINE
  8
_0-8_
  6
CONTINUOUS
 62
    7
 10
140.14050305816602
 20
298.51834970931435
 11
140.29027465214449
 21
298.85509364063188
  0
LINE
  8
_0-8_
  6
CONTINUOUS
 62
    7
 10
140.29027465214449
 20
298.85509364063188
 11
140.34070932750046
 21
299.20238993172097
  0
LINE
  8
_0-8_
  6
CONTINUOUS
 62
    7
 10
140.34070932750046
 20
299.20238999596569
 11
140.44157867821241
 21
298.85509364063188
  0
LINE
  8
_0-8_
  6
CONTINUOUS
 62
    7
 10
140.44157867821241
 20
298.85509364063188
 11
140.74112186616924
 21
298.51834970931435
  0
LINE
  8
_0-8_
  6
CONTINUOUS
 62
    7
 10
140.74112186616924
 20
298.51834970931435
 11
141.23023742318117
 21
298.20238999596575
  0
LINE
  8
_0-8_
  6
CONTINUOUS
 62
    7
 10
141.23023742318117
 20
298.20238999596575
 11
141.89406382055256
 21
297.91681477659267
  0
LINE
  8
_0-8_
  6
CONTINUOUS
 62
    7
 10
141.89406382055256
 20
297.91681477659267
 11
142.71243102911194
 21
297.67030110972786
  0
LINE
  8
_0-8_
  6
CONTINUOUS
 62
    7
 10
142.71243102911194
 20
297.67030110972786
 11
143.66047337534076
 21
297.47033918839691
  0
LINE
  8
_0-8_
  6
CONTINUOUS
 62
    7
 10
143.66047337534076
 20
297.47033918839691
 11
144.70938507228152
 21
297.32300475439399
  0
LINE
  8
_0-8_
  6
CONTINUOUS
 62
    7
 10
144.70938507228152
 20
297.32300475439399
 11
145.82729546879773
 21
297.23277448994139
  0
LINE
  8
_0-8_
  6
CONTINUOUS
 62
    7
 10
145.82729546879773
 20
297.23277448994139
 11
146.98023742318105
 21
297.2023899959658
  0
LINE
  8
_0-8_
  6
CONTINUOUS
 62
    7
 10
146.98023742318105
 20
297.2023899959658
 11
148.13317937756437
 21
297.23277448994139
  0
LINE
  8
_0-8_
  6
CONTINUOUS
 62
    7
 10
148.13317937756437
 20
297.23277448994139
 11
149.25108977408058
 21
297.32300475439399
  0
LINE
  8
_0-8_
  6
CONTINUOUS
 62
    7
 10
149.25108977408058
 20
297.32300475439399
 11
150.30000147102135
 21
297.47033918839691
  0
LINE
  8
_0-8_
  6
CONTINUOUS
 62
    7
 10
150.30000147102135
 20
297.47033918839691
 11
151.24804381725016
 21
297.67030110972786
  0
LINE
  8
_0-8_
  6
CONTINUOUS
 62
    7
 10
151.24804381725016
 20
297.67030110972786
 11
152.06641102580954
 21
297.91681477659267
  0
LINE
  8
_0-8_
  6
CONTINUOUS
 62
    7
 10
152.06641102580954
 20
297.91681477659267
 11
152.73023742318094
 21
298.20238999596575
  0
LINE
  8
_0-8_
  6
CONTINUOUS
 62
    7
 10
152.73023742318094
 20
298.20238999596575
 11
153.21935298019287
 21
298.51834970931435
  0
LINE
  8
_0-8_
  6
CONTINUOUS
 62
    7
 10
153.21935298019287
 20
298.51834970931435
 11
153.51889616814969
 21
298.85509364063188
  0
LINE
  8
_0-8_
  6
CONTINUOUS
 62
    7
 10
153.51889616814969
 20
298.85509364063188
 11
153.61976551886164
 21
299.20238999596569
  0
LINE
  8
_0-8_
  6
CONTINUOUS
 62
    7
 10
153.61976551886164
 20
299.20238993172097
 11
153.67020021273527
 21
298.85509357736316
  0
LINE
  8
_0-8_
  6
CONTINUOUS
 62
    7
 10
153.67020021273527
 20
298.85509357736316
 11
153.81997182466864
 21
298.51834964894414
  0
LINE
  8
_0-8_
  6
CONTINUOUS
 62
    7
 10
153.81997182466864
 20
298.51834964894414
 11
154.06452962002129
 21
298.2023899403282
  0
LINE
  8
_0-8_
  6
CONTINUOUS
 62
    7
 10
154.06452962002129
 20
298.2023899403282
 11
154.39644283393375
 21
297.91681472737838
  0
LINE
  8
_0-8_
  6
CONTINUOUS
 62
    7
 10
154.39644283393375
 20
297.91681472737838
 11
154.80562645135728
 21
297.67030106843214
  0
LINE
  8
_0-8_
  6
CONTINUOUS
 62
    7
 10
154.80562645135728
 20
297.67030106843214
 11
155.27964763513353
 21
297.47033915627452
  0
LINE
  8
_0-8_
  6
CONTINUOUS
 62
    7
 10
155.27964763513353
 20
297.47033915627452
 11
155.80410349145973
 21
297.323004732421
  0
LINE
  8
_0-8_
  6
CONTINUOUS
 62
    7
 10
155.80410349145973
 20
297.323004732421
 11
156.36305869452883
 21
297.23277447878542
  0
LINE
  8
_0-8_
  6
CONTINUOUS
 62
    7
 10
156.36305869452883
 20
297.23277447878542
 11
156.93952967334053
 21
297.2023899959658
  0
LINE
  8
_0-8_
  6
CONTINUOUS
 62
    7
 10
156.93952967334053
 20
297.2023899959658
 11
157.51600064891215
 21
297.23277450109737
  0
LINE
  8
_0-8_
  6
CONTINUOUS
 62
    7
 10
157.51600064891215
 20
297.23277450109737
 11
158.07495584235926
 21
297.32300477636699
  0
LINE
  8
_0-8_
  6
CONTINUOUS
 62
    7
 10
158.07495584235926
 20
297.32300477636699
 11
158.59941168297382
 21
297.47033922051929
  0
LINE
  8
_0-8_
  6
CONTINUOUS
 62
    7
 10
158.59941168297382
 20
297.47033922051929
 11
159.0734328454264
 21
297.67030115102352
  0
LINE
  8
_0-8_
  6
CONTINUOUS
 62
    7
 10
159.0734328454264
 20
297.67030115102352
 11
159.48261643656213
 21
297.91681482580697
  0
LINE
  8
_0-8_
  6
CONTINUOUS
 62
    7
 10
159.48261643656213
 20
297.91681482580697
 11
159.81452962002118
 21
298.20239005160329
  0
LINE
  8
_0-8_
  6
CONTINUOUS
 62
    7
 10
159.81452962002118
 20
298.20239005160329
 11
160.05908738168034
 21
298.51834976968468
  0
LINE
  8
_0-8_
  6
CONTINUOUS
 62
    7
 10
160.05908738168034
 20
298.51834976968468
 11
160.2088589577038
 21
298.85509370390054
  0
LINE
  8
_0-8_
  6
CONTINUOUS
 62
    7
 10
160.2088589577038
 20
298.85509370390054
 11
160.25929361454223
 21
299.20238999596569
  0
LINE
  8
_0-8_
  6
CONTINUOUS
 62
    7
 10
153.61976551886164
 20
303.90238999596596
 11
153.51889616814969
 21
304.24968635129977
  0
LINE
  8
_0-8_
  6
CONTINUOUS
 62
    7
 10
153.51889616814969
 20
304.24968635129977
 11
153.21935298019287
 21
304.5864302826173
  0
LINE
  8
_0-8_
  6
CONTINUOUS
 62
    7
 10
153.21935298019287
 20
304.5864302826173
 11
152.73023742318094
 21
304.9023899959659
  0
LINE
  8
_0-8_
  6
CONTINUOUS
 62
    7
 10
152.73023742318094
 20
304.9023899959659
 11
152.06641102580954
 21
305.18796521533898
  0
LINE
  8
_0-8_
  6
CONTINUOUS
 62
    7
 10
152.06641102580954
 20
305.18796521533898
 11
151.24804381725016
 21
305.43447888220379
  0
LINE
  8
_0-8_
  6
CONTINUOUS
 62
    7
 10
151.24804381725016
 20
305.43447888220379
 11
150.30000147102135
 21
305.63444080353474
  0
LINE
  8
_0-8_
  6
CONTINUOUS
 62
    7
 10
150.30000147102135
 20
305.63444080353474
 11
149.25108977408058
 21
305.78177523753766
  0
LINE
  8
_0-8_
  6
CONTINUOUS
 62
    7
 10
149.25108977408058
 20
305.78177523753766
 11
148.13317937756437
 21
305.87200550199026
  0
LINE
  8
_0-8_
  6
CONTINUOUS
 62
    7
 10
148.13317937756437
 20
305.87200550199026
 11
146.98023742318105
 21
305.90238999596585
  0
LINE
  8
_0-8_
  6
CONTINUOUS
 62
    7
 10
146.98023742318105
 20
305.90238999596585
 11
145.82729546879773
 21
305.87200550199026
  0
LINE
  8
_0-8_
  6
CONTINUOUS
 62
    7
 10
145.82729546879773
 20
305.87200550199026
 11
144.70938507228152
 21
305.78177523753766
  0
LINE
  8
_0-8_
  6
CONTINUOUS
 62
    7
 10
144.70938507228152
 20
305.78177523753766
 11
143.66047337534076
 21
305.63444080353474
  0
LINE
  8
_0-8_
  6
CONTINUOUS
 62
    7
 10
143.66047337534076
 20
305.63444080353474
 11
142.71243102911194
 21
305.43447888220379
  0
LINE
  8
_0-8_
  6
CONTINUOUS
 62
    7
 10
142.71243102911194
 20
305.43447888220379
 11
141.89406382055256
 21
305.18796521533898
  0
LINE
  8
_0-8_
  6
CONTINUOUS
 62
    7
 10
141.89406382055256
 20
305.18796521533898
 11
141.23023742318117
 21
304.9023899959659
  0
LINE
  8
_0-8_
  6
CONTINUOUS
 62
    7
 10
141.23023742318117
 20
304.9023899959659
 11
140.74112186616924
 21
304.5864302826173
  0
LINE
  8
_0-8_
  6
CONTINUOUS
 62
    7
 10
140.74112186616924
 20
304.5864302826173
 11
140.44157867821241
 21
304.24968635129977
  0
LINE
  8
_0-8_
  6
CONTINUOUS
 62
    7
 10
140.44157867821241
 20
304.24968635129977
 11
140.34070932750046
 21
303.90238999596596
  0
LINE
  8
_0-8_
  6
CONTINUOUS
 62
    7
 10
160.25929361454223
 20
303.90238999596596
 11
160.20885893918626
 21
304.24968635129977
  0
LINE
  8
_0-8_
  6
CONTINUOUS
 62
    7
 10
160.20885893918626
 20
304.24968635129977
 11
160.05908734520779
 21
304.5864302826173
  0
LINE
  8
_0-8_
  6
CONTINUOUS
 62
    7
 10
160.05908734520779
 20
304.5864302826173
 11
159.81452956670194
 21
304.9023899959659
  0
LINE
  8
_0-8_
  6
CONTINUOUS
 62
    7
 10
159.81452956670194
 20
304.9023899959659
 11
159.48261636801612
 21
305.18796521533898
  0
LINE
  8
_0-8_
  6
CONTINUOUS
 62
    7
 10
159.48261636801612
 20
305.18796521533898
 11
159.07343276373649
 21
305.43447888220379
  0
LINE
  8
_0-8_
  6
CONTINUOUS
 62
    7
 10
159.07343276373649
 20
305.43447888220379
 11
158.59941159062214
 21
305.63444080353474
  0
LINE
  8
_0-8_
  6
CONTINUOUS
 62
    7
 10
158.59941159062214
 20
305.63444080353474
 11
158.0749557421517
 21
305.78177523753766
  0
LINE
  8
_0-8_
  6
CONTINUOUS
 62
    7
 10
158.0749557421517
 20
305.78177523753766
 11
157.5160005438936
 21
305.87200550199026
  0
LINE
  8
_0-8_
  6
CONTINUOUS
 62
    7
 10
157.5160005438936
 20
305.87200550199026
 11
156.93952956670194
 21
305.90238999596585
  0
LINE
  8
_0-8_
  6
CONTINUOUS
 62
    7
 10
156.93952956670194
 20
305.90238999596585
 11
156.36305858951027
 21
305.87200550199026
  0
LINE
  8
_0-8_
  6
CONTINUOUS
 62
    7
 10
156.36305858951027
 20
305.87200550199026
 11
155.80410339125217
 21
305.78177523753766
  0
LINE
  8
_0-8_
  6
CONTINUOUS
 62
    7
 10
155.80410339125217
 20
305.78177523753766
 11
155.27964754278185
 21
305.63444080353474
  0
LINE
  8
_0-8_
  6
CONTINUOUS
 62
    7
 10
155.27964754278185
 20
305.63444080353474
 11
154.80562636966738
 21
305.43447888220379
  0
LINE
  8
_0-8_
  6
CONTINUOUS
 62
    7
 10
154.80562636966738
 20
305.43447888220379
 11
154.39644276538775
 21
305.18796521533898
  0
LINE
  8
_0-8_
  6
CONTINUOUS
 62
    7
 10
154.39644276538775
 20
305.18796521533898
 11
154.06452956670194
 21
304.9023899959659
  0
LINE
  8
_0-8_
  6
CONTINUOUS
 62
    7
 10
154.06452956670194
 20
304.9023899959659
 11
153.81997178819609
 21
304.5864302826173
  0
LINE
  8
_0-8_
  6
CONTINUOUS
 62
    7
 10
153.81997178819609
 20
304.5864302826173
 11
153.67020019421761
 21
304.24968635129977
  0
LINE
  8
_0-8_
  6
CONTINUOUS
 62
    7
 10
153.67020019421761
 20
304.24968635129977
 11
153.61976551886164
 21
303.90239006021068
  0
LINE
  8
_0-8_
  6
CONTINUOUS
 62
    7
 10
140.34070932750046
 20
303.90239006021068
 11
140.29027463362684
 21
304.24968641456849
  0
LINE
  8
_0-8_
  6
CONTINUOUS
 62
    7
 10
140.29027463362684
 20
304.24968641456849
 11
140.14050302169346
 21
304.58643034298751
  0
LINE
  8
_0-8_
  6
CONTINUOUS
 62
    7
 10
140.14050302169346
 20
304.58643034298751
 11
139.89594522634081
 21
304.90239005160345
  0
LINE
  8
_0-8_
  6
CONTINUOUS
 62
    7
 10
139.89594522634081
 20
304.90239005160345
 11
139.56403201242836
 21
305.18796526455327
  0
LINE
  8
_0-8_
  6
CONTINUOUS
 62
    7
 10
139.56403201242836
 20
305.18796526455327
 11
139.15484839500482
 21
305.43447892349951
  0
LINE
  8
_0-8_
  6
CONTINUOUS
 62
    7
 10
139.15484839500482
 20
305.43447892349951
 11
138.68082721122857
 21
305.63444083565713
  0
LINE
  8
_0-8_
  6
CONTINUOUS
 62
    7
 10
138.68082721122857
 20
305.63444083565713
 11
138.15637135490238
 21
305.78177525951065
  0
LINE
  8
_0-8_
  6
CONTINUOUS
 62
    7
 10
138.15637135490238
 20
305.78177525951065
 11
137.59741615183327
 21
305.87200551314623
  0
LINE
  8
_0-8_
  6
CONTINUOUS
 62
    7
 10
137.59741615183327
 20
305.87200551314623
 11
137.02094517302157
 21
305.90238999596585
  0
LINE
  8
_0-8_
  6
CONTINUOUS
 62
    7
 10
137.02094517302157
 20
305.90238999596585
 11
136.44447419744995
 21
305.87200549083428
  0
LINE
  8
_0-8_
  6
CONTINUOUS
 62
    7
 10
136.44447419744995
 20
305.87200549083428
 11
135.88551900400284
 21
305.78177521556466
  0
LINE
  8
_0-8_
  6
CONTINUOUS
 62
    7
 10
135.88551900400284
 20
305.78177521556466
 11
135.36106316338828
 21
305.63444077141236
  0
LINE
  8
_0-8_
  6
CONTINUOUS
 62
    7
 10
135.36106316338828
 20
305.63444077141236
 11
134.88704200093571
 21
305.43447884090813
  0
LINE
  8
_0-8_
  6
CONTINUOUS
 62
    7
 10
134.88704200093571
 20
305.43447884090813
 11
134.47785840979998
 21
305.18796516612468
  0
LINE
  8
_0-8_
  6
CONTINUOUS
 62
    7
 10
134.47785840979998
 20
305.18796516612468
 11
134.14594522634093
 21
304.90238994032836
  0
LINE
  8
_0-8_
  6
CONTINUOUS
 62
    7
 10
134.14594522634093
 20
304.90238994032836
 11
133.90138746468176
 21
304.58643022224697
  0
LINE
  8
_0-8_
  6
CONTINUOUS
 62
    7
 10
133.90138746468176
 20
304.58643022224697
 11
133.75161588865831
 21
304.24968628803111
  0
LINE
  8
_0-8_
  6
CONTINUOUS
 62
    7
 10
133.75161588865831
 20
304.24968628803111
 11
133.70118123181987
 21
303.90238999596596
  0
LINE
  8
_0-8_
  6
CONTINUOUS
 62
    7
 10
154.98023738839925
 20
297.2023899959658
 11
154.98023738839925
 21
232.9023859959654
  0
LINE
  8
_0-8_
  6
CONTINUOUS
 62
    7
 10
154.0802373277993
 20
232.9023859959654
 11
154.0802373277993
 21
297.2023899959658
  0
LINE
  8
_0-8_
  6
CONTINUOUS
 62
    7
 10
139.88023751849903
 20
297.2023899959658
 11
139.88023751849903
 21
232.9023859959654
  0
LINE
  8
_0-8_
  6
CONTINUOUS
 62
    7
 10
138.98023738839902
 20
232.9023859959654
 11
138.98023738839902
 21
297.2023899959658
  0
LINE
  8
_0-9_
  6
PHANTOM1
 62
  152
 10
121.98023742318105
 20
272.90238599596495
 11
121.98023742318105
 21
275.90238599596563
  0
LINE
  8
_0-9_
  6
PHANTOM1
 62
  152
 10
123.93023742318087
 20
269.9023859959654
 11
123.93023742318087
 21
272.90238599596495
  0
LINE
  8
_0-9_
  6
PHANTOM1
 62
  152
 10
122.23023742318082
 20
275.90238599596563
 11
122.23023742318082
 21
283.40238599596563
  0
ARC
  8
_0-9_
  6
PHANTOM1
 62
  152
 10
125.23023742318105
 20
283.40238599596563
 40
2.9999999999999858
 50
89.999999999999829
 51
180.0000000000002
  0
LINE
  8
_0-9_
  6
PHANTOM1
 62
  152
 10
170.03023742318169
 20
269.9023859959654
 11
123.93023742318087
 21
269.9023859959654
  0
ARC
  8
_0-9_
  6
PHANTOM1
 62
  152
 10
168.73023742318105
 20
283.40238599596563
 40
2.9999999999999933
 50
359.99999999999977
 51
90.000000000000199
  0
LINE
  8
_0-9_
  6
PHANTOM1
 62
  152
 10
171.73023742318128
 20
283.40238599596563
 11
171.73023742318128
 21
275.90238599596563
  0
LINE
  8
_0-9_
  6
PHANTOM1
 62
  152
 10
171.98023742318105
 20
275.90238599596563
 11
171.98023742318105
 21
272.90238599596495
  0
LINE
  8
_0-9_
  6
PHANTOM1
 62
  152
 10
170.03023742318169
 20
272.90238599596495
 11
170.03023742318169
 21
269.9023859959654
  0
LINE
  8
_0-9_
  6
PHANTOM1
 62
  152
 10
121.98023742318105
 20
275.90238599596563
 11
122.23023742318082
 21
275.90238599596563
  0
LINE
  8
_0-9_
  6
PHANTOM1
 62
  152
 10
171.73023742318128
 20
275.90238599596563
 11
171.98023742318105
 21
275.90238599596563
  0
LINE
  8
_0-9_
  6
PHANTOM1
 62
  152
 10
171.98023742318105
 20
272.90238599596495
 11
170.03023742318169
 21
272.90238599596495
  0
LINE
  8
_0-9_
  6
PHANTOM1
 62
  152
 10
123.93023742318087
 20
272.90238599596495
 11
121.98023742318105
 21
272.90238599596495
  0
LINE
  8
_0-9_
  6
PHANTOM1
 62
  152
 10
164.98023742318105
 20
286.40238599596518
 11
168.73023742318105
 21
286.40238599596518
  0
LINE
  8
_0-9_
  6
PHANTOM1
 62
  152
 10
134.27853150100964
 20
295.90238599596495
 11
134.27853150100964
 21
288.80238599596527
  0
LINE
  8
_0-9_
  6
PHANTOM1
 62
  152
 10
164.98023742318105
 20
286.40238599596518
 11
164.98023742318105
 21
286.80238599596549
  0
LINE
  8
_0-9_
  6
PHANTOM1
 62
  152
 10
129.2302374231806
 20
286.80238599596549
 11
129.2302374231806
 21
286.40238599596518
  0
LINE
  8
_0-9_
  6
PHANTOM1
 62
  152
 10
125.23023742318105
 20
286.40238599596518
 11
129.2302374231806
 21
286.40238599596518
  0
LINE
  8
_0-9_
  6
PHANTOM1
 62
  152
 10
156.50651686480933
 20
286.80238599596538
 11
156.50651686480933
 21
286.80238599596538
  0
LINE
  8
_0-9_
  6
PHANTOM1
 62
  152
 10
156.50651686480933
 20
286.80238599596538
 11
157.05792388647086
 21
286.83277048994097
  0
LINE
  8
_0-9_
  6
PHANTOM1
 62
  152
 10
157.05792388647086
 20
286.83277048994097
 11
157.59257668480461
 21
286.92300075439357
  0
LINE
  8
_0-9_
  6
PHANTOM1
 62
  152
 10
157.59257668480461
 20
286.92300075439357
 11
158.09423010508061
 21
287.07033518839648
  0
LINE
  8
_0-9_
  6
PHANTOM1
 62
  152
 10
158.09423010508061
 20
287.07033518839648
 11
158.54764166197262
 21
287.27029710972738
  0
LINE
  8
_0-9_
  6
PHANTOM1
 62
  152
 10
158.54764166197262
 20
287.27029710972738
 11
158.93903467476181
 21
287.51681077659225
  0
LINE
  8
_0-9_
  6
PHANTOM1
 62
  152
 10
158.93903467476181
 20
287.51681077659225
 11
159.25651686480902
 21
287.80238599596532
  0
LINE
  8
_0-9_
  6
PHANTOM1
 62
  152
 10
159.25651686480902
 20
287.80238599596532
 11
159.49044169642335
 21
288.11834570931399
  0
LINE
  8
_0-9_
  6
PHANTOM1
 62
  152
 10
159.49044169642335
 20
288.11834570931399
 11
159.63370148196793
 21
288.4550896406314
  0
LINE
  8
_0-9_
  6
PHANTOM1
 62
  152
 10
159.63370148196793
 20
288.4550896406314
 11
159.6819433453519
 21
288.80238599596527
  0
LINE
  8
_0-9_
  6
PHANTOM1
 62
  152
 10
164.98023742318105
 20
286.80238599596549
 11
156.50651686480933
 21
286.80238599596549
  0
LINE
  8
_0-9_
  6
PHANTOM1
 62
  152
 10
129.2302374231806
 20
286.80238599596549
 11
137.45395798155278
 21
286.80238599596549
  0
LINE
  8
_0-9_
  6
PHANTOM1
 62
  152
 10
134.27853150101021
 20
288.80238599596527
 11
134.27853150101021
 21
288.80238599596527
  0
LINE
  8
_0-9_
  6
PHANTOM1
 62
  152
 10
134.27853150101021
 20
288.80238599596527
 11
134.32677336439417
 21
288.4550896406314
  0
LINE
  8
_0-9_
  6
PHANTOM1
 62
  152
 10
134.32677336439417
 20
288.4550896406314
 11
134.47003314993876
 21
288.11834570931399
  0
LINE
  8
_0-9_
  6
PHANTOM1
 62
  152
 10
134.47003314993876
 20
288.11834570931399
 11
134.70395798155309
 21
287.80238599596532
  0
LINE
  8
_0-9_
  6
PHANTOM1
 62
  152
 10
134.70395798155309
 20
287.80238599596532
 11
135.02144017160029
 21
287.51681077659225
  0
LINE
  8
_0-9_
  6
PHANTOM1
 62
  152
 10
135.02144017160029
 20
287.51681077659225
 11
135.41283318438948
 21
287.27029710972738
  0
LINE
  8
_0-9_
  6
PHANTOM1
 62
  152
 10
135.41283318438948
 20
287.27029710972738
 11
135.86624474128149
 21
287.07033518839648
  0
LINE
  8
_0-9_
  6
PHANTOM1
 62
  152
 10
135.86624474128149
 20
287.07033518839648
 11
136.36789816155749
 21
286.92300075439357
  0
LINE
  8
_0-9_
  6
PHANTOM1
 62
  152
 10
136.36789816155749
 20
286.92300075439357
 11
136.90255095989124
 21
286.83277048994097
  0
LINE
  8
_0-9_
  6
PHANTOM1
 62
  152
 10
136.90255095989124
 20
286.83277048994097
 11
137.45395798155278
 21
286.80238599596538
  0
LINE
  8
_0-9_
  6
PHANTOM1
 62
  152
 10
159.68194334535247
 20
288.80238599596527
 11
159.68194334535247
 21
295.90238599596495
  0
LINE
  8
_0-8_
  6
CONTINUOUS
 62
  152
 10
305.32299403246907
 20
219.70238599596564
 11
255.32299403246907
 21
219.70238599596564
  0
LINE
  8
_0-8_
  6
CONTINUOUS
 62
    7
 10
255.0729940324693
 20
211.90238599596563
 11
255.0729940324693
 21
208.90238599596552
  0
LINE
  8
_0-8_
  6
CONTINUOUS
 62
    7
 10
255.0729940324693
 20
208.90238599596552
 11
305.57299403246884
 21
208.90238599596552
  0
LINE
  8
_0-8_
  6
CONTINUOUS
 62
    7
 10
305.57299403246884
 20
208.90238599596552
 11
305.57299403246884
 21
211.90238599596563
  0
LINE
  8
_0-8_
  6
CONTINUOUS
 62
    7
 10
305.57299403246884
 20
211.90238599596563
 11
255.0729940324693
 21
211.90238599596563
  0
LINE
  8
_0-8_
  6
CONTINUOUS
 62
    7
 10
257.02299403246923
 20
208.90238599596552
 11
257.02299403246923
 21
205.9023859959654
  0
LINE
  8
_0-8_
  6
CONTINUOUS
 62
    7
 10
257.02299403246923
 20
205.9023859959654
 11
303.62299403246948
 21
205.9023859959654
  0
LINE
  8
_0-8_
  6
CONTINUOUS
 62
    7
 10
303.62299403246948
 20
205.9023859959654
 11
303.62299403246948
 21
208.90238599596552
  0
LINE
  8
_0-8_
  6
CONTINUOUS
 62
    7
 10
267.62128811029766
 20
232.9023859959654
 11
293.02469995464048
 21
232.9023859959654
  0
LINE
  8
_0-8_
  6
CONTINUOUS
 62
    7
 10
273.97214107138336
 20
232.9023859959654
 11
273.97214107138336
 21
225.10238599596551
  0
LINE
  8
_0-8_
  6
CONTINUOUS
 62
    7
 10
267.62128811029766
 20
225.10238599596551
 11
267.62128811029766
 21
232.9023859959654
  0
LINE
  8
_0-8_
  6
CONTINUOUS
 62
    7
 10
293.02469995464048
 20
232.9023859959654
 11
293.02469995464048
 21
225.10238599596551
  0
LINE
  8
_0-8_
  6
CONTINUOUS
 62
    7
 10
286.67384699138336
 20
225.10238599596551
 11
286.67384699138336
 21
232.9023859959654
  0
LINE
  8
_0-8_
  6
CONTINUOUS
 62
    7
 10
298.32299403246918
 20
223.10238599596562
 11
298.32299403246918
 21
222.70238599596541
  0
LINE
  8
_0-8_
  6
CONTINUOUS
 62
    7
 10
298.32299403246918
 20
223.10238599596562
 11
262.32299403246896
 21
223.10238599596562
  0
LINE
  8
_0-8_
  6
CONTINUOUS
 62
    7
 10
262.32299403246896
 20
223.10238599596562
 11
262.32299403246896
 21
222.70238599596541
  0
LINE
  8
_0-8_
  6
CONTINUOUS
 62
    7
 10
258.32299403246918
 20
222.70238599596541
 11
302.32299403217394
 21
222.70238599596541
  0
LINE
  8
_0-8_
  6
CONTINUOUS
 62
    7
 10
255.32299403246907
 20
219.70238599596564
 11
255.32299403246907
 21
211.90238599596563
  0
LINE
  8
_0-8_
  6
CONTINUOUS
 62
    7
 10
305.32299403246907
 20
211.90238599596563
 11
305.32299403246907
 21
219.70238599596564
  0
ARC
  8
_0-8_
  6
CONTINUOUS
 62
    7
 10
258.32299403246918
 20
219.70238599596564
 40
2.9999999999999858
 50
89.999999999999829
 51
180.0000000000002
  0
ARC
  8
_0-8_
  6
CONTINUOUS
 62
    7
 10
302.32299403246896
 20
219.70238599596564
 40
2.9999999999999933
 50
359.99999999999977
 51
90.000000000000199
  0
LINE
  8
_0-8_
  6
CONTINUOUS
 62
    7
 10
267.62128811029822
 20
225.10238599596551
 11
267.66952997368219
 21
224.7550896406317
  0
LINE
  8
_0-8_
  6
CONTINUOUS
 62
    7
 10
267.66952997368219
 20
224.7550896406317
 11
267.8127897592268
 21
224.41834570931422
  0
LINE
  8
_0-8_
  6
CONTINUOUS
 62
    7
 10
267.8127897592268
 20
224.41834570931422
 11
268.04671459084113
 21
224.10238599596556
  0
LINE
  8
_0-8_
  6
CONTINUOUS
 62
    7
 10
268.04671459084113
 20
224.10238599596556
 11
268.36419678088828
 21
223.81681077659249
  0
LINE
  8
_0-8_
  6
CONTINUOUS
 62
    7
 10
268.36419678088828
 20
223.81681077659249
 11
268.75558979367747
 21
223.57029710972762
  0
LINE
  8
_0-8_
  6
CONTINUOUS
 62
    7
 10
268.75558979367747
 20
223.57029710972762
 11
269.20900135056945
 21
223.37033518839672
  0
LINE
  8
_0-8_
  6
CONTINUOUS
 62
    7
 10
269.20900135056945
 20
223.37033518839672
 11
269.71065477084551
 21
223.22300075439381
  0
LINE
  8
_0-8_
  6
CONTINUOUS
 62
    7
 10
269.71065477084551
 20
223.22300075439381
 11
270.24530756917932
 21
223.13277048994121
  0
LINE
  8
_0-8_
  6
CONTINUOUS
 62
    7
 10
270.24530756917932
 20
223.13277048994121
 11
270.79671459084079
 21
223.10238599596562
  0
LINE
  8
_0-8_
  6
CONTINUOUS
 62
    7
 10
270.79671459084079
 20
223.10238599596562
 11
271.34812161250227
 21
223.13277048994121
  0
LINE
  8
_0-8_
  6
CONTINUOUS
 62
    7
 10
271.34812161250227
 20
223.13277048994121
 11
271.88277441083608
 21
223.22300075439381
  0
LINE
  8
_0-8_
  6
CONTINUOUS
 62
    7
 10
271.88277441083608
 20
223.22300075439381
 11
272.38442783111202
 21
223.37033518839672
  0
LINE
  8
_0-8_
  6
CONTINUOUS
 62
    7
 10
272.38442783111202
 20
223.37033518839672
 11
272.83783938800411
 21
223.57029710972762
  0
LINE
  8
_0-8_
  6
CONTINUOUS
 62
    7
 10
272.83783938800411
 20
223.57029710972762
 11
273.22923240079331
 21
223.81681077659249
  0
LINE
  8
_0-8_
  6
CONTINUOUS
 62
    7
 10
273.22923240079331
 20
223.81681077659249
 11
273.54671459084045
 21
224.10238599596556
  0
LINE
  8
_0-8_
  6
CONTINUOUS
 62
    7
 10
273.54671459084045
 20
224.10238599596556
 11
273.78063942245478
 21
224.41834570931422
  0
LINE
  8
_0-8_
  6
CONTINUOUS
 62
    7
 10
273.78063942245478
 20
224.41834570931422
 11
273.9238992079994
 21
224.7550896406317
  0
LINE
  8
_0-8_
  6
CONTINUOUS
 62
    7
 10
273.9238992079994
 20
224.7550896406317
 11
273.97214107138336
 21
225.10238599596551
  0
LINE
  8
_0-8_
  6
CONTINUOUS
 62
    7
 10
273.97214107138336
 20
225.10238599596551
 11
273.97214107138336
 21
225.10238613959433
  0
LINE
  8
_0-8_
  6
CONTINUOUS
 62
    7
 10
273.97214107138336
 20
225.10238613959433
 11
274.06862471893692
 21
224.75508978207847
  0
LINE
  8
_0-8_
  6
CONTINUOUS
 62
    7
 10
274.06862471893692
 20
224.75508978207847
 11
274.35514421318555
 21
224.41834584428113
  0
LINE
  8
_0-8_
  6
CONTINUOUS
 62
    7
 10
274.35514421318555
 20
224.41834584428113
 11
274.82299380428242
 21
224.10238612035175
  0
LINE
  8
_0-8_
  6
CONTINUOUS
 62
    7
 10
274.82299380428242
 20
224.10238612035175
 11
275.45795811914536
 21
223.81681088661855
  0
LINE
  8
_0-8_
  6
CONTINUOUS
 62
    7
 10
275.45795811914536
 20
223.81681088661855
 11
276.24074408837464
 21
223.57029720205048
  0
LINE
  8
_0-8_
  6
CONTINUOUS
 62
    7
 10
276.24074408837464
 20
223.57029720205048
 11
277.14756715640408
 21
223.37033526021116
  0
LINE
  8
_0-8_
  6
CONTINUOUS
 62
    7
 10
277.14756715640408
 20
223.37033526021116
 11
278.15087396318631
 21
223.22300080351772
  0
LINE
  8
_0-8_
  6
CONTINUOUS
 62
    7
 10
278.15087396318631
 20
223.22300080351772
 11
279.22017953909483
 21
223.13277051488211
  0
LINE
  8
_0-8_
  6
CONTINUOUS
 62
    7
 10
279.22017953909483
 20
223.13277051488211
 11
280.32299357530053
 21
223.10238599596562
  0
LINE
  8
_0-8_
  6
CONTINUOUS
 62
    7
 10
280.32299357530053
 20
223.10238599596562
 11
281.42580762536409
 21
223.13277046500031
  0
LINE
  8
_0-8_
  6
CONTINUOUS
 62
    7
 10
281.42580762536409
 20
223.13277046500031
 11
282.49511324242519
 21
223.22300070526984
  0
LINE
  8
_0-8_
  6
CONTINUOUS
 62
    7
 10
282.49511324242519
 20
223.22300070526984
 11
283.49842011640408
 21
223.37033511658234
  0
LINE
  8
_0-8_
  6
CONTINUOUS
 62
    7
 10
283.49842011640408
 20
223.37033511658234
 11
284.40524327563276
 21
223.57029701740481
  0
LINE
  8
_0-8_
  6
CONTINUOUS
 62
    7
 10
284.40524327563276
 20
223.57029701740481
 11
285.18802935729275
 21
223.81681066656643
  0
LINE
  8
_0-8_
  6
CONTINUOUS
 62
    7
 10
285.18802935729275
 20
223.81681066656643
 11
285.82299380240158
 21
224.10238587157937
  0
LINE
  8
_0-8_
  6
CONTINUOUS
 62
    7
 10
285.82299380240158
 20
224.10238587157937
 11
286.2908435376022
 21
224.41834557434726
  0
LINE
  8
_0-8_
  6
CONTINUOUS
 62
    7
 10
286.2908435376022
 20
224.41834557434726
 11
286.57736318543391
 21
224.75508949918486
  0
LINE
  8
_0-8_
  6
CONTINUOUS
 62
    7
 10
286.57736318543391
 20
224.75508949918486
 11
286.67384699138336
 21
225.10238585233668
  0
LINE
  8
_0-8_
  6
CONTINUOUS
 62
    7
 10
286.67384699138336
 20
225.10238585233668
 11
286.67384699138336
 21
225.10238599596551
  0
LINE
  8
_0-8_
  6
CONTINUOUS
 62
    7
 10
286.67384699355478
 20
225.10238613959433
 11
286.7220888173398
 21
224.75508978207847
  0
LINE
  8
_0-8_
  6
CONTINUOUS
 62
    7
 10
286.7220888173398
 20
224.75508978207847
 11
286.86534856448861
 21
224.41834584428113
  0
LINE
  8
_0-8_
  6
CONTINUOUS
 62
    7
 10
286.86534856448861
 20
224.41834584428113
 11
287.09927336007695
 21
224.10238612035175
  0
LINE
  8
_0-8_
  6
CONTINUOUS
 62
    7
 10
287.09927336007695
 20
224.10238612035175
 11
287.41675551756271
 21
223.81681088661855
  0
LINE
  8
_0-8_
  6
CONTINUOUS
 62
    7
 10
287.41675551756271
 20
223.81681088661855
 11
287.80814850224419
 21
223.57029720205048
  0
LINE
  8
_0-8_
  6
CONTINUOUS
 62
    7
 10
287.80814850224419
 20
223.57029720205048
 11
288.26156003633639
 21
223.37033526021116
  0
LINE
  8
_0-8_
  6
CONTINUOUS
 62
    7
 10
288.26156003633639
 20
223.37033526021116
 11
288.76321343981328
 21
223.22300080351772
  0
LINE
  8
_0-8_
  6
CONTINUOUS
 62
    7
 10
288.76321343981328
 20
223.22300080351772
 11
289.29786622785889
 21
223.13277051488211
  0
LINE
  8
_0-8_
  6
CONTINUOUS
 62
    7
 10
289.29786622785889
 20
223.13277051488211
 11
289.84927324605599
 21
223.10238599596562
  0
LINE
  8
_0-8_
  6
CONTINUOUS
 62
    7
 10
289.84927324605599
 20
223.10238599596562
 11
290.40068027118195
 21
223.13277046500031
  0
LINE
  8
_0-8_
  6
CONTINUOUS
 62
    7
 10
290.40068027118195
 20
223.13277046500031
 11
290.93533307980385
 21
223.22300070526984
  0
LINE
  8
_0-8_
  6
CONTINUOUS
 62
    7
 10
290.93533307980385
 20
223.22300070526984
 11
291.43698651687896
 21
223.37033511658234
  0
LINE
  8
_0-8_
  6
CONTINUOUS
 62
    7
 10
291.43698651687896
 20
223.37033511658234
 11
291.89039809657083
 21
223.57029701740481
  0
LINE
  8
_0-8_
  6
CONTINUOUS
 62
    7
 10
291.89039809657083
 20
223.57029701740481
 11
292.28179113746762
 21
223.81681066656643
  0
LINE
  8
_0-8_
  6
CONTINUOUS
 62
    7
 10
292.28179113746762
 20
223.81681066656643
 11
292.59927336007627
 21
224.10238587157937
  0
LINE
  8
_0-8_
  6
CONTINUOUS
 62
    7
 10
292.59927336007627
 20
224.10238587157937
 11
292.83319822771659
 21
224.41834557434726
  0
LINE
  8
_0-8_
  6
CONTINUOUS
 62
    7
 10
292.83319822771659
 20
224.41834557434726
 11
292.976458051657
 21
224.75508949918486
  0
LINE
  8
_0-8_
  6
CONTINUOUS
 62
    7
 10
292.976458051657
 20
224.75508949918486
 11
293.02469995463991
 21
225.10238585233668
  0
LINE
  8
_0-8_
  6
CONTINUOUS
 62
    7
 10
293.02469995463991
 20
225.10238585233668
 11
293.02469995463991
 21
225.10238599596551
  0
LINE
  8
_0-8_
  6
CONTINUOUS
 62
    7
 10
267.04393784110789
 20
303.90238999596596
 11
267.04393784110789
 21
299.20238999596569
  0
LINE
  8
_0-8_
  6
CONTINUOUS
 62
    7
 10
270.36370188894819
 20
297.2023899959658
 11
290.28228617598995
 21
297.2023899959658
  0
LINE
  8
_0-8_
  6
CONTINUOUS
 62
    7
 10
286.96252212814966
 20
299.20238999596569
 11
286.96252212814966
 21
303.90238999596596
  0
LINE
  8
_0-8_
  6
CONTINUOUS
 62
    7
 10
290.28228617598995
 20
305.90238999596585
 11
270.36370188894819
 21
305.90238999596585
  0
LINE
  8
_0-8_
  6
CONTINUOUS
 62
    7
 10
273.68346593678848
 20
303.90238999596596
 11
273.68346593678848
 21
299.20238999596569
  0
LINE
  8
_0-8_
  6
CONTINUOUS
 62
    7
 10
293.60205022383025
 20
299.20238999596569
 11
293.60205022383025
 21
303.90238999596596
  0
LINE
  8
_0-8_
  6
CONTINUOUS
 62
    7
 10
267.04393784110789
 20
299.20238999596569
 11
267.09437251646386
 21
298.85509364063188
  0
LINE
  8
_0-8_
  6
CONTINUOUS
 62
    7
 10
267.09437251646386
 20
298.85509364063188
 11
267.24414411044233
 21
298.51834970931435
  0
LINE
  8
_0-8_
  6
CONTINUOUS
 62
    7
 10
267.24414411044233
 20
298.51834970931435
 11
267.48870188894819
 21
298.20238999596575
  0
LINE
  8
_0-8_
  6
CONTINUOUS
 62
    7
 10
267.48870188894819
 20
298.20238999596575
 11
267.820615087634
 21
297.91681477659267
  0
LINE
  8
_0-8_
  6
CONTINUOUS
 62
    7
 10
267.820615087634
 20
297.91681477659267
 11
268.22979869191363
 21
297.67030110972786
  0
LINE
  8
_0-8_
  6
CONTINUOUS
 62
    7
 10
268.22979869191363
 20
297.67030110972786
 11
268.70381986502798
 21
297.47033918839691
  0
LINE
  8
_0-8_
  6
CONTINUOUS
 62
    7
 10
268.70381986502798
 20
297.47033918839691
 11
269.22827571349842
 21
297.32300475439399
  0
LINE
  8
_0-8_
  6
CONTINUOUS
 62
    7
 10
269.22827571349842
 20
297.32300475439399
 11
269.78723091175652
 21
297.23277448994139
  0
LINE
  8
_0-8_
  6
CONTINUOUS
 62
    7
 10
269.78723091175652
 20
297.23277448994139
 11
270.36370188894819
 21
297.2023899959658
  0
LINE
  8
_0-8_
  6
CONTINUOUS
 62
    7
 10
270.36370188894819
 20
297.2023899959658
 11
270.94017286613985
 21
297.23277448994139
  0
LINE
  8
_0-8_
  6
CONTINUOUS
 62
    7
 10
270.94017286613985
 20
297.23277448994139
 11
271.49912806439795
 21
297.32300475439399
  0
LINE
  8
_0-8_
  6
CONTINUOUS
 62
    7
 10
271.49912806439795
 20
297.32300475439399
 11
272.02358391286828
 21
297.47033918839691
  0
LINE
  8
_0-8_
  6
CONTINUOUS
 62
    7
 10
272.02358391286828
 20
297.47033918839691
 11
272.49760508598274
 21
297.67030110972786
  0
LINE
  8
_0-8_
  6
CONTINUOUS
 62
    7
 10
272.49760508598274
 20
297.67030110972786
 11
272.90678869026237
 21
297.91681477659267
  0
LINE
  8
_0-8_
  6
CONTINUOUS
 62
    7
 10
272.90678869026237
 20
297.91681477659267
 11
273.23870188894819
 21
298.20238999596575
  0
LINE
  8
_0-8_
  6
CONTINUOUS
 62
    7
 10
273.23870188894819
 20
298.20238999596575
 11
273.48325966745404
 21
298.51834970931435
  0
LINE
  8
_0-8_
  6
CONTINUOUS
 62
    7
 10
273.48325966745404
 20
298.51834970931435
 11
273.63303126143251
 21
298.85509364063188
  0
LINE
  8
_0-8_
  6
CONTINUOUS
 62
    7
 10
273.63303126143251
 20
298.85509364063188
 11
273.68346593678848
 21
299.20238993172097
  0
LINE
  8
_0-8_
  6
CONTINUOUS
 62
    7
 10
273.68346593678848
 20
299.20238999596569
 11
273.78433528750043
 21
298.85509364063188
  0
LINE
  8
_0-8_
  6
CONTINUOUS
 62
    7
 10
273.78433528750043
 20
298.85509364063188
 11
274.08387847545725
 21
298.51834970931435
  0
LINE
  8
_0-8_
  6
CONTINUOUS
 62
    7
 10
274.08387847545725
 20
298.51834970931435
 11
274.57299403246918
 21
298.20238999596575
  0
LINE
  8
_0-8_
  6
CONTINUOUS
 62
    7
 10
274.57299403246918
 20
298.20238999596575
 11
275.23682042984058
 21
297.91681477659267
  0
LINE
  8
_0-8_
  6
CONTINUOUS
 62
    7
 10
275.23682042984058
 20
297.91681477659267
 11
276.05518763839996
 21
297.67030110972786
  0
LINE
  8
_0-8_
  6
CONTINUOUS
 62
    7
 10
276.05518763839996
 20
297.67030110972786
 11
277.00322998462877
 21
297.47033918839691
  0
LINE
  8
_0-8_
  6
CONTINUOUS
 62
    7
 10
277.00322998462877
 20
297.47033918839691
 11
278.05214168156954
 21
297.32300475439399
  0
LINE
  8
_0-8_
  6
CONTINUOUS
 62
    7
 10
278.05214168156954
 20
297.32300475439399
 11
279.17005207808575
 21
297.23277448994139
  0
LINE
  8
_0-8_
  6
CONTINUOUS
 62
    7
 10
279.17005207808575
 20
297.23277448994139
 11
280.32299403246907
 21
297.2023899959658
  0
LINE
  8
_0-8_
  6
CONTINUOUS
 62
    7
 10
280.32299403246907
 20
297.2023899959658
 11
281.47593598685239
 21
297.23277448994139
  0
LINE
  8
_0-8_
  6
CONTINUOUS
 62
    7
 10
281.47593598685239
 20
297.23277448994139
 11
282.5938463833686
 21
297.32300475439399
  0
LINE
  8
_0-8_
  6
CONTINUOUS
 62
    7
 10
282.5938463833686
 20
297.32300475439399
 11
283.64275808030936
 21
297.47033918839691
  0
LINE
  8
_0-8_
  6
CONTINUOUS
 62
    7
 10
283.64275808030936
 20
297.47033918839691
 11
284.59080042653818
 21
297.67030110972786
  0
LINE
  8
_0-8_
  6
CONTINUOUS
 62
    7
 10
284.59080042653818
 20
297.67030110972786
 11
285.40916763509756
 21
297.91681477659267
  0
LINE
  8
_0-8_
  6
CONTINUOUS
 62
    7
 10
285.40916763509756
 20
297.91681477659267
 11
286.07299403246896
 21
298.20238999596575
  0
LINE
  8
_0-8_
  6
CONTINUOUS
 62
    7
 10
286.07299403246896
 20
298.20238999596575
 11
286.56210958948088
 21
298.51834970931435
  0
LINE
  8
_0-8_
  6
CONTINUOUS
 62
    7
 10
286.56210958948088
 20
298.51834970931435
 11
286.86165277743771
 21
298.85509364063188
  0
LINE
  8
_0-8_
  6
CONTINUOUS
 62
    7
 10
286.86165277743771
 20
298.85509364063188
 11
286.96252212814966
 21
299.20238999596569
  0
LINE
  8
_0-8_
  6
CONTINUOUS
 62
    7
 10
286.96252212814966
 20
299.20238993172097
 11
287.01295682202328
 21
298.85509357736316
  0
LINE
  8
_0-8_
  6
CONTINUOUS
 62
    7
 10
287.01295682202328
 20
298.85509357736316
 11
287.16272843395666
 21
298.51834964894414
  0
LINE
  8
_0-8_
  6
CONTINUOUS
 62
    7
 10
287.16272843395666
 20
298.51834964894414
 11
287.40728622930931
 21
298.2023899403282
  0
LINE
  8
_0-8_
  6
CONTINUOUS
 62
    7
 10
287.40728622930931
 20
298.2023899403282
 11
287.73919944322176
 21
297.91681472737838
  0
LINE
  8
_0-8_
  6
CONTINUOUS
 62
    7
 10
287.73919944322176
 20
297.91681472737838
 11
288.1483830606453
 21
297.67030106843214
  0
LINE
  8
_0-8_
  6
CONTINUOUS
 62
    7
 10
288.1483830606453
 20
297.67030106843214
 11
288.62240424442155
 21
297.47033915627452
  0
LINE
  8
_0-8_
  6
CONTINUOUS
 62
    7
 10
288.62240424442155
 20
297.47033915627452
 11
289.14686010074774
 21
297.323004732421
  0
LINE
  8
_0-8_
  6
CONTINUOUS
 62
    7
 10
289.14686010074774
 20
297.323004732421
 11
289.70581530381685
 21
297.23277447878542
  0
LINE
  8
_0-8_
  6
CONTINUOUS
 62
    7
 10
289.70581530381685
 20
297.23277447878542
 11
290.28228628262855
 21
297.2023899959658
  0
LINE
  8
_0-8_
  6
CONTINUOUS
 62
    7
 10
290.28228628262855
 20
297.2023899959658
 11
290.85875725820017
 21
297.23277450109737
  0
LINE
  8
_0-8_
  6
CONTINUOUS
 62
    7
 10
290.85875725820017
 20
297.23277450109737
 11
291.41771245164728
 21
297.32300477636699
  0
LINE
  8
_0-8_
  6
CONTINUOUS
 62
    7
 10
291.41771245164728
 20
297.32300477636699
 11
291.94216829226184
 21
297.47033922051929
  0
LINE
  8
_0-8_
  6
CONTINUOUS
 62
    7
 10
291.94216829226184
 20
297.47033922051929
 11
292.41618945471441
 21
297.67030115102352
  0
LINE
  8
_0-8_
  6
CONTINUOUS
 62
    7
 10
292.41618945471441
 20
297.67030115102352
 11
292.82537304585014
 21
297.91681482580697
  0
LINE
  8
_0-8_
  6
CONTINUOUS
 62
    7
 10
292.82537304585014
 20
297.91681482580697
 11
293.15728622930919
 21
298.20239005160329
  0
LINE
  8
_0-8_
  6
CONTINUOUS
 62
    7
 10
293.15728622930919
 20
298.20239005160329
 11
293.40184399096836
 21
298.51834976968468
  0
LINE
  8
_0-8_
  6
CONTINUOUS
 62
    7
 10
293.40184399096836
 20
298.51834976968468
 11
293.55161556699181
 21
298.85509370390054
  0
LINE
  8
_0-8_
  6
CONTINUOUS
 62
    7
 10
293.55161556699181
 20
298.85509370390054
 11
293.60205022383025
 21
299.20238999596569
  0
LINE
  8
_0-8_
  6
CONTINUOUS
 62
    7
 10
286.96252212814966
 20
303.90238999596596
 11
286.86165277743771
 21
304.24968635129977
  0
LINE
  8
_0-8_
  6
CONTINUOUS
 62
    7
 10
286.86165277743771
 20
304.24968635129977
 11
286.56210958948088
 21
304.5864302826173
  0
LINE
  8
_0-8_
  6
CONTINUOUS
 62
    7
 10
286.56210958948088
 20
304.5864302826173
 11
286.07299403246896
 21
304.9023899959659
  0
LINE
  8
_0-8_
  6
CONTINUOUS
 62
    7
 10
286.07299403246896
 20
304.9023899959659
 11
285.40916763509756
 21
305.18796521533898
  0
LINE
  8
_0-8_
  6
CONTINUOUS
 62
    7
 10
285.40916763509756
 20
305.18796521533898
 11
284.59080042653818
 21
305.43447888220379
  0
LINE
  8
_0-8_
  6
CONTINUOUS
 62
    7
 10
284.59080042653818
 20
305.43447888220379
 11
283.64275808030936
 21
305.63444080353474
  0
LINE
  8
_0-8_
  6
CONTINUOUS
 62
    7
 10
283.64275808030936
 20
305.63444080353474
 11
282.5938463833686
 21
305.78177523753766
  0
LINE
  8
_0-8_
  6
CONTINUOUS
 62
    7
 10
282.5938463833686
 20
305.78177523753766
 11
281.47593598685239
 21
305.87200550199026
  0
LINE
  8
_0-8_
  6
CONTINUOUS
 62
    7
 10
281.47593598685239
 20
305.87200550199026
 11
280.32299403246907
 21
305.90238999596585
  0
LINE
  8
_0-8_
  6
CONTINUOUS
 62
    7
 10
280.32299403246907
 20
305.90238999596585
 11
279.17005207808575
 21
305.87200550199026
  0
LINE
  8
_0-8_
  6
CONTINUOUS
 62
    7
 10
279.17005207808575
 20
305.87200550199026
 11
278.05214168156954
 21
305.78177523753766
  0
LINE
  8
_0-8_
  6
CONTINUOUS
 62
    7
 10
278.05214168156954
 20
305.78177523753766
 11
277.00322998462877
 21
305.63444080353474
  0
LINE
  8
_0-8_
  6
CONTINUOUS
 62
    7
 10
277.00322998462877
 20
305.63444080353474
 11
276.05518763839996
 21
305.43447888220379
  0
LINE
  8
_0-8_
  6
CONTINUOUS
 62
    7
 10
276.05518763839996
 20
305.43447888220379
 11
275.23682042984058
 21
305.18796521533898
  0
LINE
  8
_0-8_
  6
CONTINUOUS
 62
    7
 10
275.23682042984058
 20
305.18796521533898
 11
274.57299403246918
 21
304.9023899959659
  0
LINE
  8
_0-8_
  6
CONTINUOUS
 62
    7
 10
274.57299403246918
 20
304.9023899959659
 11
274.08387847545725
 21
304.5864302826173
  0
LINE
  8
_0-8_
  6
CONTINUOUS
 62
    7
 10
274.08387847545725
 20
304.5864302826173
 11
273.78433528750043
 21
304.24968635129977
  0
LINE
  8
_0-8_
  6
CONTINUOUS
 62
    7
 10
273.78433528750043
 20
304.24968635129977
 11
273.68346593678848
 21
303.90238999596596
  0
LINE
  8
_0-8_
  6
CONTINUOUS
 62
    7
 10
293.60205022383025
 20
303.90238999596596
 11
293.55161554847427
 21
304.24968635129977
  0
LINE
  8
_0-8_
  6
CONTINUOUS
 62
    7
 10
293.55161554847427
 20
304.24968635129977
 11
293.4018439544958
 21
304.5864302826173
  0
LINE
  8
_0-8_
  6
CONTINUOUS
 62
    7
 10
293.4018439544958
 20
304.5864302826173
 11
293.15728617598995
 21
304.9023899959659
  0
LINE
  8
_0-8_
  6
CONTINUOUS
 62
    7
 10
293.15728617598995
 20
304.9023899959659
 11
292.82537297730414
 21
305.18796521533898
  0
LINE
  8
_0-8_
  6
CONTINUOUS
 62
    7
 10
292.82537297730414
 20
305.18796521533898
 11
292.41618937302451
 21
305.43447888220379
  0
LINE
  8
_0-8_
  6
CONTINUOUS
 62
    7
 10
292.41618937302451
 20
305.43447888220379
 11
291.94216819991016
 21
305.63444080353474
  0
LINE
  8
_0-8_
  6
CONTINUOUS
 62
    7
 10
291.94216819991016
 20
305.63444080353474
 11
291.41771235143972
 21
305.78177523753766
  0
LINE
  8
_0-8_
  6
CONTINUOUS
 62
    7
 10
291.41771235143972
 20
305.78177523753766
 11
290.85875715318161
 21
305.87200550199026
  0
LINE
  8
_0-8_
  6
CONTINUOUS
 62
    7
 10
290.85875715318161
 20
305.87200550199026
 11
290.28228617598995
 21
305.90238999596585
  0
LINE
  8
_0-8_
  6
CONTINUOUS
 62
    7
 10
290.28228617598995
 20
305.90238999596585
 11
289.70581519879829
 21
305.87200550199026
  0
LINE
  8
_0-8_
  6
CONTINUOUS
 62
    7
 10
289.70581519879829
 20
305.87200550199026
 11
289.14686000054019
 21
305.78177523753766
  0
LINE
  8
_0-8_
  6
CONTINUOUS
 62
    7
 10
289.14686000054019
 20
305.78177523753766
 11
288.62240415206986
 21
305.63444080353474
  0
LINE
  8
_0-8_
  6
CONTINUOUS
 62
    7
 10
288.62240415206986
 20
305.63444080353474
 11
288.1483829789554
 21
305.43447888220379
  0
LINE
  8
_0-8_
  6
CONTINUOUS
 62
    7
 10
288.1483829789554
 20
305.43447888220379
 11
287.73919937467576
 21
305.18796521533898
  0
LINE
  8
_0-8_
  6
CONTINUOUS
 62
    7
 10
287.73919937467576
 20
305.18796521533898
 11
287.40728617598995
 21
304.9023899959659
  0
LINE
  8
_0-8_
  6
CONTINUOUS
 62
    7
 10
287.40728617598995
 20
304.9023899959659
 11
287.1627283974841
 21
304.5864302826173
  0
LINE
  8
_0-8_
  6
CONTINUOUS
 62
    7
 10
287.1627283974841
 20
304.5864302826173
 11
287.01295680350563
 21
304.24968635129977
  0
LINE
  8
_0-8_
  6
CONTINUOUS
 62
    7
 10
287.01295680350563
 20
304.24968635129977
 11
286.96252212814966
 21
303.90239006021068
  0
LINE
  8
_0-8_
  6
CONTINUOUS
 62
    7
 10
273.68346593678848
 20
303.90239006021068
 11
273.63303124291485
 21
304.24968641456849
  0
LINE
  8
_0-8_
  6
CONTINUOUS
 62
    7
 10
273.63303124291485
 20
304.24968641456849
 11
273.48325963098148
 21
304.58643034298751
  0
LINE
  8
_0-8_
  6
CONTINUOUS
 62
    7
 10
273.48325963098148
 20
304.58643034298751
 11
273.23870183562883
 21
304.90239005160345
  0
LINE
  8
_0-8_
  6
CONTINUOUS
 62
    7
 10
273.23870183562883
 20
304.90239005160345
 11
272.90678862171637
 21
305.18796526455327
  0
LINE
  8
_0-8_
  6
CONTINUOUS
 62
    7
 10
272.90678862171637
 20
305.18796526455327
 11
272.49760500429284
 21
305.43447892349951
  0
LINE
  8
_0-8_
  6
CONTINUOUS
 62
    7
 10
272.49760500429284
 20
305.43447892349951
 11
272.02358382051659
 21
305.63444083565713
  0
LINE
  8
_0-8_
  6
CONTINUOUS
 62
    7
 10
272.02358382051659
 20
305.63444083565713
 11
271.49912796419039
 21
305.78177525951065
  0
LINE
  8
_0-8_
  6
CONTINUOUS
 62
    7
 10
271.49912796419039
 20
305.78177525951065
 11
270.94017276112129
 21
305.87200551314623
  0
LINE
  8
_0-8_
  6
CONTINUOUS
 62
    7
 10
270.94017276112129
 20
305.87200551314623
 11
270.36370178230959
 21
305.90238999596585
  0
LINE
  8
_0-8_
  6
CONTINUOUS
 62
    7
 10
270.36370178230959
 20
305.90238999596585
 11
269.78723080673797
 21
305.87200549083428
  0
LINE
  8
_0-8_
  6
CONTINUOUS
 62
    7
 10
269.78723080673797
 20
305.87200549083428
 11
269.22827561329086
 21
305.78177521556466
  0
LINE
  8
_0-8_
  6
CONTINUOUS
 62
    7
 10
269.22827561329086
 20
305.78177521556466
 11
268.7038197726763
 21
305.63444077141236
  0
LINE
  8
_0-8_
  6
CONTINUOUS
 62
    7
 10
268.7038197726763
 20
305.63444077141236
 11
268.22979861022372
 21
305.43447884090813
  0
LINE
  8
_0-8_
  6
CONTINUOUS
 62
    7
 10
268.22979861022372
 20
305.43447884090813
 11
267.820615019088
 21
305.18796516612468
  0
LINE
  8
_0-8_
  6
CONTINUOUS
 62
    7
 10
267.820615019088
 20
305.18796516612468
 11
267.48870183562894
 21
304.90238994032836
  0
LINE
  8
_0-8_
  6
CONTINUOUS
 62
    7
 10
267.48870183562894
 20
304.90238994032836
 11
267.24414407396978
 21
304.58643022224697
  0
LINE
  8
_0-8_
  6
CONTINUOUS
 62
    7
 10
267.24414407396978
 20
304.58643022224697
 11
267.09437249794632
 21
304.24968628803111
  0
LINE
  8
_0-8_
  6
CONTINUOUS
 62
    7
 10
267.09437249794632
 20
304.24968628803111
 11
267.04393784110789
 21
303.90238999596596
  0
LINE
  8
_0-8_
  6
CONTINUOUS
 62
    7
 10
288.32299399768726
 20
297.2023899959658
 11
288.32299399768726
 21
232.9023859959654
  0
LINE
  8
_0-8_
  6
CONTINUOUS
 62
    7
 10
287.42299393708731
 20
232.9023859959654
 11
287.42299393708731
 21
297.2023899959658
  0
LINE
  8
_0-8_
  6
CONTINUOUS
 62
    7
 10
273.22299412778705
 20
297.2023899959658
 11
273.22299412778705
 21
232.9023859959654
  0
LINE
  8
_0-8_
  6
CONTINUOUS
 62
    7
 10
272.32299399768704
 20
232.9023859959654
 11
272.32299399768704
 21
297.2023899959658
  0
LINE
  8
_0-9_
  6
PHANTOM1
 62
  152
 10
255.32299403246907
 20
272.90238599596495
 11
255.32299403246907
 21
275.90238599596563
  0
LINE
  8
_0-9_
  6
PHANTOM1
 62
  152
 10
257.27299403246889
 20
269.9023859959654
 11
257.27299403246889
 21
272.90238599596495
  0
LINE
  8
_0-9_
  6
PHANTOM1
 62
  152
 10
255.57299403246884
 20
275.90238599596563
 11
255.57299403246884
 21
283.40238599596563
  0
ARC
  8
_0-9_
  6
PHANTOM1
 62
  152
 10
258.57299403246907
 20
283.40238599596563
 40
2.9999999999999858
 50
89.999999999999829
 51
180.0000000000002
  0
LINE
  8
_0-9_
  6
PHANTOM1
 62
  152
 10
303.37299403246971
 20
269.9023859959654
 11
257.27299403246889
 21
269.9023859959654
  0
ARC
  8
_0-9_
  6
PHANTOM1
 62
  152
 10
302.07299403246907
 20
283.40238599596563
 40
2.9999999999999933
 50
359.99999999999977
 51
90.000000000000199
  0
LINE
  8
_0-9_
  6
PHANTOM1
 62
  152
 10
305.0729940324693
 20
283.40238599596563
 11
305.0729940324693
 21
275.90238599596563
  0
LINE
  8
_0-9_
  6
PHANTOM1
 62
  152
 10
305.32299403246907
 20
275.90238599596563
 11
305.32299403246907
 21
272.90238599596495
  0
LINE
  8
_0-9_
  6
PHANTOM1
 62
  152
 10
303.37299403246971
 20
272.90238599596495
 11
303.37299403246971
 21
269.9023859959654
  0
LINE
  8
_0-9_
  6
PHANTOM1
 62
  152
 10
255.32299403246907
 20
275.90238599596563
 11
255.57299403246884
 21
275.90238599596563
  0
LINE
  8
_0-9_
  6
PHANTOM1
 62
  152
 10
305.0729940324693
 20
275.90238599596563
 11
305.32299403246907
 21
275.90238599596563
  0
LINE
  8
_0-9_
  6
PHANTOM1
 62
  152
 10
305.32299403246907
 20
272.90238599596495
 11
303.37299403246971
 21
272.90238599596495
  0
LINE
  8
_0-9_
  6
PHANTOM1
 62
  152
 10
257.27299403246889
 20
272.90238599596495
 11
255.32299403246907
 21
272.90238599596495
  0
LINE
  8
_0-9_
  6
PHANTOM1
 62
  152
 10
298.32299403246907
 20
286.40238599596518
 11
302.07299403246907
 21
286.40238599596518
  0
LINE
  8
_0-9_
  6
PHANTOM1
 62
  152
 10
267.62128811029766
 20
295.90238599596495
 11
267.62128811029766
 21
288.80238599596527
  0
LINE
  8
_0-9_
  6
PHANTOM1
 62
  152
 10
298.32299403246907
 20
286.40238599596518
 11
298.32299403246907
 21
286.80238599596549
  0
LINE
  8
_0-9_
  6
PHANTOM1
 62
  152
 10
262.57299403246861
 20
286.80238599596549
 11
262.57299403246861
 21
286.40238599596518
  0
LINE
  8
_0-9_
  6
PHANTOM1
 62
  152
 10
258.57299403246907
 20
286.40238599596518
 11
262.57299403246861
 21
286.40238599596518
  0
LINE
  8
_0-9_
  6
PHANTOM1
 62
  152
 10
289.84927347409734
 20
286.80238599596538
 11
289.84927347409734
 21
286.80238599596538
  0
LINE
  8
_0-9_
  6
PHANTOM1
 62
  152
 10
289.84927347409734
 20
286.80238599596538
 11
290.40068049575888
 21
286.83277048994097
  0
LINE
  8
_0-9_
  6
PHANTOM1
 62
  152
 10
290.40068049575888
 20
286.83277048994097
 11
290.93533329409263
 21
286.92300075439357
  0
LINE
  8
_0-9_
  6
PHANTOM1
 62
  152
 10
290.93533329409263
 20
286.92300075439357
 11
291.43698671436863
 21
287.07033518839648
  0
LINE
  8
_0-9_
  6
PHANTOM1
 62
  152
 10
291.43698671436863
 20
287.07033518839648
 11
291.89039827126066
 21
287.27029710972738
  0
LINE
  8
_0-9_
  6
PHANTOM1
 62
  152
 10
291.89039827126066
 20
287.27029710972738
 11
292.28179128404986
 21
287.51681077659225
  0
LINE
  8
_0-9_
  6
PHANTOM1
 62
  152
 10
292.28179128404986
 20
287.51681077659225
 11
292.599273474097
 21
287.80238599596532
  0
LINE
  8
_0-9_
  6
PHANTOM1
 62
  152
 10
292.599273474097
 20
287.80238599596532
 11
292.83319830571139
 21
288.11834570931399
  0
LINE
  8
_0-9_
  6
PHANTOM1
 62
  152
 10
292.83319830571139
 20
288.11834570931399
 11
292.97645809125595
 21
288.4550896406314
  0
LINE
  8
_0-9_
  6
PHANTOM1
 62
  152
 10
292.97645809125595
 20
288.4550896406314
 11
293.02469995463991
 21
288.80238599596527
  0
LINE
  8
_0-9_
  6
PHANTOM1
 62
  152
 10
298.32299403246907
 20
286.80238599596549
 11
289.84927347409734
 21
286.80238599596549
  0
LINE
  8
_0-9_
  6
PHANTOM1
 62
  152
 10
262.57299403246861
 20
286.80238599596549
 11
270.79671459084079
 21
286.80238599596549
  0
LINE
  8
_0-9_
  6
PHANTOM1
 62
  152
 10
267.62128811029822
 20
288.80238599596527
 11
267.62128811029822
 21
288.80238599596527
  0
LINE
  8
_0-9_
  6
PHANTOM1
 62
  152
 10
267.62128811029822
 20
288.80238599596527
 11
267.66952997368219
 21
288.4550896406314
  0
LINE
  8
_0-9_
  6
PHANTOM1
 62
  152
 10
267.66952997368219
 20
288.4550896406314
 11
267.81278975922675
 21
288.11834570931399
  0
LINE
  8
_0-9_
  6
PHANTOM1
 62
  152
 10
267.81278975922675
 20
288.11834570931399
 11
268.04671459084113
 21
287.80238599596532
  0
LINE
  8
_0-9_
  6
PHANTOM1
 62
  152
 10
268.04671459084113
 20
287.80238599596532
 11
268.36419678088828
 21
287.51681077659225
  0
LINE
  8
_0-9_
  6
PHANTOM1
 62
  152
 10
268.36419678088828
 20
287.51681077659225
 11
268.75558979367747
 21
287.27029710972738
  0
LINE
  8
_0-9_
  6
PHANTOM1
 62
  152
 10
268.75558979367747
 20
287.27029710972738
 11
269.20900135056951
 21
287.07033518839648
  0
LINE
  8
_0-9_
  6
PHANTOM1
 62
  152
 10
269.20900135056951
 20
287.07033518839648
 11
269.71065477084551
 21
286.92300075439357
  0
LINE
  8
_0-9_
  6
PHANTOM1
 62
  152
 10
269.71065477084551
 20
286.92300075439357
 11
270.24530756917926
 21
286.83277048994097
  0
LINE
  8
_0-9_
  6
PHANTOM1
 62
  152
 10
270.24530756917926
 20
286.83277048994097
 11
270.79671459084079
 21
286.80238599596538
  0
LINE
  8
_0-9_
  6
PHANTOM1
 62
  152
 10
293.02469995464048
 20
288.80238599596527
 11
293.02469995464048
 21
295.90238599596495
  0
LINE
  8
_0-8_
  6
CONTINUOUS
 62
  152
 10
713.62381263246891
 20
219.70238599596564
 11
663.62381263246891
 21
219.70238599596564
  0
LINE
  8
_0-8_
  6
CONTINUOUS
 62
    7
 10
663.37381263246914
 20
211.90238599596563
 11
663.37381263246914
 21
208.90238599596552
  0
LINE
  8
_0-8_
  6
CONTINUOUS
 62
    7
 10
663.37381263246914
 20
208.90238599596552
 11
713.87381263246868
 21
208.90238599596552
  0
LINE
  8
_0-8_
  6
CONTINUOUS
 62
    7
 10
713.87381263246868
 20
208.90238599596552
 11
713.87381263246868
 21
211.90238599596563
  0
LINE
  8
_0-8_
  6
CONTINUOUS
 62
    7
 10
713.87381263246868
 20
211.90238599596563
 11
663.37381263246914
 21
211.90238599596563
  0
LINE
  8
_0-8_
  6
CONTINUOUS
 62
    7
 10
665.32381263246907
 20
208.90238599596552
 11
665.32381263246907
 21
205.9023859959654
  0
LINE
  8
_0-8_
  6
CONTINUOUS
 62
    7
 10
665.32381263246907
 20
205.9023859959654
 11
711.92381263246932
 21
205.9023859959654
  0
LINE
  8
_0-8_
  6
CONTINUOUS
 62
    7
 10
711.92381263246932
 20
205.9023859959654
 11
711.92381263246932
 21
208.90238599596552
  0
LINE
  8
_0-8_
  6
CONTINUOUS
 62
    7
 10
675.9221067102975
 20
232.9023859959654
 11
701.32551855464033
 21
232.9023859959654
  0
LINE
  8
_0-8_
  6
CONTINUOUS
 62
    7
 10
682.27295967138321
 20
232.9023859959654
 11
682.27295967138321
 21
225.10238599596551
  0
LINE
  8
_0-8_
  6
CONTINUOUS
 62
    7
 10
675.9221067102975
 20
225.10238599596551
 11
675.9221067102975
 21
232.9023859959654
  0
LINE
  8
_0-8_
  6
CONTINUOUS
 62
    7
 10
701.32551855464033
 20
232.9023859959654
 11
701.32551855464033
 21
225.10238599596551
  0
LINE
  8
_0-8_
  6
CONTINUOUS
 62
    7
 10
694.9746655913832
 20
225.10238599596551
 11
694.9746655913832
 21
232.9023859959654
  0
LINE
  8
_0-8_
  6
CONTINUOUS
 62
    7
 10
706.62381263246903
 20
223.10238599596562
 11
706.62381263246903
 21
222.70238599596541
  0
LINE
  8
_0-8_
  6
CONTINUOUS
 62
    7
 10
706.62381263246903
 20
223.10238599596562
 11
670.6238126324688
 21
223.10238599596562
  0
LINE
  8
_0-8_
  6
CONTINUOUS
 62
    7
 10
670.6238126324688
 20
223.10238599596562
 11
670.6238126324688
 21
222.70238599596541
  0
LINE
  8
_0-8_
  6
CONTINUOUS
 62
    7
 10
666.62381263246903
 20
222.70238599596541
 11
710.62381263217378
 21
222.70238599596541
  0
LINE
  8
_0-8_
  6
CONTINUOUS
 62
    7
 10
663.62381263246891
 20
219.70238599596564
 11
663.62381263246891
 21
211.90238599596563
  0
LINE
  8
_0-8_
  6
CONTINUOUS
 62
    7
 10
713.62381263246891
 20
211.90238599596563
 11
713.62381263246891
 21
219.70238599596564
  0
ARC
  8
_0-8_
  6
CONTINUOUS
 62
    7
 10
666.62381263246903
 20
219.70238599596564
 40
2.9999999999999858
 50
89.999999999999829
 51
180.0000000000002
  0
ARC
  8
_0-8_
  6
CONTINUOUS
 62
    7
 10
710.6238126324688
 20
219.70238599596564
 40
2.9999999999999933
 50
359.99999999999977
 51
90.000000000000199
  0
LINE
  8
_0-8_
  6
CONTINUOUS
 62
    7
 10
675.92210671029807
 20
225.10238599596551
 11
675.97034857368203
 21
224.7550896406317
  0
LINE
  8
_0-8_
  6
CONTINUOUS
 62
    7
 10
675.97034857368203
 20
224.7550896406317
 11
676.11360835922665
 21
224.41834570931422
  0
LINE
  8
_0-8_
  6
CONTINUOUS
 62
    7
 10
676.11360835922665
 20
224.41834570931422
 11
676.34753319084098
 21
224.10238599596556
  0
LINE
  8
_0-8_
  6
CONTINUOUS
 62
    7
 10
676.34753319084098
 20
224.10238599596556
 11
676.66501538088812
 21
223.81681077659249
  0
LINE
  8
_0-8_
  6
CONTINUOUS
 62
    7
 10
676.66501538088812
 20
223.81681077659249
 11
677.05640839367732
 21
223.57029710972762
  0
LINE
  8
_0-8_
  6
CONTINUOUS
 62
    7
 10
677.05640839367732
 20
223.57029710972762
 11
677.50981995056929
 21
223.37033518839672
  0
LINE
  8
_0-8_
  6
CONTINUOUS
 62
    7
 10
677.50981995056929
 20
223.37033518839672
 11
678.01147337084535
 21
223.22300075439381
  0
LINE
  8
_0-8_
  6
CONTINUOUS
 62
    7
 10
678.01147337084535
 20
223.22300075439381
 11
678.54612616917916
 21
223.13277048994121
  0
LINE
  8
_0-8_
  6
CONTINUOUS
 62
    7
 10
678.54612616917916
 20
223.13277048994121
 11
679.09753319084064
 21
223.10238599596562
  0
LINE
  8
_0-8_
  6
CONTINUOUS
 62
    7
 10
679.09753319084064
 20
223.10238599596562
 11
679.64894021250211
 21
223.13277048994121
  0
LINE
  8
_0-8_
  6
CONTINUOUS
 62
    7
 10
679.64894021250211
 20
223.13277048994121
 11
680.18359301083592
 21
223.22300075439381
  0
LINE
  8
_0-8_
  6
CONTINUOUS
 62
    7
 10
680.18359301083592
 20
223.22300075439381
 11
680.68524643111186
 21
223.37033518839672
  0
LINE
  8
_0-8_
  6
CONTINUOUS
 62
    7
 10
680.68524643111186
 20
223.37033518839672
 11
681.13865798800396
 21
223.57029710972762
  0
LINE
  8
_0-8_
  6
CONTINUOUS
 62
    7
 10
681.13865798800396
 20
223.57029710972762
 11
681.53005100079315
 21
223.81681077659249
  0
LINE
  8
_0-8_
  6
CONTINUOUS
 62
    7
 10
681.53005100079315
 20
223.81681077659249
 11
681.84753319084029
 21
224.10238599596556
  0
LINE
  8
_0-8_
  6
CONTINUOUS
 62
    7
 10
681.84753319084029
 20
224.10238599596556
 11
682.08145802245463
 21
224.41834570931422
  0
LINE
  8
_0-8_
  6
CONTINUOUS
 62
    7
 10
682.08145802245463
 20
224.41834570931422
 11
682.22471780799924
 21
224.7550896406317
  0
LINE
  8
_0-8_
  6
CONTINUOUS
 62
    7
 10
682.22471780799924
 20
224.7550896406317
 11
682.27295967138321
 21
225.10238599596551
  0
LINE
  8
_0-8_
  6
CONTINUOUS
 62
    7
 10
682.27295967138321
 20
225.10238599596551
 11
682.27295967138321
 21
225.10238613959433
  0
LINE
  8
_0-8_
  6
CONTINUOUS
 62
    7
 10
682.27295967138321
 20
225.10238613959433
 11
682.36944331893676
 21
224.75508978207847
  0
LINE
  8
_0-8_
  6
CONTINUOUS
 62
    7
 10
682.36944331893676
 20
224.75508978207847
 11
682.6559628131854
 21
224.41834584428113
  0
LINE
  8
_0-8_
  6
CONTINUOUS
 62
    7
 10
682.6559628131854
 20
224.41834584428113
 11
683.12381240428226
 21
224.10238612035175
  0
LINE
  8
_0-8_
  6
CONTINUOUS
 62
    7
 10
683.12381240428226
 20
224.10238612035175
 11
683.7587767191452
 21
223.81681088661855
  0
LINE
  8
_0-8_
  6
CONTINUOUS
 62
    7
 10
683.7587767191452
 20
223.81681088661855
 11
684.54156268837448
 21
223.57029720205048
  0
LINE
  8
_0-8_
  6
CONTINUOUS
 62
    7
 10
684.54156268837448
 20
223.57029720205048
 11
685.44838575640392
 21
223.37033526021116
  0
LINE
  8
_0-8_
  6
CONTINUOUS
 62
    7
 10
685.44838575640392
 20
223.37033526021116
 11
686.45169256318616
 21
223.22300080351772
  0
LINE
  8
_0-8_
  6
CONTINUOUS
 62
    7
 10
686.45169256318616
 20
223.22300080351772
 11
687.52099813909467
 21
223.13277051488211
  0
LINE
  8
_0-8_
  6
CONTINUOUS
 62
    7
 10
687.52099813909467
 20
223.13277051488211
 11
688.62381217530037
 21
223.10238599596562
  0
LINE
  8
_0-8_
  6
CONTINUOUS
 62
    7
 10
688.62381217530037
 20
223.10238599596562
 11
689.72662622536393
 21
223.13277046500031
  0
LINE
  8
_0-8_
  6
CONTINUOUS
 62
    7
 10
689.72662622536393
 20
223.13277046500031
 11
690.79593184242503
 21
223.22300070526984
  0
LINE
  8
_0-8_
  6
CONTINUOUS
 62
    7
 10
690.79593184242503
 20
223.22300070526984
 11
691.79923871640392
 21
223.37033511658234
  0
LINE
  8
_0-8_
  6
CONTINUOUS
 62
    7
 10
691.79923871640392
 20
223.37033511658234
 11
692.7060618756326
 21
223.57029701740481
  0
LINE
  8
_0-8_
  6
CONTINUOUS
 62
    7
 10
692.7060618756326
 20
223.57029701740481
 11
693.48884795729259
 21
223.81681066656643
  0
LINE
  8
_0-8_
  6
CONTINUOUS
 62
    7
 10
693.48884795729259
 20
223.81681066656643
 11
694.12381240240143
 21
224.10238587157937
  0
LINE
  8
_0-8_
  6
CONTINUOUS
 62
    7
 10
694.12381240240143
 20
224.10238587157937
 11
694.59166213760204
 21
224.41834557434726
  0
LINE
  8
_0-8_
  6
CONTINUOUS
 62
    7
 10
694.59166213760204
 20
224.41834557434726
 11
694.87818178543375
 21
224.75508949918486
  0
LINE
  8
_0-8_
  6
CONTINUOUS
 62
    7
 10
694.87818178543375
 20
224.75508949918486
 11
694.9746655913832
 21
225.10238585233668
  0
LINE
  8
_0-8_
  6
CONTINUOUS
 62
    7
 10
694.9746655913832
 20
225.10238585233668
 11
694.9746655913832
 21
225.10238599596551
  0
LINE
  8
_0-8_
  6
CONTINUOUS
 62
    7
 10
694.97466559355462
 20
225.10238613959433
 11
695.02290741733964
 21
224.75508978207847
  0
LINE
  8
_0-8_
  6
CONTINUOUS
 62
    7
 10
695.02290741733964
 20
224.75508978207847
 11
695.16616716448846
 21
224.41834584428113
  0
LINE
  8
_0-8_
  6
CONTINUOUS
 62
    7
 10
695.16616716448846
 20
224.41834584428113
 11
695.40009196007679
 21
224.10238612035175
  0
LINE
  8
_0-8_
  6
CONTINUOUS
 62
    7
 10
695.40009196007679
 20
224.10238612035175
 11
695.71757411756255
 21
223.81681088661855
  0
LINE
  8
_0-8_
  6
CONTINUOUS
 62
    7
 10
695.71757411756255
 20
223.81681088661855
 11
696.10896710224404
 21
223.57029720205048
  0
LINE
  8
_0-8_
  6
CONTINUOUS
 62
    7
 10
696.10896710224404
 20
223.57029720205048
 11
696.56237863633623
 21
223.37033526021116
  0
LINE
  8
_0-8_
  6
CONTINUOUS
 62
    7
 10
696.56237863633623
 20
223.37033526021116
 11
697.06403203981313
 21
223.22300080351772
  0
LINE
  8
_0-8_
  6
CONTINUOUS
 62
    7
 10
697.06403203981313
 20
223.22300080351772
 11
697.59868482785873
 21
223.13277051488211
  0
LINE
  8
_0-8_
  6
CONTINUOUS
 62
    7
 10
697.59868482785873
 20
223.13277051488211
 11
698.15009184605583
 21
223.10238599596562
  0
LINE
  8
_0-8_
  6
CONTINUOUS
 62
    7
 10
698.15009184605583
 20
223.10238599596562
 11
698.7014988711818
 21
223.13277046500031
  0
LINE
  8
_0-8_
  6
CONTINUOUS
 62
    7
 10
698.7014988711818
 20
223.13277046500031
 11
699.2361516798037
 21
223.22300070526984
  0
LINE
  8
_0-8_
  6
CONTINUOUS
 62
    7
 10
699.2361516798037
 20
223.22300070526984
 11
699.7378051168788
 21
223.37033511658234
  0
LINE
  8
_0-8_
  6
CONTINUOUS
 62
    7
 10
699.7378051168788
 20
223.37033511658234
 11
700.19121669657068
 21
223.57029701740481
  0
LINE
  8
_0-8_
  6
CONTINUOUS
 62
    7
 10
700.19121669657068
 20
223.57029701740481
 11
700.58260973746746
 21
223.81681066656643
  0
LINE
  8
_0-8_
  6
CONTINUOUS
 62
    7
 10
700.58260973746746
 20
223.81681066656643
 11
700.90009196007611
 21
224.10238587157937
  0
LINE
  8
_0-8_
  6
CONTINUOUS
 62
    7
 10
700.90009196007611
 20
224.10238587157937
 11
701.13401682771644
 21
224.41834557434726
  0
LINE
  8
_0-8_
  6
CONTINUOUS
 62
    7
 10
701.13401682771644
 20
224.41834557434726
 11
701.27727665165685
 21
224.75508949918486
  0
LINE
  8
_0-8_
  6
CONTINUOUS
 62
    7
 10
701.27727665165685
 20
224.75508949918486
 11
701.32551855463976
 21
225.10238585233668
  0
LINE
  8
_0-8_
  6
CONTINUOUS
 62
    7
 10
701.32551855463976
 20
225.10238585233668
 11
701.32551855463976
 21
225.10238599596551
  0
LINE
  8
_0-8_
  6
CONTINUOUS
 62
    7
 10
675.34475644110773
 20
303.90238999596596
 11
675.34475644110773
 21
299.20238999596569
  0
LINE
  8
_0-8_
  6
CONTINUOUS
 62
    7
 10
678.66452048894803
 20
297.2023899959658
 11
698.5831047759898
 21
297.2023899959658
  0
LINE
  8
_0-8_
  6
CONTINUOUS
 62
    7
 10
695.2633407281495
 20
299.20238999596569
 11
695.2633407281495
 21
303.90238999596596
  0
LINE
  8
_0-8_
  6
CONTINUOUS
 62
    7
 10
698.5831047759898
 20
305.90238999596585
 11
678.66452048894803
 21
305.90238999596585
  0
LINE
  8
_0-8_
  6
CONTINUOUS
 62
    7
 10
681.98428453678832
 20
303.90238999596596
 11
681.98428453678832
 21
299.20238999596569
  0
LINE
  8
_0-8_
  6
CONTINUOUS
 62
    7
 10
701.90286882383009
 20
299.20238999596569
 11
701.90286882383009
 21
303.90238999596596
  0
LINE
  8
_0-8_
  6
CONTINUOUS
 62
    7
 10
675.34475644110773
 20
299.20238999596569
 11
675.39519111646371
 21
298.85509364063188
  0
LINE
  8
_0-8_
  6
CONTINUOUS
 62
    7
 10
675.39519111646371
 20
298.85509364063188
 11
675.54496271044218
 21
298.51834970931435
  0
LINE
  8
_0-8_
  6
CONTINUOUS
 62
    7
 10
675.54496271044218
 20
298.51834970931435
 11
675.78952048894803
 21
298.20238999596575
  0
LINE
  8
_0-8_
  6
CONTINUOUS
 62
    7
 10
675.78952048894803
 20
298.20238999596575
 11
676.12143368763384
 21
297.91681477659267
  0
LINE
  8
_0-8_
  6
CONTINUOUS
 62
    7
 10
676.12143368763384
 20
297.91681477659267
 11
676.53061729191347
 21
297.67030110972786
  0
LINE
  8
_0-8_
  6
CONTINUOUS
 62
    7
 10
676.53061729191347
 20
297.67030110972786
 11
677.00463846502782
 21
297.47033918839691
  0
LINE
  8
_0-8_
  6
CONTINUOUS
 62
    7
 10
677.00463846502782
 20
297.47033918839691
 11
677.52909431349826
 21
297.32300475439399
  0
LINE
  8
_0-8_
  6
CONTINUOUS
 62
    7
 10
677.52909431349826
 20
297.32300475439399
 11
678.08804951175637
 21
297.23277448994139
  0
LINE
  8
_0-8_
  6
CONTINUOUS
 62
    7
 10
678.08804951175637
 20
297.23277448994139
 11
678.66452048894803
 21
297.2023899959658
  0
LINE
  8
_0-8_
  6
CONTINUOUS
 62
    7
 10
678.66452048894803
 20
297.2023899959658
 11
679.24099146613969
 21
297.23277448994139
  0
LINE
  8
_0-8_
  6
CONTINUOUS
 62
    7
 10
679.24099146613969
 20
297.23277448994139
 11
679.79994666439779
 21
297.32300475439399
  0
LINE
  8
_0-8_
  6
CONTINUOUS
 62
    7
 10
679.79994666439779
 20
297.32300475439399
 11
680.32440251286812
 21
297.47033918839691
  0
LINE
  8
_0-8_
  6
CONTINUOUS
 62
    7
 10
680.32440251286812
 20
297.47033918839691
 11
680.79842368598258
 21
297.67030110972786
  0
LINE
  8
_0-8_
  6
CONTINUOUS
 62
    7
 10
680.79842368598258
 20
297.67030110972786
 11
681.20760729026222
 21
297.91681477659267
  0
LINE
  8
_0-8_
  6
CONTINUOUS
 62
    7
 10
681.20760729026222
 20
297.91681477659267
 11
681.53952048894803
 21
298.20238999596575
  0
LINE
  8
_0-8_
  6
CONTINUOUS
 62
    7
 10
681.53952048894803
 20
298.20238999596575
 11
681.78407826745388
 21
298.51834970931435
  0
LINE
  8
_0-8_
  6
CONTINUOUS
 62
    7
 10
681.78407826745388
 20
298.51834970931435
 11
681.93384986143235
 21
298.85509364063188
  0
LINE
  8
_0-8_
  6
CONTINUOUS
 62
    7
 10
681.93384986143235
 20
298.85509364063188
 11
681.98428453678832
 21
299.20238993172097
  0
LINE
  8
_0-8_
  6
CONTINUOUS
 62
    7
 10
681.98428453678832
 20
299.20238999596569
 11
682.08515388750027
 21
298.85509364063188
  0
LINE
  8
_0-8_
  6
CONTINUOUS
 62
    7
 10
682.08515388750027
 20
298.85509364063188
 11
682.3846970754571
 21
298.51834970931435
  0
LINE
  8
_0-8_
  6
CONTINUOUS
 62
    7
 10
682.3846970754571
 20
298.51834970931435
 11
682.87381263246903
 21
298.20238999596575
  0
LINE
  8
_0-8_
  6
CONTINUOUS
 62
    7
 10
682.87381263246903
 20
298.20238999596575
 11
683.53763902984042
 21
297.91681477659267
  0
LINE
  8
_0-8_
  6
CONTINUOUS
 62
    7
 10
683.53763902984042
 20
297.91681477659267
 11
684.3560062383998
 21
297.67030110972786
  0
LINE
  8
_0-8_
  6
CONTINUOUS
 62
    7
 10
684.3560062383998
 20
297.67030110972786
 11
685.30404858462862
 21
297.47033918839691
  0
LINE
  8
_0-8_
  6
CONTINUOUS
 62
    7
 10
685.30404858462862
 20
297.47033918839691
 11
686.35296028156938
 21
297.32300475439399
  0
LINE
  8
_0-8_
  6
CONTINUOUS
 62
    7
 10
686.35296028156938
 20
297.32300475439399
 11
687.47087067808559
 21
297.23277448994139
  0
LINE
  8
_0-8_
  6
CONTINUOUS
 62
    7
 10
687.47087067808559
 20
297.23277448994139
 11
688.62381263246891
 21
297.2023899959658
  0
LINE
  8
_0-8_
  6
CONTINUOUS
 62
    7
 10
688.62381263246891
 20
297.2023899959658
 11
689.77675458685223
 21
297.23277448994139
  0
LINE
  8
_0-8_
  6
CONTINUOUS
 62
    7
 10
689.77675458685223
 20
297.23277448994139
 11
690.89466498336844
 21
297.32300475439399
  0
LINE
  8
_0-8_
  6
CONTINUOUS
 62
    7
 10
690.89466498336844
 20
297.32300475439399
 11
691.94357668030921
 21
297.47033918839691
  0
LINE
  8
_0-8_
  6
CONTINUOUS
 62
    7
 10
691.94357668030921
 20
297.47033918839691
 11
692.89161902653802
 21
297.67030110972786
  0
LINE
  8
_0-8_
  6
CONTINUOUS
 62
    7
 10
692.89161902653802
 20
297.67030110972786
 11
693.7099862350974
 21
297.91681477659267
  0
LINE
  8
_0-8_
  6
CONTINUOUS
 62
    7
 10
693.7099862350974
 20
297.91681477659267
 11
694.3738126324688
 21
298.20238999596575
  0
LINE
  8
_0-8_
  6
CONTINUOUS
 62
    7
 10
694.3738126324688
 20
298.20238999596575
 11
694.86292818948073
 21
298.51834970931435
  0
LINE
  8
_0-8_
  6
CONTINUOUS
 62
    7
 10
694.86292818948073
 20
298.51834970931435
 11
695.16247137743756
 21
298.85509364063188
  0
LINE
  8
_0-8_
  6
CONTINUOUS
 62
    7
 10
695.16247137743756
 20
298.85509364063188
 11
695.2633407281495
 21
299.20238999596569
  0
LINE
  8
_0-8_
  6
CONTINUOUS
 62
    7
 10
695.2633407281495
 20
299.20238993172097
 11
695.31377542202313
 21
298.85509357736316
  0
LINE
  8
_0-8_
  6
CONTINUOUS
 62
    7
 10
695.31377542202313
 20
298.85509357736316
 11
695.4635470339565
 21
298.51834964894414
  0
LINE
  8
_0-8_
  6
CONTINUOUS
 62
    7
 10
695.4635470339565
 20
298.51834964894414
 11
695.70810482930915
 21
298.2023899403282
  0
LINE
  8
_0-8_
  6
CONTINUOUS
 62
    7
 10
695.70810482930915
 20
298.2023899403282
 11
696.04001804322161
 21
297.91681472737838
  0
LINE
  8
_0-8_
  6
CONTINUOUS
 62
    7
 10
696.04001804322161
 20
297.91681472737838
 11
696.44920166064514
 21
297.67030106843214
  0
LINE
  8
_0-8_
  6
CONTINUOUS
 62
    7
 10
696.44920166064514
 20
297.67030106843214
 11
696.92322284442139
 21
297.47033915627452
  0
LINE
  8
_0-8_
  6
CONTINUOUS
 62
    7
 10
696.92322284442139
 20
297.47033915627452
 11
697.44767870074759
 21
297.323004732421
  0
LINE
  8
_0-8_
  6
CONTINUOUS
 62
    7
 10
697.44767870074759
 20
297.323004732421
 11
698.00663390381669
 21
297.23277447878542
  0
LINE
  8
_0-8_
  6
CONTINUOUS
 62
    7
 10
698.00663390381669
 20
297.23277447878542
 11
698.58310488262839
 21
297.2023899959658
  0
LINE
  8
_0-8_
  6
CONTINUOUS
 62
    7
 10
698.58310488262839
 20
297.2023899959658
 11
699.15957585820001
 21
297.23277450109737
  0
LINE
  8
_0-8_
  6
CONTINUOUS
 62
    7
 10
699.15957585820001
 20
297.23277450109737
 11
699.71853105164712
 21
297.32300477636699
  0
LINE
  8
_0-8_
  6
CONTINUOUS
 62
    7
 10
699.71853105164712
 20
297.32300477636699
 11
700.24298689226168
 21
297.47033922051929
  0
LINE
  8
_0-8_
  6
CONTINUOUS
 62
    7
 10
700.24298689226168
 20
297.47033922051929
 11
700.71700805471426
 21
297.67030115102352
  0
LINE
  8
_0-8_
  6
CONTINUOUS
 62
    7
 10
700.71700805471426
 20
297.67030115102352
 11
701.12619164584999
 21
297.91681482580697
  0
LINE
  8
_0-8_
  6
CONTINUOUS
 62
    7
 10
701.12619164584999
 20
297.91681482580697
 11
701.45810482930904
 21
298.20239005160329
  0
LINE
  8
_0-8_
  6
CONTINUOUS
 62
    7
 10
701.45810482930904
 20
298.20239005160329
 11
701.7026625909682
 21
298.51834976968468
  0
LINE
  8
_0-8_
  6
CONTINUOUS
 62
    7
 10
701.7026625909682
 20
298.51834976968468
 11
701.85243416699166
 21
298.85509370390054
  0
LINE
  8
_0-8_
  6
CONTINUOUS
 62
    7
 10
701.85243416699166
 20
298.85509370390054
 11
701.90286882383009
 21
299.20238999596569
  0
LINE
  8
_0-8_
  6
CONTINUOUS
 62
    7
 10
695.2633407281495
 20
303.90238999596596
 11
695.16247137743756
 21
304.24968635129977
  0
LINE
  8
_0-8_
  6
CONTINUOUS
 62
    7
 10
695.16247137743756
 20
304.24968635129977
 11
694.86292818948073
 21
304.5864302826173
  0
LINE
  8
_0-8_
  6
CONTINUOUS
 62
    7
 10
694.86292818948073
 20
304.5864302826173
 11
694.3738126324688
 21
304.9023899959659
  0
LINE
  8
_0-8_
  6
CONTINUOUS
 62
    7
 10
694.3738126324688
 20
304.9023899959659
 11
693.7099862350974
 21
305.18796521533898
  0
LINE
  8
_0-8_
  6
CONTINUOUS
 62
    7
 10
693.7099862350974
 20
305.18796521533898
 11
692.89161902653802
 21
305.43447888220379
  0
LINE
  8
_0-8_
  6
CONTINUOUS
 62
    7
 10
692.89161902653802
 20
305.43447888220379
 11
691.94357668030921
 21
305.63444080353474
  0
LINE
  8
_0-8_
  6
CONTINUOUS
 62
    7
 10
691.94357668030921
 20
305.63444080353474
 11
690.89466498336844
 21
305.78177523753766
  0
LINE
  8
_0-8_
  6
CONTINUOUS
 62
    7
 10
690.89466498336844
 20
305.78177523753766
 11
689.77675458685223
 21
305.87200550199026
  0
LINE
  8
_0-8_
  6
CONTINUOUS
 62
    7
 10
689.77675458685223
 20
305.87200550199026
 11
688.62381263246891
 21
305.90238999596585
  0
LINE
  8
_0-8_
  6
CONTINUOUS
 62
    7
 10
688.62381263246891
 20
305.90238999596585
 11
687.47087067808559
 21
305.87200550199026
  0
LINE
  8
_0-8_
  6
CONTINUOUS
 62
    7
 10
687.47087067808559
 20
305.87200550199026
 11
686.35296028156938
 21
305.78177523753766
  0
LINE
  8
_0-8_
  6
CONTINUOUS
 62
    7
 10
686.35296028156938
 20
305.78177523753766
 11
685.30404858462862
 21
305.63444080353474
  0
LINE
  8
_0-8_
  6
CONTINUOUS
 62
    7
 10
685.30404858462862
 20
305.63444080353474
 11
684.3560062383998
 21
305.43447888220379
  0
LINE
  8
_0-8_
  6
CONTINUOUS
 62
    7
 10
684.3560062383998
 20
305.43447888220379
 11
683.53763902984042
 21
305.18796521533898
  0
LINE
  8
_0-8_
  6
CONTINUOUS
 62
    7
 10
683.53763902984042
 20
305.18796521533898
 11
682.87381263246903
 21
304.9023899959659
  0
LINE
  8
_0-8_
  6
CONTINUOUS
 62
    7
 10
682.87381263246903
 20
304.9023899959659
 11
682.3846970754571
 21
304.5864302826173
  0
LINE
  8
_0-8_
  6
CONTINUOUS
 62
    7
 10
682.3846970754571
 20
304.5864302826173
 11
682.08515388750027
 21
304.24968635129977
  0
LINE
  8
_0-8_
  6
CONTINUOUS
 62
    7
 10
682.08515388750027
 20
304.24968635129977
 11
681.98428453678832
 21
303.90238999596596
  0
LINE
  8
_0-8_
  6
CONTINUOUS
 62
    7
 10
701.90286882383009
 20
303.90238999596596
 11
701.85243414847412
 21
304.24968635129977
  0
LINE
  8
_0-8_
  6
CONTINUOUS
 62
    7
 10
701.85243414847412
 20
304.24968635129977
 11
701.70266255449565
 21
304.5864302826173
  0
LINE
  8
_0-8_
  6
CONTINUOUS
 62
    7
 10
701.70266255449565
 20
304.5864302826173
 11
701.4581047759898
 21
304.9023899959659
  0
LINE
  8
_0-8_
  6
CONTINUOUS
 62
    7
 10
701.4581047759898
 20
304.9023899959659
 11
701.12619157730398
 21
305.18796521533898
  0
LINE
  8
_0-8_
  6
CONTINUOUS
 62
    7
 10
701.12619157730398
 20
305.18796521533898
 11
700.71700797302435
 21
305.43447888220379
  0
LINE
  8
_0-8_
  6
CONTINUOUS
 62
    7
 10
700.71700797302435
 20
305.43447888220379
 11
700.24298679991
 21
305.63444080353474
  0
LINE
  8
_0-8_
  6
CONTINUOUS
 62
    7
 10
700.24298679991
 20
305.63444080353474
 11
699.71853095143956
 21
305.78177523753766
  0
LINE
  8
_0-8_
  6
CONTINUOUS
 62
    7
 10
699.71853095143956
 20
305.78177523753766
 11
699.15957575318146
 21
305.87200550199026
  0
LINE
  8
_0-8_
  6
CONTINUOUS
 62
    7
 10
699.15957575318146
 20
305.87200550199026
 11
698.5831047759898
 21
305.90238999596585
  0
LINE
  8
_0-8_
  6
CONTINUOUS
 62
    7
 10
698.5831047759898
 20
305.90238999596585
 11
698.00663379879813
 21
305.87200550199026
  0
LINE
  8
_0-8_
  6
CONTINUOUS
 62
    7
 10
698.00663379879813
 20
305.87200550199026
 11
697.44767860054003
 21
305.78177523753766
  0
LINE
  8
_0-8_
  6
CONTINUOUS
 62
    7
 10
697.44767860054003
 20
305.78177523753766
 11
696.92322275206971
 21
305.63444080353474
  0
LINE
  8
_0-8_
  6
CONTINUOUS
 62
    7
 10
696.92322275206971
 20
305.63444080353474
 11
696.44920157895524
 21
305.43447888220379
  0
LINE
  8
_0-8_
  6
CONTINUOUS
 62
    7
 10
696.44920157895524
 20
305.43447888220379
 11
696.04001797467561
 21
305.18796521533898
  0
LINE
  8
_0-8_
  6
CONTINUOUS
 62
    7
 10
696.04001797467561
 20
305.18796521533898
 11
695.7081047759898
 21
304.9023899959659
  0
LINE
  8
_0-8_
  6
CONTINUOUS
 62
    7
 10
695.7081047759898
 20
304.9023899959659
 11
695.46354699748395
 21
304.5864302826173
  0
LINE
  8
_0-8_
  6
CONTINUOUS
 62
    7
 10
695.46354699748395
 20
304.5864302826173
 11
695.31377540350547
 21
304.24968635129977
  0
LINE
  8
_0-8_
  6
CONTINUOUS
 62
    7
 10
695.31377540350547
 20
304.24968635129977
 11
695.2633407281495
 21
303.90239006021068
  0
LINE
  8
_0-8_
  6
CONTINUOUS
 62
    7
 10
681.98428453678832
 20
303.90239006021068
 11
681.9338498429147
 21
304.24968641456849
  0
LINE
  8
_0-8_
  6
CONTINUOUS
 62
    7
 10
681.9338498429147
 20
304.24968641456849
 11
681.78407823098132
 21
304.58643034298751
  0
LINE
  8
_0-8_
  6
CONTINUOUS
 62
    7
 10
681.78407823098132
 20
304.58643034298751
 11
681.53952043562867
 21
304.90239005160345
  0
LINE
  8
_0-8_
  6
CONTINUOUS
 62
    7
 10
681.53952043562867
 20
304.90239005160345
 11
681.20760722171622
 21
305.18796526455327
  0
LINE
  8
_0-8_
  6
CONTINUOUS
 62
    7
 10
681.20760722171622
 20
305.18796526455327
 11
680.79842360429268
 21
305.43447892349951
  0
LINE
  8
_0-8_
  6
CONTINUOUS
 62
    7
 10
680.79842360429268
 20
305.43447892349951
 11
680.32440242051644
 21
305.63444083565713
  0
LINE
  8
_0-8_
  6
CONTINUOUS
 62
    7
 10
680.32440242051644
 20
305.63444083565713
 11
679.79994656419024
 21
305.78177525951065
  0
LINE
  8
_0-8_
  6
CONTINUOUS
 62
    7
 10
679.79994656419024
 20
305.78177525951065
 11
679.24099136112113
 21
305.87200551314623
  0
LINE
  8
_0-8_
  6
CONTINUOUS
 62
    7
 10
679.24099136112113
 20
305.87200551314623
 11
678.66452038230943
 21
305.90238999596585
  0
LINE
  8
_0-8_
  6
CONTINUOUS
 62
    7
 10
678.66452038230943
 20
305.90238999596585
 11
678.08804940673781
 21
305.87200549083428
  0
LINE
  8
_0-8_
  6
CONTINUOUS
 62
    7
 10
678.08804940673781
 20
305.87200549083428
 11
677.5290942132907
 21
305.78177521556466
  0
LINE
  8
_0-8_
  6
CONTINUOUS
 62
    7
 10
677.5290942132907
 20
305.78177521556466
 11
677.00463837267614
 21
305.63444077141236
  0
LINE
  8
_0-8_
  6
CONTINUOUS
 62
    7
 10
677.00463837267614
 20
305.63444077141236
 11
676.53061721022357
 21
305.43447884090813
  0
LINE
  8
_0-8_
  6
CONTINUOUS
 62
    7
 10
676.53061721022357
 20
305.43447884090813
 11
676.12143361908784
 21
305.18796516612468
  0
LINE
  8
_0-8_
  6
CONTINUOUS
 62
    7
 10
676.12143361908784
 20
305.18796516612468
 11
675.78952043562879
 21
304.90238994032836
  0
LINE
  8
_0-8_
  6
CONTINUOUS
 62
    7
 10
675.78952043562879
 20
304.90238994032836
 11
675.54496267396962
 21
304.58643022224697
  0
LINE
  8
_0-8_
  6
CONTINUOUS
 62
    7
 10
675.54496267396962
 20
304.58643022224697
 11
675.39519109794617
 21
304.24968628803111
  0
LINE
  8
_0-8_
  6
CONTINUOUS
 62
    7
 10
675.39519109794617
 20
304.24968628803111
 11
675.34475644110773
 21
303.90238999596596
  0
LINE
  8
_0-8_
  6
CONTINUOUS
 62
    7
 10
696.62381259768711
 20
297.2023899959658
 11
696.62381259768711
 21
232.9023859959654
  0
LINE
  8
_0-8_
  6
CONTINUOUS
 62
    7
 10
695.72381253708716
 20
232.9023859959654
 11
695.72381253708716
 21
297.2023899959658
  0
LINE
  8
_0-8_
  6
CONTINUOUS
 62
    7
 10
681.52381272778689
 20
297.2023899959658
 11
681.52381272778689
 21
232.9023859959654
  0
LINE
  8
_0-8_
  6
CONTINUOUS
 62
    7
 10
680.62381259768688
 20
232.9023859959654
 11
680.62381259768688
 21
297.2023899959658
  0
LINE
  8
_0-9_
  6
PHANTOM1
 62
  152
 10
663.62381263246891
 20
272.90238599596495
 11
663.62381263246891
 21
275.90238599596563
  0
LINE
  8
_0-9_
  6
PHANTOM1
 62
  152
 10
665.57381263246873
 20
269.9023859959654
 11
665.57381263246873
 21
272.90238599596495
  0
LINE
  8
_0-9_
  6
PHANTOM1
 62
  152
 10
663.87381263246868
 20
275.90238599596563
 11
663.87381263246868
 21
283.40238599596563
  0
ARC
  8
_0-9_
  6
PHANTOM1
 62
  152
 10
666.87381263246891
 20
283.40238599596563
 40
2.9999999999999858
 50
89.999999999999829
 51
180.0000000000002
  0
LINE
  8
_0-9_
  6
PHANTOM1
 62
  152
 10
711.67381263246955
 20
269.9023859959654
 11
665.57381263246873
 21
269.9023859959654
  0
ARC
  8
_0-9_
  6
PHANTOM1
 62
  152
 10
710.37381263246891
 20
283.40238599596563
 40
2.9999999999999933
 50
359.99999999999977
 51
90.000000000000199
  0
LINE
  8
_0-9_
  6
PHANTOM1
 62
  152
 10
713.37381263246914
 20
283.40238599596563
 11
713.37381263246914
 21
275.90238599596563
  0
LINE
  8
_0-9_
  6
PHANTOM1
 62
  152
 10
713.62381263246891
 20
275.90238599596563
 11
713.62381263246891
 21
272.90238599596495
  0
LINE
  8
_0-9_
  6
PHANTOM1
 62
  152
 10
711.67381263246955
 20
272.90238599596495
 11
711.67381263246955
 21
269.9023859959654
  0
LINE
  8
_0-9_
  6
PHANTOM1
 62
  152
 10
663.62381263246891
 20
275.90238599596563
 11
663.87381263246868
 21
275.90238599596563
  0
LINE
  8
_0-9_
  6
PHANTOM1
 62
  152
 10
713.37381263246914
 20
275.90238599596563
 11
713.62381263246891
 21
275.90238599596563
  0
LINE
  8
_0-9_
  6
PHANTOM1
 62
  152
 10
713.62381263246891
 20
272.90238599596495
 11
711.67381263246955
 21
272.90238599596495
  0
LINE
  8
_0-9_
  6
PHANTOM1
 62
  152
 10
665.57381263246873
 20
272.90238599596495
 11
663.62381263246891
 21
272.90238599596495
  0
LINE
  8
_0-9_
  6
PHANTOM1
 62
  152
 10
706.62381263246891
 20
286.40238599596518
 11
710.37381263246891
 21
286.40238599596518
  0
LINE
  8
_0-9_
  6
PHANTOM1
 62
  152
 10
675.9221067102975
 20
295.90238599596495
 11
675.9221067102975
 21
288.80238599596527
  0
LINE
  8
_0-9_
  6
PHANTOM1
 62
  152
 10
706.62381263246891
 20
286.40238599596518
 11
706.62381263246891
 21
286.80238599596549
  0
LINE
  8
_0-9_
  6
PHANTOM1
 62
  152
 10
670.87381263246846
 20
286.80238599596549
 11
670.87381263246846
 21
286.40238599596518
  0
LINE
  8
_0-9_
  6
PHANTOM1
 62
  152
 10
666.87381263246891
 20
286.40238599596518
 11
670.87381263246846
 21
286.40238599596518
  0
LINE
  8
_0-9_
  6
PHANTOM1
 62
  152
 10
698.15009207409719
 20
286.80238599596538
 11
698.15009207409719
 21
286.80238599596538
  0
LINE
  8
_0-9_
  6
PHANTOM1
 62
  152
 10
698.15009207409719
 20
286.80238599596538
 11
698.70149909575866
 21
286.83277048994097
  0
LINE
  8
_0-9_
  6
PHANTOM1
 62
  152
 10
698.70149909575866
 20
286.83277048994097
 11
699.23615189409247
 21
286.92300075439357
  0
LINE
  8
_0-9_
  6
PHANTOM1
 62
  152
 10
699.23615189409247
 20
286.92300075439357
 11
699.73780531436853
 21
287.07033518839648
  0
LINE
  8
_0-9_
  6
PHANTOM1
 62
  152
 10
699.73780531436853
 20
287.07033518839648
 11
700.19121687126051
 21
287.27029710972738
  0
LINE
  8
_0-9_
  6
PHANTOM1
 62
  152
 10
700.19121687126051
 20
287.27029710972738
 11
700.5826098840497
 21
287.51681077659225
  0
LINE
  8
_0-9_
  6
PHANTOM1
 62
  152
 10
700.5826098840497
 20
287.51681077659225
 11
700.90009207409685
 21
287.80238599596532
  0
LINE
  8
_0-9_
  6
PHANTOM1
 62
  152
 10
700.90009207409685
 20
287.80238599596532
 11
701.13401690571118
 21
288.11834570931399
  0
LINE
  8
_0-9_
  6
PHANTOM1
 62
  152
 10
701.13401690571118
 20
288.11834570931399
 11
701.27727669125579
 21
288.4550896406314
  0
LINE
  8
_0-9_
  6
PHANTOM1
 62
  152
 10
701.27727669125579
 20
288.4550896406314
 11
701.32551855463976
 21
288.80238599596527
  0
LINE
  8
_0-9_
  6
PHANTOM1
 62
  152
 10
706.62381263246891
 20
286.80238599596549
 11
698.15009207409719
 21
286.80238599596549
  0
LINE
  8
_0-9_
  6
PHANTOM1
 62
  152
 10
670.87381263246846
 20
286.80238599596549
 11
679.09753319084064
 21
286.80238599596549
  0
LINE
  8
_0-9_
  6
PHANTOM1
 62
  152
 10
675.92210671029807
 20
288.80238599596527
 11
675.92210671029807
 21
288.80238599596527
  0
LINE
  8
_0-9_
  6
PHANTOM1
 62
  152
 10
675.92210671029807
 20
288.80238599596527
 11
675.97034857368203
 21
288.4550896406314
  0
LINE
  8
_0-9_
  6
PHANTOM1
 62
  152
 10
675.97034857368203
 20
288.4550896406314
 11
676.11360835922665
 21
288.11834570931399
  0
LINE
  8
_0-9_
  6
PHANTOM1
 62
  152
 10
676.11360835922665
 20
288.11834570931399
 11
676.34753319084098
 21
287.80238599596532
  0
LINE
  8
_0-9_
  6
PHANTOM1
 62
  152
 10
676.34753319084098
 20
287.80238599596532
 11
676.66501538088812
 21
287.51681077659225
  0
LINE
  8
_0-9_
  6
PHANTOM1
 62
  152
 10
676.66501538088812
 20
287.51681077659225
 11
677.05640839367732
 21
287.27029710972738
  0
LINE
  8
_0-9_
  6
PHANTOM1
 62
  152
 10
677.05640839367732
 20
287.27029710972738
 11
677.50981995056929
 21
287.07033518839648
  0
LINE
  8
_0-9_
  6
PHANTOM1
 62
  152
 10
677.50981995056929
 20
287.07033518839648
 11
678.01147337084535
 21
286.92300075439357
  0
LINE
  8
_0-9_
  6
PHANTOM1
 62
  152
 10
678.01147337084535
 20
286.92300075439357
 11
678.54612616917916
 21
286.83277048994097
  0
LINE
  8
_0-9_
  6
PHANTOM1
 62
  152
 10
678.54612616917916
 20
286.83277048994097
 11
679.09753319084064
 21
286.80238599596538
  0
LINE
  8
_0-9_
  6
PHANTOM1
 62
  152
 10
701.32551855464033
 20
288.80238599596527
 11
701.32551855464033
 21
295.90238599596495
  0
LINE
  8
_0-8_
  6
CONTINUOUS
 62
  152
 10
846.96656924175693
 20
219.70238599596564
 11
796.96656924175693
 21
219.70238599596564
  0
LINE
  8
_0-8_
  6
CONTINUOUS
 62
    7
 10
796.71656924175716
 20
211.90238599596563
 11
796.71656924175716
 21
208.90238599596552
  0
LINE
  8
_0-8_
  6
CONTINUOUS
 62
    7
 10
796.71656924175716
 20
208.90238599596552
 11
847.2165692417567
 21
208.90238599596552
  0
LINE
  8
_0-8_
  6
CONTINUOUS
 62
    7
 10
847.2165692417567
 20
208.90238599596552
 11
847.2165692417567
 21
211.90238599596563
  0
LINE
  8
_0-8_
  6
CONTINUOUS
 62
    7
 10
847.2165692417567
 20
211.90238599596563
 11
796.71656924175716
 21
211.90238599596563
  0
LINE
  8
_0-8_
  6
CONTINUOUS
 62
    7
 10
798.66656924175709
 20
208.90238599596552
 11
798.66656924175709
 21
205.9023859959654
  0
LINE
  8
_0-8_
  6
CONTINUOUS
 62
    7
 10
798.66656924175709
 20
205.9023859959654
 11
845.26656924175734
 21
205.9023859959654
  0
LINE
  8
_0-8_
  6
CONTINUOUS
 62
    7
 10
845.26656924175734
 20
205.9023859959654
 11
845.26656924175734
 21
208.90238599596552
  0
LINE
  8
_0-8_
  6
CONTINUOUS
 62
    7
 10
809.26486331958552
 20
232.9023859959654
 11
834.66827516392834
 21
232.9023859959654
  0
LINE
  8
_0-8_
  6
CONTINUOUS
 62
    7
 10
815.61571628067122
 20
232.9023859959654
 11
815.61571628067122
 21
225.10238599596551
  0
LINE
  8
_0-8_
  6
CONTINUOUS
 62
    7
 10
809.26486331958552
 20
225.10238599596551
 11
809.26486331958552
 21
232.9023859959654
  0
LINE
  8
_0-8_
  6
CONTINUOUS
 62
    7
 10
834.66827516392834
 20
232.9023859959654
 11
834.66827516392834
 21
225.10238599596551
  0
LINE
  8
_0-8_
  6
CONTINUOUS
 62
    7
 10
828.31742220067122
 20
225.10238599596551
 11
828.31742220067122
 21
232.9023859959654
  0
LINE
  8
_0-8_
  6
CONTINUOUS
 62
    7
 10
839.96656924175704
 20
223.10238599596562
 11
839.96656924175704
 21
222.70238599596541
  0
LINE
  8
_0-8_
  6
CONTINUOUS
 62
    7
 10
839.96656924175704
 20
223.10238599596562
 11
803.96656924175682
 21
223.10238599596562
  0
LINE
  8
_0-8_
  6
CONTINUOUS
 62
    7
 10
803.96656924175682
 20
223.10238599596562
 11
803.96656924175682
 21
222.70238599596541
  0
LINE
  8
_0-8_
  6
CONTINUOUS
 62
    7
 10
799.96656924175704
 20
222.70238599596541
 11
843.9665692414618
 21
222.70238599596541
  0
LINE
  8
_0-8_
  6
CONTINUOUS
 62
    7
 10
796.96656924175693
 20
219.70238599596564
 11
796.96656924175693
 21
211.90238599596563
  0
LINE
  8
_0-8_
  6
CONTINUOUS
 62
    7
 10
846.96656924175693
 20
211.90238599596563
 11
846.96656924175693
 21
219.70238599596564
  0
ARC
  8
_0-8_
  6
CONTINUOUS
 62
    7
 10
799.96656924175704
 20
219.70238599596564
 40
2.9999999999999858
 50
89.999999999999829
 51
180.0000000000002
  0
ARC
  8
_0-8_
  6
CONTINUOUS
 62
    7
 10
843.96656924175682
 20
219.70238599596564
 40
2.9999999999999933
 50
359.99999999999977
 51
90.000000000000199
  0
LINE
  8
_0-8_
  6
CONTINUOUS
 62
    7
 10
809.26486331958608
 20
225.10238599596551
 11
809.31310518297005
 21
224.7550896406317
  0
LINE
  8
_0-8_
  6
CONTINUOUS
 62
    7
 10
809.31310518297005
 20
224.7550896406317
 11
809.45636496851466
 21
224.41834570931422
  0
LINE
  8
_0-8_
  6
CONTINUOUS
 62
    7
 10
809.45636496851466
 20
224.41834570931422
 11
809.69028980012899
 21
224.10238599596556
  0
LINE
  8
_0-8_
  6
CONTINUOUS
 62
    7
 10
809.69028980012899
 20
224.10238599596556
 11
810.00777199017614
 21
223.81681077659249
  0
LINE
  8
_0-8_
  6
CONTINUOUS
 62
    7
 10
810.00777199017614
 20
223.81681077659249
 11
810.39916500296533
 21
223.57029710972762
  0
LINE
  8
_0-8_
  6
CONTINUOUS
 62
    7
 10
810.39916500296533
 20
223.57029710972762
 11
810.85257655985731
 21
223.37033518839672
  0
LINE
  8
_0-8_
  6
CONTINUOUS
 62
    7
 10
810.85257655985731
 20
223.37033518839672
 11
811.35422998013337
 21
223.22300075439381
  0
LINE
  8
_0-8_
  6
CONTINUOUS
 62
    7
 10
811.35422998013337
 20
223.22300075439381
 11
811.88888277846718
 21
223.13277048994121
  0
LINE
  8
_0-8_
  6
CONTINUOUS
 62
    7
 10
811.88888277846718
 20
223.13277048994121
 11
812.44028980012865
 21
223.10238599596562
  0
LINE
  8
_0-8_
  6
CONTINUOUS
 62
    7
 10
812.44028980012865
 20
223.10238599596562
 11
812.99169682179013
 21
223.13277048994121
  0
LINE
  8
_0-8_
  6
CONTINUOUS
 62
    7
 10
812.99169682179013
 20
223.13277048994121
 11
813.52634962012394
 21
223.22300075439381
  0
LINE
  8
_0-8_
  6
CONTINUOUS
 62
    7
 10
813.52634962012394
 20
223.22300075439381
 11
814.02800304039988
 21
223.37033518839672
  0
LINE
  8
_0-8_
  6
CONTINUOUS
 62
    7
 10
814.02800304039988
 20
223.37033518839672
 11
814.48141459729197
 21
223.57029710972762
  0
LINE
  8
_0-8_
  6
CONTINUOUS
 62
    7
 10
814.48141459729197
 20
223.57029710972762
 11
814.87280761008117
 21
223.81681077659249
  0
LINE
  8
_0-8_
  6
CONTINUOUS
 62
    7
 10
814.87280761008117
 20
223.81681077659249
 11
815.19028980012831
 21
224.10238599596556
  0
LINE
  8
_0-8_
  6
CONTINUOUS
 62
    7
 10
815.19028980012831
 20
224.10238599596556
 11
815.42421463174264
 21
224.41834570931422
  0
LINE
  8
_0-8_
  6
CONTINUOUS
 62
    7
 10
815.42421463174264
 20
224.41834570931422
 11
815.56747441728726
 21
224.7550896406317
  0
LINE
  8
_0-8_
  6
CONTINUOUS
 62
    7
 10
815.56747441728726
 20
224.7550896406317
 11
815.61571628067122
 21
225.10238599596551
  0
LINE
  8
_0-8_
  6
CONTINUOUS
 62
    7
 10
815.61571628067122
 20
225.10238599596551
 11
815.61571628067122
 21
225.10238613959433
  0
LINE
  8
_0-8_
  6
CONTINUOUS
 62
    7
 10
815.61571628067122
 20
225.10238613959433
 11
815.71219992822478
 21
224.75508978207847
  0
LINE
  8
_0-8_
  6
CONTINUOUS
 62
    7
 10
815.71219992822478
 20
224.75508978207847
 11
815.99871942247341
 21
224.41834584428113
  0
LINE
  8
_0-8_
  6
CONTINUOUS
 62
    7
 10
815.99871942247341
 20
224.41834584428113
 11
816.46656901357028
 21
224.10238612035175
  0
LINE
  8
_0-8_
  6
CONTINUOUS
 62
    7
 10
816.46656901357028
 20
224.10238612035175
 11
817.10153332843322
 21
223.81681088661855
  0
LINE
  8
_0-8_
  6
CONTINUOUS
 62
    7
 10
817.10153332843322
 20
223.81681088661855
 11
817.8843192976625
 21
223.57029720205048
  0
LINE
  8
_0-8_
  6
CONTINUOUS
 62
    7
 10
817.8843192976625
 20
223.57029720205048
 11
818.79114236569194
 21
223.37033526021116
  0
LINE
  8
_0-8_
  6
CONTINUOUS
 62
    7
 10
818.79114236569194
 20
223.37033526021116
 11
819.79444917247417
 21
223.22300080351772
  0
LINE
  8
_0-8_
  6
CONTINUOUS
 62
    7
 10
819.79444917247417
 20
223.22300080351772
 11
820.86375474838269
 21
223.13277051488211
  0
LINE
  8
_0-8_
  6
CONTINUOUS
 62
    7
 10
820.86375474838269
 20
223.13277051488211
 11
821.96656878458839
 21
223.10238599596562
  0
LINE
  8
_0-8_
  6
CONTINUOUS
 62
    7
 10
821.96656878458839
 20
223.10238599596562
 11
823.06938283465195
 21
223.13277046500031
  0
LINE
  8
_0-8_
  6
CONTINUOUS
 62
    7
 10
823.06938283465195
 20
223.13277046500031
 11
824.13868845171305
 21
223.22300070526984
  0
LINE
  8
_0-8_
  6
CONTINUOUS
 62
    7
 10
824.13868845171305
 20
223.22300070526984
 11
825.14199532569194
 21
223.37033511658234
  0
LINE
  8
_0-8_
  6
CONTINUOUS
 62
    7
 10
825.14199532569194
 20
223.37033511658234
 11
826.04881848492062
 21
223.57029701740481
  0
LINE
  8
_0-8_
  6
CONTINUOUS
 62
    7
 10
826.04881848492062
 20
223.57029701740481
 11
826.83160456658061
 21
223.81681066656643
  0
LINE
  8
_0-8_
  6
CONTINUOUS
 62
    7
 10
826.83160456658061
 20
223.81681066656643
 11
827.46656901168944
 21
224.10238587157937
  0
LINE
  8
_0-8_
  6
CONTINUOUS
 62
    7
 10
827.46656901168944
 20
224.10238587157937
 11
827.93441874689006
 21
224.41834557434726
  0
LINE
  8
_0-8_
  6
CONTINUOUS
 62
    7
 10
827.93441874689006
 20
224.41834557434726
 11
828.22093839472177
 21
224.75508949918486
  0
LINE
  8
_0-8_
  6
CONTINUOUS
 62
    7
 10
828.22093839472177
 20
224.75508949918486
 11
828.31742220067122
 21
225.10238585233668
  0
LINE
  8
_0-8_
  6
CONTINUOUS
 62
    7
 10
828.31742220067122
 20
225.10238585233668
 11
828.31742220067122
 21
225.10238599596551
  0
LINE
  8
_0-8_
  6
CONTINUOUS
 62
    7
 10
828.31742220284264
 20
225.10238613959433
 11
828.36566402662766
 21
224.75508978207847
  0
LINE
  8
_0-8_
  6
CONTINUOUS
 62
    7
 10
828.36566402662766
 20
224.75508978207847
 11
828.50892377377647
 21
224.41834584428113
  0
LINE
  8
_0-8_
  6
CONTINUOUS
 62
    7
 10
828.50892377377647
 20
224.41834584428113
 11
828.74284856936481
 21
224.10238612035175
  0
LINE
  8
_0-8_
  6
CONTINUOUS
 62
    7
 10
828.74284856936481
 20
224.10238612035175
 11
829.06033072685057
 21
223.81681088661855
  0
LINE
  8
_0-8_
  6
CONTINUOUS
 62
    7
 10
829.06033072685057
 20
223.81681088661855
 11
829.45172371153205
 21
223.57029720205048
  0
LINE
  8
_0-8_
  6
CONTINUOUS
 62
    7
 10
829.45172371153205
 20
223.57029720205048
 11
829.90513524562425
 21
223.37033526021116
  0
LINE
  8
_0-8_
  6
CONTINUOUS
 62
    7
 10
829.90513524562425
 20
223.37033526021116
 11
830.40678864910114
 21
223.22300080351772
  0
LINE
  8
_0-8_
  6
CONTINUOUS
 62
    7
 10
830.40678864910114
 20
223.22300080351772
 11
830.94144143714675
 21
223.13277051488211
  0
LINE
  8
_0-8_
  6
CONTINUOUS
 62
    7
 10
830.94144143714675
 20
223.13277051488211
 11
831.49284845534385
 21
223.10238599596562
  0
LINE
  8
_0-8_
  6
CONTINUOUS
 62
    7
 10
831.49284845534385
 20
223.10238599596562
 11
832.04425548046981
 21
223.13277046500031
  0
LINE
  8
_0-8_
  6
CONTINUOUS
 62
    7
 10
832.04425548046981
 20
223.13277046500031
 11
832.57890828909171
 21
223.22300070526984
  0
LINE
  8
_0-8_
  6
CONTINUOUS
 62
    7
 10
832.57890828909171
 20
223.22300070526984
 11
833.08056172616682
 21
223.37033511658234
  0
LINE
  8
_0-8_
  6
CONTINUOUS
 62
    7
 10
833.08056172616682
 20
223.37033511658234
 11
833.53397330585869
 21
223.57029701740481
  0
LINE
  8
_0-8_
  6
CONTINUOUS
 62
    7
 10
833.53397330585869
 20
223.57029701740481
 11
833.92536634675548
 21
223.81681066656643
  0
LINE
  8
_0-8_
  6
CONTINUOUS
 62
    7
 10
833.92536634675548
 20
223.81681066656643
 11
834.24284856936413
 21
224.10238587157937
  0
LINE
  8
_0-8_
  6
CONTINUOUS
 62
    7
 10
834.24284856936413
 20
224.10238587157937
 11
834.47677343700445
 21
224.41834557434726
  0
LINE
  8
_0-8_
  6
CONTINUOUS
 62
    7
 10
834.47677343700445
 20
224.41834557434726
 11
834.62003326094487
 21
224.75508949918486
  0
LINE
  8
_0-8_
  6
CONTINUOUS
 62
    7
 10
834.62003326094487
 20
224.75508949918486
 11
834.66827516392777
 21
225.10238585233668
  0
LINE
  8
_0-8_
  6
CONTINUOUS
 62
    7
 10
834.66827516392777
 20
225.10238585233668
 11
834.66827516392777
 21
225.10238599596551
  0
LINE
  8
_0-8_
  6
CONTINUOUS
 62
    7
 10
808.68751305039575
 20
303.90238999596596
 11
808.68751305039575
 21
299.20238999596569
  0
LINE
  8
_0-8_
  6
CONTINUOUS
 62
    7
 10
812.00727709823605
 20
297.2023899959658
 11
831.92586138527781
 21
297.2023899959658
  0
LINE
  8
_0-8_
  6
CONTINUOUS
 62
    7
 10
828.60609733743752
 20
299.20238999596569
 11
828.60609733743752
 21
303.90238999596596
  0
LINE
  8
_0-8_
  6
CONTINUOUS
 62
    7
 10
831.92586138527781
 20
305.90238999596585
 11
812.00727709823605
 21
305.90238999596585
  0
LINE
  8
_0-8_
  6
CONTINUOUS
 62
    7
 10
815.32704114607634
 20
303.90238999596596
 11
815.32704114607634
 21
299.20238999596569
  0
LINE
  8
_0-8_
  6
CONTINUOUS
 62
    7
 10
835.24562543311811
 20
299.20238999596569
 11
835.24562543311811
 21
303.90238999596596
  0
LINE
  8
_0-8_
  6
CONTINUOUS
 62
    7
 10
808.68751305039575
 20
299.20238999596569
 11
808.73794772575172
 21
298.85509364063188
  0
LINE
  8
_0-8_
  6
CONTINUOUS
 62
    7
 10
808.73794772575172
 20
298.85509364063188
 11
808.88771931973019
 21
298.51834970931435
  0
LINE
  8
_0-8_
  6
CONTINUOUS
 62
    7
 10
808.88771931973019
 20
298.51834970931435
 11
809.13227709823605
 21
298.20238999596575
  0
LINE
  8
_0-8_
  6
CONTINUOUS
 62
    7
 10
809.13227709823605
 20
298.20238999596575
 11
809.46419029692186
 21
297.91681477659267
  0
LINE
  8
_0-8_
  6
CONTINUOUS
 62
    7
 10
809.46419029692186
 20
297.91681477659267
 11
809.87337390120149
 21
297.67030110972786
  0
LINE
  8
_0-8_
  6
CONTINUOUS
 62
    7
 10
809.87337390120149
 20
297.67030110972786
 11
810.34739507431584
 21
297.47033918839691
  0
LINE
  8
_0-8_
  6
CONTINUOUS
 62
    7
 10
810.34739507431584
 20
297.47033918839691
 11
810.87185092278628
 21
297.32300475439399
  0
LINE
  8
_0-8_
  6
CONTINUOUS
 62
    7
 10
810.87185092278628
 20
297.32300475439399
 11
811.43080612104438
 21
297.23277448994139
  0
LINE
  8
_0-8_
  6
CONTINUOUS
 62
    7
 10
811.43080612104438
 20
297.23277448994139
 11
812.00727709823605
 21
297.2023899959658
  0
LINE
  8
_0-8_
  6
CONTINUOUS
 62
    7
 10
812.00727709823605
 20
297.2023899959658
 11
812.58374807542771
 21
297.23277448994139
  0
LINE
  8
_0-8_
  6
CONTINUOUS
 62
    7
 10
812.58374807542771
 20
297.23277448994139
 11
813.14270327368581
 21
297.32300475439399
  0
LINE
  8
_0-8_
  6
CONTINUOUS
 62
    7
 10
813.14270327368581
 20
297.32300475439399
 11
813.66715912215614
 21
297.47033918839691
  0
LINE
  8
_0-8_
  6
CONTINUOUS
 62
    7
 10
813.66715912215614
 20
297.47033918839691
 11
814.1411802952706
 21
297.67030110972786
  0
LINE
  8
_0-8_
  6
CONTINUOUS
 62
    7
 10
814.1411802952706
 20
297.67030110972786
 11
814.55036389955023
 21
297.91681477659267
  0
LINE
  8
_0-8_
  6
CONTINUOUS
 62
    7
 10
814.55036389955023
 20
297.91681477659267
 11
814.88227709823605
 21
298.20238999596575
  0
LINE
  8
_0-8_
  6
CONTINUOUS
 62
    7
 10
814.88227709823605
 20
298.20238999596575
 11
815.1268348767419
 21
298.51834970931435
  0
LINE
  8
_0-8_
  6
CONTINUOUS
 62
    7
 10
815.1268348767419
 20
298.51834970931435
 11
815.27660647072037
 21
298.85509364063188
  0
LINE
  8
_0-8_
  6
CONTINUOUS
 62
    7
 10
815.27660647072037
 20
298.85509364063188
 11
815.32704114607634
 21
299.20238993172097
  0
LINE
  8
_0-8_
  6
CONTINUOUS
 62
    7
 10
815.32704114607634
 20
299.20238999596569
 11
815.42791049678829
 21
298.85509364063188
  0
LINE
  8
_0-8_
  6
CONTINUOUS
 62
    7
 10
815.42791049678829
 20
298.85509364063188
 11
815.72745368474511
 21
298.51834970931435
  0
LINE
  8
_0-8_
  6
CONTINUOUS
 62
    7
 10
815.72745368474511
 20
298.51834970931435
 11
816.21656924175704
 21
298.20238999596575
  0
LINE
  8
_0-8_
  6
CONTINUOUS
 62
    7
 10
816.21656924175704
 20
298.20238999596575
 11
816.88039563912844
 21
297.91681477659267
  0
LINE
  8
_0-8_
  6
CONTINUOUS
 62
    7
 10
816.88039563912844
 20
297.91681477659267
 11
817.69876284768782
 21
297.67030110972786
  0
LINE
  8
_0-8_
  6
CONTINUOUS
 62
    7
 10
817.69876284768782
 20
297.67030110972786
 11
818.64680519391663
 21
297.47033918839691
  0
LINE
  8
_0-8_
  6
CONTINUOUS
 62
    7
 10
818.64680519391663
 20
297.47033918839691
 11
819.6957168908574
 21
297.32300475439399
  0
LINE
  8
_0-8_
  6
CONTINUOUS
 62
    7
 10
819.6957168908574
 20
297.32300475439399
 11
820.81362728737361
 21
297.23277448994139
  0
LINE
  8
_0-8_
  6
CONTINUOUS
 62
    7
 10
820.81362728737361
 20
297.23277448994139
 11
821.96656924175693
 21
297.2023899959658
  0
LINE
  8
_0-8_
  6
CONTINUOUS
 62
    7
 10
821.96656924175693
 20
297.2023899959658
 11
823.11951119614025
 21
297.23277448994139
  0
LINE
  8
_0-8_
  6
CONTINUOUS
 62
    7
 10
823.11951119614025
 20
297.23277448994139
 11
824.23742159265646
 21
297.32300475439399
  0
LINE
  8
_0-8_
  6
CONTINUOUS
 62
    7
 10
824.23742159265646
 20
297.32300475439399
 11
825.28633328959722
 21
297.47033918839691
  0
LINE
  8
_0-8_
  6
CONTINUOUS
 62
    7
 10
825.28633328959722
 20
297.47033918839691
 11
826.23437563582604
 21
297.67030110972786
  0
LINE
  8
_0-8_
  6
CONTINUOUS
 62
    7
 10
826.23437563582604
 20
297.67030110972786
 11
827.05274284438542
 21
297.91681477659267
  0
LINE
  8
_0-8_
  6
CONTINUOUS
 62
    7
 10
827.05274284438542
 20
297.91681477659267
 11
827.71656924175682
 21
298.20238999596575
  0
LINE
  8
_0-8_
  6
CONTINUOUS
 62
    7
 10
827.71656924175682
 20
298.20238999596575
 11
828.20568479876874
 21
298.51834970931435
  0
LINE
  8
_0-8_
  6
CONTINUOUS
 62
    7
 10
828.20568479876874
 20
298.51834970931435
 11
828.50522798672557
 21
298.85509364063188
  0
LINE
  8
_0-8_
  6
CONTINUOUS
 62
    7
 10
828.50522798672557
 20
298.85509364063188
 11
828.60609733743752
 21
299.20238999596569
  0
LINE
  8
_0-8_
  6
CONTINUOUS
 62
    7
 10
828.60609733743752
 20
299.20238993172097
 11
828.65653203131114
 21
298.85509357736316
  0
LINE
  8
_0-8_
  6
CONTINUOUS
 62
    7
 10
828.65653203131114
 20
298.85509357736316
 11
828.80630364324452
 21
298.51834964894414
  0
LINE
  8
_0-8_
  6
CONTINUOUS
 62
    7
 10
828.80630364324452
 20
298.51834964894414
 11
829.05086143859717
 21
298.2023899403282
  0
LINE
  8
_0-8_
  6
CONTINUOUS
 62
    7
 10
829.05086143859717
 20
298.2023899403282
 11
829.38277465250962
 21
297.91681472737838
  0
LINE
  8
_0-8_
  6
CONTINUOUS
 62
    7
 10
829.38277465250962
 20
297.91681472737838
 11
829.79195826993316
 21
297.67030106843214
  0
LINE
  8
_0-8_
  6
CONTINUOUS
 62
    7
 10
829.79195826993316
 20
297.67030106843214
 11
830.26597945370941
 21
297.47033915627452
  0
LINE
  8
_0-8_
  6
CONTINUOUS
 62
    7
 10
830.26597945370941
 20
297.47033915627452
 11
830.7904353100356
 21
297.323004732421
  0
LINE
  8
_0-8_
  6
CONTINUOUS
 62
    7
 10
830.7904353100356
 20
297.323004732421
 11
831.34939051310471
 21
297.23277447878542
  0
LINE
  8
_0-8_
  6
CONTINUOUS
 62
    7
 10
831.34939051310471
 20
297.23277447878542
 11
831.92586149191641
 21
297.2023899959658
  0
LINE
  8
_0-8_
  6
CONTINUOUS
 62
    7
 10
831.92586149191641
 20
297.2023899959658
 11
832.50233246748803
 21
297.23277450109737
  0
LINE
  8
_0-8_
  6
CONTINUOUS
 62
    7
 10
832.50233246748803
 20
297.23277450109737
 11
833.06128766093514
 21
297.32300477636699
  0
LINE
  8
_0-8_
  6
CONTINUOUS
 62
    7
 10
833.06128766093514
 20
297.32300477636699
 11
833.5857435015497
 21
297.47033922051929
  0
LINE
  8
_0-8_
  6
CONTINUOUS
 62
    7
 10
833.5857435015497
 20
297.47033922051929
 11
834.05976466400227
 21
297.67030115102352
  0
LINE
  8
_0-8_
  6
CONTINUOUS
 62
    7
 10
834.05976466400227
 20
297.67030115102352
 11
834.468948255138
 21
297.91681482580697
  0
LINE
  8
_0-8_
  6
CONTINUOUS
 62
    7
 10
834.468948255138
 20
297.91681482580697
 11
834.80086143859705
 21
298.20239005160329
  0
LINE
  8
_0-8_
  6
CONTINUOUS
 62
    7
 10
834.80086143859705
 20
298.20239005160329
 11
835.04541920025622
 21
298.51834976968468
  0
LINE
  8
_0-8_
  6
CONTINUOUS
 62
    7
 10
835.04541920025622
 20
298.51834976968468
 11
835.19519077627967
 21
298.85509370390054
  0
LINE
  8
_0-8_
  6
CONTINUOUS
 62
    7
 10
835.19519077627967
 20
298.85509370390054
 11
835.24562543311811
 21
299.20238999596569
  0
LINE
  8
_0-8_
  6
CONTINUOUS
 62
    7
 10
828.60609733743752
 20
303.90238999596596
 11
828.50522798672557
 21
304.24968635129977
  0
LINE
  8
_0-8_
  6
CONTINUOUS
 62
    7
 10
828.50522798672557
 20
304.24968635129977
 11
828.20568479876874
 21
304.5864302826173
  0
LINE
  8
_0-8_
  6
CONTINUOUS
 62
    7
 10
828.20568479876874
 20
304.5864302826173
 11
827.71656924175682
 21
304.9023899959659
  0
LINE
  8
_0-8_
  6
CONTINUOUS
 62
    7
 10
827.71656924175682
 20
304.9023899959659
 11
827.05274284438542
 21
305.18796521533898
  0
LINE
  8
_0-8_
  6
CONTINUOUS
 62
    7
 10
827.05274284438542
 20
305.18796521533898
 11
826.23437563582604
 21
305.43447888220379
  0
LINE
  8
_0-8_
  6
CONTINUOUS
 62
    7
 10
826.23437563582604
 20
305.43447888220379
 11
825.28633328959722
 21
305.63444080353474
  0
LINE
  8
_0-8_
  6
CONTINUOUS
 62
    7
 10
825.28633328959722
 20
305.63444080353474
 11
824.23742159265646
 21
305.78177523753766
  0
LINE
  8
_0-8_
  6
CONTINUOUS
 62
    7
 10
824.23742159265646
 20
305.78177523753766
 11
823.11951119614025
 21
305.87200550199026
  0
LINE
  8
_0-8_
  6
CONTINUOUS
 62
    7
 10
823.11951119614025
 20
305.87200550199026
 11
821.96656924175693
 21
305.90238999596585
  0
LINE
  8
_0-8_
  6
CONTINUOUS
 62
    7
 10
821.96656924175693
 20
305.90238999596585
 11
820.81362728737361
 21
305.87200550199026
  0
LINE
  8
_0-8_
  6
CONTINUOUS
 62
    7
 10
820.81362728737361
 20
305.87200550199026
 11
819.6957168908574
 21
305.78177523753766
  0
LINE
  8
_0-8_
  6
CONTINUOUS
 62
    7
 10
819.6957168908574
 20
305.78177523753766
 11
818.64680519391663
 21
305.63444080353474
  0
LINE
  8
_0-8_
  6
CONTINUOUS
 62
    7
 10
818.64680519391663
 20
305.63444080353474
 11
817.69876284768782
 21
305.43447888220379
  0
LINE
  8
_0-8_
  6
CONTINUOUS
 62
    7
 10
817.69876284768782
 20
305.43447888220379
 11
816.88039563912844
 21
305.18796521533898
  0
LINE
  8
_0-8_
  6
CONTINUOUS
 62
    7
 10
816.88039563912844
 20
305.18796521533898
 11
816.21656924175704
 21
304.9023899959659
  0
LINE
  8
_0-8_
  6
CONTINUOUS
 62
    7
 10
816.21656924175704
 20
304.9023899959659
 11
815.72745368474511
 21
304.5864302826173
  0
LINE
  8
_0-8_
  6
CONTINUOUS
 62
    7
 10
815.72745368474511
 20
304.5864302826173
 11
815.42791049678829
 21
304.24968635129977
  0
LINE
  8
_0-8_
  6
CONTINUOUS
 62
    7
 10
815.42791049678829
 20
304.24968635129977
 11
815.32704114607634
 21
303.90238999596596
  0
LINE
  8
_0-8_
  6
CONTINUOUS
 62
    7
 10
835.24562543311811
 20
303.90238999596596
 11
835.19519075776213
 21
304.24968635129977
  0
LINE
  8
_0-8_
  6
CONTINUOUS
 62
    7
 10
835.19519075776213
 20
304.24968635129977
 11
835.04541916378366
 21
304.5864302826173
  0
LINE
  8
_0-8_
  6
CONTINUOUS
 62
    7
 10
835.04541916378366
 20
304.5864302826173
 11
834.80086138527781
 21
304.9023899959659
  0
LINE
  8
_0-8_
  6
CONTINUOUS
 62
    7
 10
834.80086138527781
 20
304.9023899959659
 11
834.468948186592
 21
305.18796521533898
  0
LINE
  8
_0-8_
  6
CONTINUOUS
 62
    7
 10
834.468948186592
 20
305.18796521533898
 11
834.05976458231237
 21
305.43447888220379
  0
LINE
  8
_0-8_
  6
CONTINUOUS
 62
    7
 10
834.05976458231237
 20
305.43447888220379
 11
833.58574340919802
 21
305.63444080353474
  0
LINE
  8
_0-8_
  6
CONTINUOUS
 62
    7
 10
833.58574340919802
 20
305.63444080353474
 11
833.06128756072758
 21
305.78177523753766
  0
LINE
  8
_0-8_
  6
CONTINUOUS
 62
    7
 10
833.06128756072758
 20
305.78177523753766
 11
832.50233236246947
 21
305.87200550199026
  0
LINE
  8
_0-8_
  6
CONTINUOUS
 62
    7
 10
832.50233236246947
 20
305.87200550199026
 11
831.92586138527781
 21
305.90238999596585
  0
LINE
  8
_0-8_
  6
CONTINUOUS
 62
    7
 10
831.92586138527781
 20
305.90238999596585
 11
831.34939040808615
 21
305.87200550199026
  0
LINE
  8
_0-8_
  6
CONTINUOUS
 62
    7
 10
831.34939040808615
 20
305.87200550199026
 11
830.79043520982805
 21
305.78177523753766
  0
LINE
  8
_0-8_
  6
CONTINUOUS
 62
    7
 10
830.79043520982805
 20
305.78177523753766
 11
830.26597936135772
 21
305.63444080353474
  0
LINE
  8
_0-8_
  6
CONTINUOUS
 62
    7
 10
830.26597936135772
 20
305.63444080353474
 11
829.79195818824326
 21
305.43447888220379
  0
LINE
  8
_0-8_
  6
CONTINUOUS
 62
    7
 10
829.79195818824326
 20
305.43447888220379
 11
829.38277458396362
 21
305.18796521533898
  0
LINE
  8
_0-8_
  6
CONTINUOUS
 62
    7
 10
829.38277458396362
 20
305.18796521533898
 11
829.05086138527781
 21
304.9023899959659
  0
LINE
  8
_0-8_
  6
CONTINUOUS
 62
    7
 10
829.05086138527781
 20
304.9023899959659
 11
828.80630360677196
 21
304.5864302826173
  0
LINE
  8
_0-8_
  6
CONTINUOUS
 62
    7
 10
828.80630360677196
 20
304.5864302826173
 11
828.65653201279349
 21
304.24968635129977
  0
LINE
  8
_0-8_
  6
CONTINUOUS
 62
    7
 10
828.65653201279349
 20
304.24968635129977
 11
828.60609733743752
 21
303.90239006021068
  0
LINE
  8
_0-8_
  6
CONTINUOUS
 62
    7
 10
815.32704114607634
 20
303.90239006021068
 11
815.27660645220271
 21
304.24968641456849
  0
LINE
  8
_0-8_
  6
CONTINUOUS
 62
    7
 10
815.27660645220271
 20
304.24968641456849
 11
815.12683484026934
 21
304.58643034298751
  0
LINE
  8
_0-8_
  6
CONTINUOUS
 62
    7
 10
815.12683484026934
 20
304.58643034298751
 11
814.88227704491669
 21
304.90239005160345
  0
LINE
  8
_0-8_
  6
CONTINUOUS
 62
    7
 10
814.88227704491669
 20
304.90239005160345
 11
814.55036383100423
 21
305.18796526455327
  0
LINE
  8
_0-8_
  6
CONTINUOUS
 62
    7
 10
814.55036383100423
 20
305.18796526455327
 11
814.1411802135807
 21
305.43447892349951
  0
LINE
  8
_0-8_
  6
CONTINUOUS
 62
    7
 10
814.1411802135807
 20
305.43447892349951
 11
813.66715902980445
 21
305.63444083565713
  0
LINE
  8
_0-8_
  6
CONTINUOUS
 62
    7
 10
813.66715902980445
 20
305.63444083565713
 11
813.14270317347825
 21
305.78177525951065
  0
LINE
  8
_0-8_
  6
CONTINUOUS
 62
    7
 10
813.14270317347825
 20
305.78177525951065
 11
812.58374797040915
 21
305.87200551314623
  0
LINE
  8
_0-8_
  6
CONTINUOUS
 62
    7
 10
812.58374797040915
 20
305.87200551314623
 11
812.00727699159745
 21
305.90238999596585
  0
LINE
  8
_0-8_
  6
CONTINUOUS
 62
    7
 10
812.00727699159745
 20
305.90238999596585
 11
811.43080601602583
 21
305.87200549083428
  0
LINE
  8
_0-8_
  6
CONTINUOUS
 62
    7
 10
811.43080601602583
 20
305.87200549083428
 11
810.87185082257872
 21
305.78177521556466
  0
LINE
  8
_0-8_
  6
CONTINUOUS
 62
    7
 10
810.87185082257872
 20
305.78177521556466
 11
810.34739498196416
 21
305.63444077141236
  0
LINE
  8
_0-8_
  6
CONTINUOUS
 62
    7
 10
810.34739498196416
 20
305.63444077141236
 11
809.87337381951158
 21
305.43447884090813
  0
LINE
  8
_0-8_
  6
CONTINUOUS
 62
    7
 10
809.87337381951158
 20
305.43447884090813
 11
809.46419022837586
 21
305.18796516612468
  0
LINE
  8
_0-8_
  6
CONTINUOUS
 62
    7
 10
809.46419022837586
 20
305.18796516612468
 11
809.1322770449168
 21
304.90238994032836
  0
LINE
  8
_0-8_
  6
CONTINUOUS
 62
    7
 10
809.1322770449168
 20
304.90238994032836
 11
808.88771928325764
 21
304.58643022224697
  0
LINE
  8
_0-8_
  6
CONTINUOUS
 62
    7
 10
808.88771928325764
 20
304.58643022224697
 11
808.73794770723418
 21
304.24968628803111
  0
LINE
  8
_0-8_
  6
CONTINUOUS
 62
    7
 10
808.73794770723418
 20
304.24968628803111
 11
808.68751305039575
 21
303.90238999596596
  0
LINE
  8
_0-8_
  6
CONTINUOUS
 62
    7
 10
829.96656920697512
 20
297.2023899959658
 11
829.96656920697512
 21
232.9023859959654
  0
LINE
  8
_0-8_
  6
CONTINUOUS
 62
    7
 10
829.06656914637517
 20
232.9023859959654
 11
829.06656914637517
 21
297.2023899959658
  0
LINE
  8
_0-8_
  6
CONTINUOUS
 62
    7
 10
814.86656933707491
 20
297.2023899959658
 11
814.86656933707491
 21
232.9023859959654
  0
LINE
  8
_0-8_
  6
CONTINUOUS
 62
    7
 10
813.9665692069749
 20
232.9023859959654
 11
813.9665692069749
 21
297.2023899959658
  0
LINE
  8
_0-9_
  6
PHANTOM1
 62
  152
 10
796.96656924175693
 20
272.90238599596495
 11
796.96656924175693
 21
275.90238599596563
  0
LINE
  8
_0-9_
  6
PHANTOM1
 62
  152
 10
798.91656924175675
 20
269.9023859959654
 11
798.91656924175675
 21
272.90238599596495
  0
LINE
  8
_0-9_
  6
PHANTOM1
 62
  152
 10
797.2165692417567
 20
275.90238599596563
 11
797.2165692417567
 21
283.40238599596563
  0
ARC
  8
_0-9_
  6
PHANTOM1
 62
  152
 10
800.21656924175693
 20
283.40238599596563
 40
2.9999999999999858
 50
89.999999999999829
 51
180.0000000000002
  0
LINE
  8
_0-9_
  6
PHANTOM1
 62
  152
 10
845.01656924175757
 20
269.9023859959654
 11
798.91656924175675
 21
269.9023859959654
  0
ARC
  8
_0-9_
  6
PHANTOM1
 62
  152
 10
843.71656924175693
 20
283.40238599596563
 40
2.9999999999999933
 50
359.99999999999977
 51
90.000000000000199
  0
LINE
  8
_0-9_
  6
PHANTOM1
 62
  152
 10
846.71656924175716
 20
283.40238599596563
 11
846.71656924175716
 21
275.90238599596563
  0
LINE
  8
_0-9_
  6
PHANTOM1
 62
  152
 10
846.96656924175693
 20
275.90238599596563
 11
846.96656924175693
 21
272.90238599596495
  0
LINE
  8
_0-9_
  6
PHANTOM1
 62
  152
 10
845.01656924175757
 20
272.90238599596495
 11
845.01656924175757
 21
269.9023859959654
  0
LINE
  8
_0-9_
  6
PHANTOM1
 62
  152
 10
796.96656924175693
 20
275.90238599596563
 11
797.2165692417567
 21
275.90238599596563
  0
LINE
  8
_0-9_
  6
PHANTOM1
 62
  152
 10
846.71656924175716
 20
275.90238599596563
 11
846.96656924175693
 21
275.90238599596563
  0
LINE
  8
_0-9_
  6
PHANTOM1
 62
  152
 10
846.96656924175693
 20
272.90238599596495
 11
845.01656924175757
 21
272.90238599596495
  0
LINE
  8
_0-9_
  6
PHANTOM1
 62
  152
 10
798.91656924175675
 20
272.90238599596495
 11
796.96656924175693
 21
272.90238599596495
  0
LINE
  8
_0-9_
  6
PHANTOM1
 62
  152
 10
839.96656924175693
 20
286.40238599596518
 11
843.71656924175693
 21
286.40238599596518
  0
LINE
  8
_0-9_
  6
PHANTOM1
 62
  152
 10
809.26486331958552
 20
295.90238599596495
 11
809.26486331958552
 21
288.80238599596527
  0
LINE
  8
_0-9_
  6
PHANTOM1
 62
  152
 10
839.96656924175693
 20
286.40238599596518
 11
839.96656924175693
 21
286.80238599596549
  0
LINE
  8
_0-9_
  6
PHANTOM1
 62
  152
 10
804.21656924175647
 20
286.80238599596549
 11
804.21656924175647
 21
286.40238599596518
  0
LINE
  8
_0-9_
  6
PHANTOM1
 62
  152
 10
800.21656924175693
 20
286.40238599596518
 11
804.21656924175647
 21
286.40238599596518
  0
LINE
  8
_0-9_
  6
PHANTOM1
 62
  152
 10
831.4928486833852
 20
286.80238599596538
 11
831.4928486833852
 21
286.80238599596538
  0
LINE
  8
_0-9_
  6
PHANTOM1
 62
  152
 10
831.4928486833852
 20
286.80238599596538
 11
832.04425570504668
 21
286.83277048994097
  0
LINE
  8
_0-9_
  6
PHANTOM1
 62
  152
 10
832.04425570504668
 20
286.83277048994097
 11
832.57890850338049
 21
286.92300075439357
  0
LINE
  8
_0-9_
  6
PHANTOM1
 62
  152
 10
832.57890850338049
 20
286.92300075439357
 11
833.08056192365655
 21
287.07033518839648
  0
LINE
  8
_0-9_
  6
PHANTOM1
 62
  152
 10
833.08056192365655
 20
287.07033518839648
 11
833.53397348054853
 21
287.27029710972738
  0
LINE
  8
_0-9_
  6
PHANTOM1
 62
  152
 10
833.53397348054853
 20
287.27029710972738
 11
833.92536649333772
 21
287.51681077659225
  0
LINE
  8
_0-9_
  6
PHANTOM1
 62
  152
 10
833.92536649333772
 20
287.51681077659225
 11
834.24284868338486
 21
287.80238599596532
  0
LINE
  8
_0-9_
  6
PHANTOM1
 62
  152
 10
834.24284868338486
 20
287.80238599596532
 11
834.47677351499919
 21
288.11834570931399
  0
LINE
  8
_0-9_
  6
PHANTOM1
 62
  152
 10
834.47677351499919
 20
288.11834570931399
 11
834.62003330054381
 21
288.4550896406314
  0
LINE
  8
_0-9_
  6
PHANTOM1
 62
  152
 10
834.62003330054381
 20
288.4550896406314
 11
834.66827516392777
 21
288.80238599596527
  0
LINE
  8
_0-9_
  6
PHANTOM1
 62
  152
 10
839.96656924175693
 20
286.80238599596549
 11
831.4928486833852
 21
286.80238599596549
  0
LINE
  8
_0-9_
  6
PHANTOM1
 62
  152
 10
804.21656924175647
 20
286.80238599596549
 11
812.44028980012865
 21
286.80238599596549
  0
LINE
  8
_0-9_
  6
PHANTOM1
 62
  152
 10
809.26486331958608
 20
288.80238599596527
 11
809.26486331958608
 21
288.80238599596527
  0
LINE
  8
_0-9_
  6
PHANTOM1
 62
  152
 10
809.26486331958608
 20
288.80238599596527
 11
809.31310518297005
 21
288.4550896406314
  0
LINE
  8
_0-9_
  6
PHANTOM1
 62
  152
 10
809.31310518297005
 20
288.4550896406314
 11
809.45636496851466
 21
288.11834570931399
  0
LINE
  8
_0-9_
  6
PHANTOM1
 62
  152
 10
809.45636496851466
 20
288.11834570931399
 11
809.69028980012899
 21
287.80238599596532
  0
LINE
  8
_0-9_
  6
PHANTOM1
 62
  152
 10
809.69028980012899
 20
287.80238599596532
 11
810.00777199017614
 21
287.51681077659225
  0
LINE
  8
_0-9_
  6
PHANTOM1
 62
  152
 10
810.00777199017614
 20
287.51681077659225
 11
810.39916500296533
 21
287.27029710972738
  0
LINE
  8
_0-9_
  6
PHANTOM1
 62
  152
 10
810.39916500296533
 20
287.27029710972738
 11
810.85257655985731
 21
287.07033518839648
  0
LINE
  8
_0-9_
  6
PHANTOM1
 62
  152
 10
810.85257655985731
 20
287.07033518839648
 11
811.35422998013337
 21
286.92300075439357
  0
LINE
  8
_0-9_
  6
PHANTOM1
 62
  152
 10
811.35422998013337
 20
286.92300075439357
 11
811.88888277846718
 21
286.83277048994097
  0
LINE
  8
_0-9_
  6
PHANTOM1
 62
  152
 10
811.88888277846718
 20
286.83277048994097
 11
812.44028980012865
 21
286.80238599596538
  0
LINE
  8
_0-9_
  6
PHANTOM1
 62
  152
 10
834.66827516392834
 20
288.80238599596527
 11
834.66827516392834
 21
295.90238599596495
  0
LINE
  8
_0-8_
  6
CONTINUOUS
 62
  152
 10
138.98023738839902
 20
355.00238599596508
 11
154.98023738839925
 21
355.00238599596508
  0
LINE
  8
_0-8_
  6
CONTINUOUS
 62
    7
 10
154.08023738839893
 20
355.9023859959654
 11
139.88023738839934
 21
355.9023859959654
  0
LINE
  8
_0-8_
  6
CONTINUOUS
 62
    7
 10
139.88023738839934
 20
355.9023859959654
 11
138.98023738839902
 21
355.00238599596508
  0
LINE
  8
_0-8_
  6
CONTINUOUS
 62
    7
 10
154.98023738839925
 20
355.00238599596508
 11
154.08023738839893
 21
355.9023859959654
  0
LINE
  8
_0-8_
  6
CONTINUOUS
 62
  152
 10
139.88023751849903
 20
335.90238999596585
 11
139.88023751849903
 21
355.90238612606515
  0
LINE
  8
_0-8_
  6
CONTINUOUS
 62
  152
 10
154.0802373277993
 20
335.90238999596585
 11
154.0802373277993
 21
355.90238605656509
  0
LINE
  8
_0-8_
  6
CONTINUOUS
 62
    7
 10
138.98023738839902
 20
355.00238599596508
 11
138.98023738839902
 21
335.90238999596585
  0
LINE
  8
_0-8_
  6
CONTINUOUS
 62
    7
 10
154.98023738839925
 20
355.00238599596508
 11
154.98023738839925
 21
335.90238999596585
  0
LINE
  8
_0-8_
  6
CONTINUOUS
 62
  152
 10
272.32299399768704
 20
355.00238599596508
 11
288.32299399768726
 21
355.00238599596508
  0
LINE
  8
_0-8_
  6
CONTINUOUS
 62
    7
 10
287.42299399768694
 20
355.9023859959654
 11
273.22299399768735
 21
355.9023859959654
  0
LINE
  8
_0-8_
  6
CONTINUOUS
 62
    7
 10
273.22299399768735
 20
355.9023859959654
 11
272.32299399768704
 21
355.00238599596508
  0
LINE
  8
_0-8_
  6
CONTINUOUS
 62
    7
 10
288.32299399768726
 20
355.00238599596508
 11
287.42299399768694
 21
355.9023859959654
  0
LINE
  8
_0-8_
  6
CONTINUOUS
 62
  152
 10
273.22299412778705
 20
335.90238999596585
 11
273.22299412778705
 21
355.90238612606515
  0
LINE
  8
_0-8_
  6
CONTINUOUS
 62
  152
 10
287.42299393708731
 20
335.90238999596585
 11
287.42299393708731
 21
355.90238605656509
  0
LINE
  8
_0-8_
  6
CONTINUOUS
 62
    7
 10
272.32299399768704
 20
355.00238599596508
 11
272.32299399768704
 21
335.90238999596585
  0
LINE
  8
_0-8_
  6
CONTINUOUS
 62
    7
 10
288.32299399768726
 20
355.00238599596508
 11
288.32299399768726
 21
335.90238999596585
  0
LINE
  8
_0-8_
  6
CONTINUOUS
 62
  152
 10
680.62381259768688
 20
355.00238599596508
 11
696.62381259768711
 21
355.00238599596508
  0
LINE
  8
_0-8_
  6
CONTINUOUS
 62
    7
 10
695.72381259768679
 20
355.9023859959654
 11
681.5238125976872
 21
355.9023859959654
  0
LINE
  8
_0-8_
  6
CONTINUOUS
 62
    7
 10
681.5238125976872
 20
355.9023859959654
 11
680.62381259768688
 21
355.00238599596508
  0
LINE
  8
_0-8_
  6
CONTINUOUS
 62
    7
 10
696.62381259768711
 20
355.00238599596508
 11
695.72381259768679
 21
355.9023859959654
  0
LINE
  8
_0-8_
  6
CONTINUOUS
 62
  152
 10
681.52381272778689
 20
335.90238999596585
 11
681.52381272778689
 21
355.90238612606515
  0
LINE
  8
_0-8_
  6
CONTINUOUS
 62
  152
 10
695.72381253708716
 20
335.90238999596585
 11
695.72381253708716
 21
355.90238605656509
  0
LINE
  8
_0-8_
  6
CONTINUOUS
 62
    7
 10
680.62381259768688
 20
355.00238599596508
 11
680.62381259768688
 21
335.90238999596585
  0
LINE
  8
_0-8_
  6
CONTINUOUS
 62
    7
 10
696.62381259768711
 20
355.00238599596508
 11
696.62381259768711
 21
335.90238999596585
  0
LINE
  8
_0-8_
  6
CONTINUOUS
 62
  152
 10
813.9665692069749
 20
355.00238599596508
 11
829.96656920697512
 21
355.00238599596508
  0
LINE
  8
_0-8_
  6
CONTINUOUS
 62
    7
 10
829.0665692069748
 20
355.9023859959654
 11
814.86656920697521
 21
355.9023859959654
  0
LINE
  8
_0-8_
  6
CONTINUOUS
 62
    7
 10
814.86656920697521
 20
355.9023859959654
 11
813.9665692069749
 21
355.00238599596508
  0
LINE
  8
_0-8_
  6
CONTINUOUS
 62
    7
 10
829.96656920697512
 20
355.00238599596508
 11
829.0665692069748
 21
355.9023859959654
  0
LINE
  8
_0-8_
  6
CONTINUOUS
 62
  152
 10
814.86656933707491
 20
335.90238999596585
 11
814.86656933707491
 21
355.90238612606515
  0
LINE
  8
_0-8_
  6
CONTINUOUS
 62
  152
 10
829.06656914637517
 20
335.90238999596585
 11
829.06656914637517
 21
355.90238605656509
  0
LINE
  8
_0-8_
  6
CONTINUOUS
 62
    7
 10
813.9665692069749
 20
355.00238599596508
 11
813.9665692069749
 21
335.90238999596585
  0
LINE
  8
_0-8_
  6
CONTINUOUS
 62
    7
 10
829.96656920697512
 20
355.00238599596508
 11
829.96656920697512
 21
335.90238999596585
  0
LINE
  8
_0-9_
  6
PHANTOM1
 62
  152
 10
154.98023738839925
 20
419.00238599596508
 11
154.08023738839893
 21
419.9023859959654
  0
LINE
  8
_0-9_
  6
PHANTOM1
 62
  152
 10
154.08023738839893
 20
419.9023859959654
 11
139.88023738839934
 21
419.9023859959654
  0
LINE
  8
_0-9_
  6
PHANTOM1
 62
  152
 10
139.88023738839934
 20
419.9023859959654
 11
138.98023738839902
 21
419.00238599596508
  0
LINE
  8
_0-9_
  6
PHANTOM1
 62
  152
 10
288.32299399768726
 20
419.00238599596508
 11
287.42299399768694
 21
419.9023859959654
  0
LINE
  8
_0-9_
  6
PHANTOM1
 62
  152
 10
287.42299399768694
 20
419.9023859959654
 11
273.22299399768735
 21
419.9023859959654
  0
LINE
  8
_0-9_
  6
PHANTOM1
 62
  152
 10
273.22299399768735
 20
419.9023859959654
 11
272.32299399768704
 21
419.00238599596508
  0
LINE
  8
_0-9_
  6
PHANTOM1
 62
  152
 10
696.62381259768711
 20
419.00238599596508
 11
695.72381259768679
 21
419.9023859959654
  0
LINE
  8
_0-9_
  6
PHANTOM1
 62
  152
 10
695.72381259768679
 20
419.9023859959654
 11
681.5238125976872
 21
419.9023859959654
  0
LINE
  8
_0-9_
  6
PHANTOM1
 62
  152
 10
681.5238125976872
 20
419.9023859959654
 11
680.62381259768688
 21
419.00238599596508
  0
LINE
  8
_0-9_
  6
PHANTOM1
 62
  152
 10
829.96656920697512
 20
419.00238599596508
 11
829.0665692069748
 21
419.9023859959654
  0
LINE
  8
_0-9_
  6
PHANTOM1
 62
  152
 10
829.0665692069748
 20
419.9023859959654
 11
814.86656920697521
 21
419.9023859959654
  0
LINE
  8
_0-9_
  6
PHANTOM1
 62
  152
 10
814.86656920697521
 20
419.9023859959654
 11
813.9665692069749
 21
419.00238599596508
  0
LINE
  8
_0-9_
  6
PHANTOM1
 62
  152
 10
138.98023738839902
 20
419.00238599596508
 11
138.98023738839902
 21
365.13373245684886
  0
LINE
  8
_0-9_
  6
PHANTOM1
 62
  152
 10
154.98023738839925
 20
365.13373245684886
 11
154.98023738839925
 21
419.00238599596508
  0
LINE
  8
_0-9_
  6
PHANTOM1
 62
  152
 10
272.32299399768704
 20
419.00238599596508
 11
272.32299399768704
 21
365.13373245684886
  0
LINE
  8
_0-9_
  6
PHANTOM1
 62
  152
 10
288.32299399768726
 20
365.13373245684886
 11
288.32299399768726
 21
419.00238599596508
  0
LINE
  8
_0-9_
  6
PHANTOM1
 62
  152
 10
680.62381259768688
 20
419.00238599596508
 11
680.62381259768688
 21
365.13373245684886
  0
LINE
  8
_0-9_
  6
PHANTOM1
 62
  152
 10
696.62381259768711
 20
365.13373245684886
 11
696.62381259768711
 21
419.00238599596508
  0
LINE
  8
_0-9_
  6
PHANTOM1
 62
  152
 10
813.9665692069749
 20
419.00238599596508
 11
813.9665692069749
 21
365.13373245684886
  0
LINE
  8
_0-9_
  6
PHANTOM1
 62
  152
 10
829.96656920697512
 20
365.13373245684886
 11
829.96656920697512
 21
419.00238599596508
  0
LINE
  8
_0-1_
  6
CENTER1
 62
  152
 10
146.98023742318105
 20
185.90238999596585
 11
146.98023742318105
 21
419.9023859959654
  0
LINE
  8
_0-9_
  6
PHANTOM1
 62
  152
 10
121.98023742318105
 20
188.90238999596539
 11
121.98023742318105
 21
191.90238999596608
  0
LINE
  8
_0-9_
  6
PHANTOM1
 62
  152
 10
123.93023742318087
 20
185.90238999596585
 11
123.93023742318087
 21
188.90238999596539
  0
LINE
  8
_0-9_
  6
PHANTOM1
 62
  152
 10
170.03023742318169
 20
185.90238999596585
 11
123.93023742318087
 21
185.90238999596585
  0
LINE
  8
_0-9_
  6
PHANTOM1
 62
  152
 10
171.98023742318105
 20
191.90238999596608
 11
171.98023742318105
 21
188.90238999596539
  0
LINE
  8
_0-9_
  6
PHANTOM1
 62
  152
 10
170.03023742318169
 20
188.90238999596539
 11
170.03023742318169
 21
185.90238999596585
  0
LINE
  8
_0-9_
  6
PHANTOM1
 62
  152
 10
121.98023742318105
 20
191.90238999596608
 11
122.23023742318082
 21
191.90238999596608
  0
LINE
  8
_0-9_
  6
PHANTOM1
 62
  152
 10
171.73023742318128
 20
191.90238999596608
 11
171.98023742318105
 21
191.90238999596608
  0
LINE
  8
_0-9_
  6
PHANTOM1
 62
  152
 10
171.98023742318105
 20
188.90238999596539
 11
170.03023742318169
 21
188.90238999596539
  0
LINE
  8
_0-9_
  6
PHANTOM1
 62
  152
 10
123.93023742318087
 20
188.90238999596539
 11
121.98023742318105
 21
188.90238999596539
  0
LINE
  8
_0-9_
  6
PHANTOM1
 62
  152
 10
122.23023742318082
 20
191.90238999596608
 11
122.23023742318082
 21
193.83769065249396
  0
LINE
  8
_0-9_
  6
PHANTOM1
 62
  152
 10
171.73023742318128
 20
193.83769065249396
 11
171.73023742318128
 21
191.90238999596608
  0
LINE
  8
_0-9_
  6
PHANTOM1
 62
  152
 10
255.32299403246907
 20
188.90238999596539
 11
255.32299403246907
 21
191.90238999596608
  0
LINE
  8
_0-9_
  6
PHANTOM1
 62
  152
 10
257.27299403246889
 20
185.90238999596585
 11
257.27299403246889
 21
188.90238999596539
  0
LINE
  8
_0-9_
  6
PHANTOM1
 62
  152
 10
303.37299403246971
 20
185.90238999596585
 11
257.27299403246889
 21
185.90238999596585
  0
LINE
  8
_0-9_
  6
PHANTOM1
 62
  152
 10
305.32299403246907
 20
191.90238999596608
 11
305.32299403246907
 21
188.90238999596539
  0
LINE
  8
_0-9_
  6
PHANTOM1
 62
  152
 10
303.37299403246971
 20
188.90238999596539
 11
303.37299403246971
 21
185.90238999596585
  0
LINE
  8
_0-9_
  6
PHANTOM1
 62
  152
 10
255.32299403246907
 20
191.90238999596608
 11
255.57299403246884
 21
191.90238999596608
  0
LINE
  8
_0-9_
  6
PHANTOM1
 62
  152
 10
305.0729940324693
 20
191.90238999596608
 11
305.32299403246907
 21
191.90238999596608
  0
LINE
  8
_0-9_
  6
PHANTOM1
 62
  152
 10
305.32299403246907
 20
188.90238999596539
 11
303.37299403246971
 21
188.90238999596539
  0
LINE
  8
_0-9_
  6
PHANTOM1
 62
  152
 10
257.27299403246889
 20
188.90238999596539
 11
255.32299403246907
 21
188.90238999596539
  0
LINE
  8
_0-9_
  6
PHANTOM1
 62
  152
 10
255.57299403246884
 20
191.90238999596608
 11
255.57299403246884
 21
193.83769065249396
  0
LINE
  8
_0-9_
  6
PHANTOM1
 62
  152
 10
305.0729940324693
 20
193.83769065249396
 11
305.0729940324693
 21
191.90238999596608
  0
LINE
  8
_0-9_
  6
PHANTOM1
 62
  152
 10
663.62381263246891
 20
188.90238999596539
 11
663.62381263246891
 21
191.90238999596608
  0
LINE
  8
_0-9_
  6
PHANTOM1
 62
  152
 10
665.57381263246873
 20
185.90238999596585
 11
665.57381263246873
 21
188.90238999596539
  0
LINE
  8
_0-9_
  6
PHANTOM1
 62
  152
 10
711.67381263246955
 20
185.90238999596585
 11
665.57381263246873
 21
185.90238999596585
  0
LINE
  8
_0-9_
  6
PHANTOM1
 62
  152
 10
713.62381263246891
 20
191.90238999596608
 11
713.62381263246891
 21
188.90238999596539
  0
LINE
  8
_0-9_
  6
PHANTOM1
 62
  152
 10
711.67381263246955
 20
188.90238999596539
 11
711.67381263246955
 21
185.90238999596585
  0
LINE
  8
_0-9_
  6
PHANTOM1
 62
  152
 10
663.62381263246891
 20
191.90238999596608
 11
663.87381263246868
 21
191.90238999596608
  0
LINE
  8
_0-9_
  6
PHANTOM1
 62
  152
 10
713.37381263246914
 20
191.90238999596608
 11
713.62381263246891
 21
191.90238999596608
  0
LINE
  8
_0-9_
  6
PHANTOM1
 62
  152
 10
713.62381263246891
 20
188.90238999596539
 11
711.67381263246955
 21
188.90238999596539
  0
LINE
  8
_0-9_
  6
PHANTOM1
 62
  152
 10
665.57381263246873
 20
188.90238999596539
 11
663.62381263246891
 21
188.90238999596539
  0
LINE
  8
_0-9_
  6
PHANTOM1
 62
  152
 10
663.87381263246868
 20
191.90238999596608
 11
663.87381263246868
 21
193.83769065249396
  0
LINE
  8
_0-9_
  6
PHANTOM1
 62
  152
 10
713.37381263246914
 20
193.83769065249396
 11
713.37381263246914
 21
191.90238999596608
  0
LINE
  8
_0-9_
  6
PHANTOM1
 62
  152
 10
796.96656924175693
 20
188.90238999596539
 11
796.96656924175693
 21
191.90238999596608
  0
LINE
  8
_0-9_
  6
PHANTOM1
 62
  152
 10
798.91656924175675
 20
185.90238999596585
 11
798.91656924175675
 21
188.90238999596539
  0
LINE
  8
_0-9_
  6
PHANTOM1
 62
  152
 10
845.01656924175757
 20
185.90238999596585
 11
798.91656924175675
 21
185.90238999596585
  0
LINE
  8
_0-9_
  6
PHANTOM1
 62
  152
 10
846.96656924175693
 20
191.90238999596608
 11
846.96656924175693
 21
188.90238999596539
  0
LINE
  8
_0-9_
  6
PHANTOM1
 62
  152
 10
845.01656924175757
 20
188.90238999596539
 11
845.01656924175757
 21
185.90238999596585
  0
LINE
  8
_0-9_
  6
PHANTOM1
 62
  152
 10
796.96656924175693
 20
191.90238999596608
 11
797.2165692417567
 21
191.90238999596608
  0
LINE
  8
_0-9_
  6
PHANTOM1
 62
  152
 10
846.71656924175716
 20
191.90238999596608
 11
846.96656924175693
 21
191.90238999596608
  0
LINE
  8
_0-9_
  6
PHANTOM1
 62
  152
 10
846.96656924175693
 20
188.90238999596539
 11
845.01656924175757
 21
188.90238999596539
  0
LINE
  8
_0-9_
  6
PHANTOM1
 62
  152
 10
798.91656924175675
 20
188.90238999596539
 11
796.96656924175693
 21
188.90238999596539
  0
LINE
  8
_0-9_
  6
PHANTOM1
 62
  152
 10
797.2165692417567
 20
191.90238999596608
 11
797.2165692417567
 21
193.83769065249396
  0
LINE
  8
_0-9_
  6
PHANTOM1
 62
  152
 10
846.71656924175716
 20
193.83769065249396
 11
846.71656924175716
 21
191.90238999596608
  0
LINE
  8
_0-1_
  6
CENTER1
 62
  152
 10
280.32299403246907
 20
185.90238999596585
 11
280.32299403246907
 21
419.9023859959654
  0
LINE
  8
_0-1_
  6
CENTER1
 62
  152
 10
688.62381263246891
 20
419.9023859959654
 11
688.62381263246891
 21
185.90238999596585
  0
LINE
  8
_0-1_
  6
CENTER1
 62
  152
 10
821.96656924175693
 20
419.9023859959654
 11
821.96656924175693
 21
185.90238999596585
  0
ENDSEC
  0
EOF
