  0
SECTION
  2
HEADER
  9
$ACADVER
  1
AC1009
  9
$INSBASE
 10
0
 20
0
 30
0
  9
$EXTMIN
 10
0
 20
0
  9
$EXTMAX
 10
1189
 20
841
  9
$LIMMIN
 10
0
 20
0
  9
$LIMMAX
 10
1189
 20
841
  9
$LTSCALE
 40
1
  0
ENDSEC
  0
SECTION
  2
TABLES
  0
TABLE
  2
LTYPE
 70
     9
  0
LTYPE
  2
CONTINUOUS
 70
    64
  3
実線
 72
    65
 73
     0
 40
0.0
  0
LTYPE
  2
DASHED1
 70
    64
  3
--  --  --  --  --  --  --  --  
 72
    65
 73
     2
 40
2.5
 49
1.25
 49
-1.25
  0
LTYPE
  2
DASHED2
 70
    64
  3
----    ----    ----    ----    
 72
    65
 73
     2
 40
5.0
 49
2.5
 49
-2.5
  0
LTYPE
  2
DASHED3
 70
    64
  3
------  ------  ------  ------  
 72
    65
 73
     2
 40
5.0
 49
3.75
 49
-1.25
  0
LTYPE
  2
CENTER1
 70
    64
  3
----- - ----- - ----- - ----- - 
 72
    65
 73
     4
 40
10.0
 49
6.25
 49
-1.25
 49
1.25
 49
-1.25
  0
LTYPE
  2
CENTER2
 70
    64
  3
----------  --  ----------  --  
 72
    65
 73
     4
 40
20.0
 49
12.5
 49
-2.5
 49
2.5
 49
-2.5
  0
LTYPE
  2
PHANTOM1
 70
    64
  3
--- - - --- - - --- - - --- - - 
 72
    65
 73
     6
 40
10.0
 49
3.25
 49
-1.25
 49
1.25
 49
-1.25
 49
1.25
 49
-1.25
  0
LTYPE
  2
PHANTOM2
 70
    64
  3
--------  -  -  --------  -  -  
 72
    65
 73
     6
 40
20.0
 49
10.0
 49
-2.5
 49
1.25
 49
-2.5
 49
1.25
 49
-2.5
  0
LTYPE
  2
DOT
 70
    64
  3
-   -   -   -   -   -   -   -   
 72
    65
 73
     2
 40
2.5
 49
0.625
 49
-1.875
  0
LTYPE
  2
DUMMY
 70
    64
  3
ダミー
 72
    65
 73
     0
 40
0.0
  0
LTYPE
  2
RAND1
 70
    64
  3
ランダム線1
 72
    65
 73
     4
 40
10.0
 49
1.0
 49
-2.0
 49
3.0
 49
-4.0
  0
LTYPE
  2
RAND2
 70
    64
  3
ランダム線2
 72
    65
 73
     4
 40
14.0
 49
2.0
 49
-3.0
 49
4.0
 49
-5.0
  0
LTYPE
  2
RAND3
 70
    64
  3
ランダム線3
 72
    65
 73
     4
 40
18.0
 49
3.0
 49
-4.0
 49
5.0
 49
-6.0
  0
LTYPE
  2
RAND4
 70
    64
  3
ランダム線4
 72
    65
 73
     4
 40
22.0
 49
4.0
 49
-5.0
 49
6.0
 49
-7.0
  0
LTYPE
  2
RAND5
 70
    64
  3
ランダム線5
 72
    65
 73
     4
 40
26.0
 49
5.0
 49
-6.0
 49
7.0
 49
-8.0
  0
LTYPE
  2
LONG1
 70
    64
  3
----------  --  ----------  --  
 72
    65
 73
     4
 40
40.0
 49
32.5
 49
-2.5
 49
2.5
 49
-2.5
  0
LTYPE
  2
LONG2
 70
    64
  3
--------  -  -  --------  -  -  
 72
    65
 73
     6
 40
40.0
 49
30.0
 49
-2.5
 49
1.25
 49
-2.5
 49
1.25
 49
-2.5
  0
LTYPE
  2
LONG3
 70
    64
  3
+++++++++++++++..+++++++++++++++
 72
    65
 73
     2
 40
40.0
 49
37.5
 49
-2.5
  0
LTYPE
  2
LONG4
 70
    64
  3
+++++++++++++++..+++++++++++++++
 72
    65
 73
     2
 40
80.0
 49
75.0
 49
-5.0
  0
LTYPE
  2
LONG5
 70
    64
  3
----------  --  ----------  --  
 72
    65
 73
     4
 40
60.0
 49
37.5
 49
-7.5
 49
7.5
 49
-7.5
  0
LTYPE
  2
dashed
 70
   64
  3
-------   -------------   ------
 72
   65
 73
    2
 40
7.5
 49
6
 49
-1.5
  0
LTYPE
  2
dashed_spaced
 70
   64
  3
----        --------        ----
 72
   65
 73
    2
 40
12
 49
6
 49
-6
  0
LTYPE
  2
long_dashed_dotted
 70
   64
  3
------------- --- --------------
 72
   65
 73
    4
 40
15.25
 49
12
 49
-1.5
 49
0.25
 49
-1.5
  0
LTYPE
  2
long_dashed_double-dotted
 70
   64
  3
----------- --- --- ------------
 72
   65
 73
    6
 40
17
 49
12
 49
-1.5
 49
0.25
 49
-1.5
 49
0.25
 49
-1.5
  0
LTYPE
  2
long_dashed_triplicate-dotted
 70
   64
  3
--------- --- --- --- ----------
 72
   65
 73
    8
 40
18.75
 49
12
 49
-1.5
 49
0.25
 49
-1.5
 49
0.25
 49
-1.5
 49
0.25
 49
-1.5
  0
LTYPE
  2
dotted
 70
   64
  3
   -       -       -       -    
 72
   65
 73
    2
 40
1.75
 49
0.25
 49
-1.5
  0
LTYPE
  2
chain
 70
   64
  3
-------------- -- --------------
 72
   65
 73
    4
 40
18.5
 49
12
 49
-1.5
 49
3.5
 49
-1.5
  0
LTYPE
  2
chain_double_dash
 70
   64
  3
------------ -- -- -------------
 72
   65
 73
    6
 40
23.5
 49
12
 49
-1.5
 49
3.5
 49
-1.5
 49
3.5
 49
-1.5
  0
LTYPE
  2
dashed_dotted
 70
   64
  3
-----------     -     ----------
 72
   65
 73
    4
 40
9.25
 49
6
 49
-1.5
 49
0.25
 49
-1.5
  0
LTYPE
  2
double-dashed_dotted
 70
   64
  3
------   -----------   -   -----
 72
   65
 73
    6
 40
16.75
 49
6
 49
-1.5
 49
6
 49
-1.5
 49
0.25
 49
-1.5
  0
LTYPE
  2
dashed_double-dotted
 70
   64
  3
---------    -    -    ---------
 72
   65
 73
    6
 40
11
 49
6
 49
-1.5
 49
0.25
 49
-1.5
 49
0.25
 49
-1.5
  0
LTYPE
  2
double-dashed_double-dotted
 70
   64
  3
-----   ---------   -   -   ----
 72
   65
 73
    8
 40
18.5
 49
6
 49
-1.5
 49
6
 49
-1.5
 49
0.25
 49
-1.5
 49
0.25
 49
-1.5
  0
LTYPE
  2
dashed_triplicate-dotted
 70
   64
  3
-------    -    -    -    ------
 72
   65
 73
    8
 40
12.75
 49
6
 49
-1.5
 49
0.25
 49
-1.5
 49
0.25
 49
-1.5
 49
0.25
 49
-1.5
  0
LTYPE
  2
double-dashed_triplicate-dotted
 70
   64
  3
-----  ---------  -  -  -  -----
 72
   65
 73
   10
 40
20.25
 49
6
 49
-1.5
 49
6
 49
-1.5
 49
0.25
 49
-1.5
 49
0.25
 49
-1.5
 49
0.25
 49
-1.5
  0
LTYPE
  2
undefined
 70
   64
  3
--------------------------------
 72
   65
 73
    0
 40
0
  0
LTYPE
  2
_
 70
   64
  3
                                
 72
   65
 73
    0
 40
0
  0
LTYPE
  2
__18
 70
   64
  3
                                
 72
   65
 73
    0
 40
0
  0
LTYPE
  2
__19
 70
   64
  3
                                
 72
   65
 73
    0
 40
0
  0
LTYPE
  2
__20
 70
   64
  3
                                
 72
   65
 73
    0
 40
0
  0
LTYPE
  2
__21
 70
   64
  3
                                
 72
   65
 73
    0
 40
0
  0
LTYPE
  2
__22
 70
   64
  3
                                
 72
   65
 73
    0
 40
0
  0
LTYPE
  2
__23
 70
   64
  3
                                
 72
   65
 73
    0
 40
0
  0
LTYPE
  2
__24
 70
   64
  3
                                
 72
   65
 73
    0
 40
0
  0
LTYPE
  2
__25
 70
   64
  3
                                
 72
   65
 73
    0
 40
0
  0
LTYPE
  2
__26
 70
   64
  3
                                
 72
   65
 73
    0
 40
0
  0
LTYPE
  2
__27
 70
   64
  3
                                
 72
   65
 73
    0
 40
0
  0
LTYPE
  2
__28
 70
   64
  3
                                
 72
   65
 73
    0
 40
0
  0
LTYPE
  2
__29
 70
   64
  3
                                
 72
   65
 73
    0
 40
0
  0
LTYPE
  2
__30
 70
   64
  3
                                
 72
   65
 73
    0
 40
0
  0
LTYPE
  2
__31
 70
   64
  3
                                
 72
   65
 73
    0
 40
0
  0
LTYPE
  2
__32
 70
   64
  3
                                
 72
   65
 73
    0
 40
0
  0
ENDTAB
  0
TABLE
  2
STYLE
  5
3
100
AcDbSymbolTable
 70
     1
  0
STYLE
  5
10
100
AcDbSymbolTableRecord
100
AcDbTextStyleTableRecord
  2
STANDARD
 70
     0
 40
0.0
 41
1.0
 50
0.0
 71
     0
 42
0.2
  3
txt
  4
bigfont.shx
  0
STYLE
  5
26
100
AcDbSymbolTableRecord
100
AcDbTextStyleTableRecord
  2
TATEGAKI
 70
    68
 40
0.0
 41
1.0
 50
0.0
 71
     0
 42
1.0
  3
txt
  4
bigfont.shx
  0
ENDTAB
  0
TABLE
  2
LAYER
 70
    4
  0
LAYER
  2
_0-0_
 70
   64
 62
    7
  6
CONTINUOUS
  0
LAYER
  2
_0-1_
 70
   64
 62
    7
  6
CONTINUOUS
  0
LAYER
  2
_0-f_
 70
   64
 62
    7
  6
CONTINUOUS
  0
LAYER
  2
ADD_LINE
 70
   64
 62
    7
  6
CONTINUOUS
  0
ENDTAB
  0
ENDSEC
  0
SECTION
  2
BLOCKS
  0
ENDSEC
  0
SECTION
  2
ENTITIES
  0
TEXT
  8
_0-f_
 62
    7
 10
0.4785749933747638
 20
0.4296399505471981
 40
4.2999999999999998
 41
0.744186046511628
 50
0
  1
ASFF_M16
  0
LINE
  8
_0-0_
  6
CONTINUOUS
 62
    7
 10
188.50599952979798
 20
269.17815648156392
 11
189.45482496974824
 21
287.28282439404956
  0
LINE
  8
_0-0_
  6
CONTINUOUS
 62
    7
 10
188.95482496974824
 20
287.28282439404956
 11
52.98171503238882
 21
287.28282439404956
  0
LINE
  8
_0-0_
  6
CONTINUOUS
 62
    7
 10
52.482400265011165
 20
286.75665641592803
 11
53.006162523745843
 21
276.76267716513411
  0
LINE
  8
_0-0_
  6
CONTINUOUS
 62
    7
 10
186.50874046028827
 20
267.28282839405
 11
104.45482496974824
 21
267.28282839405
  0
LINE
  8
_0-0_
  6
CONTINUOUS
 62
    7
 10
104.45482496974824
 20
267.28282839405
 11
55.596598262322004
 21
273.94720997531311
  0
LINE
  8
_0-0_
  6
CONTINUOUS
 62
    7
 10
72.746621037248588
 20
268.33837994954973
 11
96.716315916638507
 21
268.33837994954973
  0
LINE
  8
_0-0_
  6
CONTINUOUS
 62
    7
 10
104.45482496974824
 20
267.92844628975143
 11
104.45482496974824
 21
286.82569829678522
  0
LINE
  8
_0-0_
  6
CONTINUOUS
 62
    7
 10
89.458127232583195
 20
208.33255081048009
 11
82.353937684138145
 21
245.43220734124878
  0
LINE
  8
_0-0_
  6
CONTINUOUS
 62
    7
 10
117.45482496974824
 20
183.78282439405046
 11
177.45482496974824
 21
183.78282439405046
  0
LINE
  8
_0-0_
  6
CONTINUOUS
 62
    7
 10
177.45482496974824
 20
183.78282439405046
 11
177.45482496974824
 21
195.58282439405065
  0
LINE
  8
_0-0_
  6
CONTINUOUS
 62
    7
 10
177.45482496974824
 20
195.58282439405065
 11
117.45482496974824
 21
195.58282439405065
  0
LINE
  8
_0-0_
  6
CONTINUOUS
 62
    7
 10
117.45482496974824
 20
195.58282439405065
 11
117.45482496974824
 21
183.78282439405046
  0
LINE
  8
_0-0_
  6
CONTINUOUS
 62
    7
 10
121.45482496974824
 20
183.78282439405046
 11
121.45482496974824
 21
182.78282439405046
  0
LINE
  8
_0-0_
  6
CONTINUOUS
 62
    7
 10
121.45482496974824
 20
182.78282439405046
 11
173.45482496974734
 21
182.78282439405046
  0
LINE
  8
_0-0_
  6
CONTINUOUS
 62
    7
 10
173.45482496974734
 20
182.78282439405046
 11
173.45482496974734
 21
183.78282439405046
  0
LINE
  8
_0-0_
  6
CONTINUOUS
 62
    7
 10
177.45482496974824
 20
195.58282439405065
 11
165.25482496974752
 21
207.78282439405046
  0
LINE
  8
_0-0_
  6
CONTINUOUS
 62
    7
 10
165.25482496974752
 20
207.78282439405046
 11
129.65482496974806
 21
207.78282439405046
  0
LINE
  8
_0-0_
  6
CONTINUOUS
 62
    7
 10
129.65482496974806
 20
207.78282439405046
 11
117.45482496974824
 21
195.58282439405065
  0
LINE
  8
_0-0_
  6
CONTINUOUS
 62
    7
 10
67.954824969748188
 20
250.78282439404956
 11
74.217912358896683
 21
249.73888401263065
  0
LINE
  8
_0-0_
  6
CONTINUOUS
 62
    7
 10
67.954824969748188
 20
250.78282439404956
 11
67.954824969748188
 21
256.78282439404956
  0
LINE
  8
_0-0_
  6
CONTINUOUS
 62
    7
 10
73.954824969748188
 20
262.78282439404956
 11
128.95482496974824
 21
262.78282439404956
  0
LINE
  8
_0-0_
  6
CONTINUOUS
 62
    7
 10
130.45482496974824
 20
264.78282439394951
 11
130.45482496974824
 21
266.56060217174962
  0
LINE
  8
_0-0_
  6
CONTINUOUS
 62
    7
 10
130.45482496974824
 20
266.56060217174962
 11
72.454824969748188
 21
266.56060217174962
  0
LINE
  8
_0-0_
  6
CONTINUOUS
 62
    7
 10
72.454824969748188
 20
266.56060217174962
 11
72.454824969748188
 21
264.78282439394951
  0
LINE
  8
_0-0_
  6
CONTINUOUS
 62
    7
 10
72.454824969748188
 20
264.78282439394951
 11
130.45482496974824
 21
264.78282439394951
  0
LINE
  8
_0-0_
  6
CONTINUOUS
 62
    7
 10
133.59841875974786
 20
265.92235532312696
 11
133.59841875974786
 21
255.6433001213656
  0
LINE
  8
_0-0_
  6
CONTINUOUS
 62
    7
 10
133.59841875974786
 20
255.58799637968258
 11
130.41389960244948
 21
252.78282439404956
  0
LINE
  8
_0-0_
  6
CONTINUOUS
 62
    7
 10
137.06252055112969
 20
254.28282839590173
 11
157.84712939207208
 21
254.28282839590173
  0
LINE
  8
_0-0_
  6
CONTINUOUS
 62
    7
 10
155.45482496974734
 20
254.28282839590173
 11
155.45482496974734
 21
227.78282439405046
  0
LINE
  8
_0-0_
  6
CONTINUOUS
 62
    7
 10
154.3830280775274
 20
227.7828243959022
 11
154.3830280775274
 21
219.14329611951342
  0
LINE
  8
_0-0_
  6
CONTINUOUS
 62
    7
 10
155.45482496974734
 20
217.78282439405046
 11
155.45482496974734
 21
213.72709630404933
  0
LINE
  8
_0-0_
  6
CONTINUOUS
 62
    7
 10
155.45482496974734
 20
213.72709630404933
 11
139.45482496974824
 21
213.72709630404933
  0
LINE
  8
_0-0_
  6
CONTINUOUS
 62
    7
 10
139.45482496974824
 20
213.72709630404933
 11
139.45482496974824
 21
217.78282439405046
  0
LINE
  8
_0-0_
  6
CONTINUOUS
 62
    7
 10
137.06252055112969
 20
217.78282439405046
 11
157.84712939207208
 21
217.78282439405046
  0
LINE
  8
_0-0_
  6
CONTINUOUS
 62
    7
 10
161.31123118345391
 20
219.14329611951342
 11
161.31123118345391
 21
227.78282439590311
  0
LINE
  8
_0-0_
  6
CONTINUOUS
 62
    7
 10
161.31123118345391
 20
227.78282439590311
 11
133.59841875974786
 21
227.78282439590311
  0
LINE
  8
_0-0_
  6
CONTINUOUS
 62
    7
 10
133.59841875974786
 20
227.78282439590311
 11
133.59841875974786
 21
219.14329611951342
  0
LINE
  8
_0-0_
  6
CONTINUOUS
 62
    7
 10
140.52662186567437
 20
219.14329611951342
 11
140.52662186567437
 21
227.7828243959022
  0
LINE
  8
_0-0_
  6
CONTINUOUS
 62
    7
 10
139.45482496974824
 20
227.78282439405046
 11
139.45482496974824
 21
254.28282839590173
  0
LINE
  8
_0-0_
  6
CONTINUOUS
 62
    7
 10
154.3830280775274
 20
255.6433001213656
 11
154.3830280775274
 21
265.92235551790799
  0
LINE
  8
_0-0_
  6
CONTINUOUS
 62
    7
 10
161.31123118345391
 20
265.92235532312696
 11
161.31123118345391
 21
255.6433001213656
  0
LINE
  8
_0-0_
  6
CONTINUOUS
 62
    7
 10
140.52662186567437
 20
255.6433001213656
 11
140.52662186567437
 21
265.92235551790799
  0
LINE
  8
_0-0_
  6
CONTINUOUS
 62
    7
 10
140.35482506511477
 20
328.78282439405058
 11
154.55482487438081
 21
328.78282439405058
  0
LINE
  8
_0-0_
  6
CONTINUOUS
 62
    7
 10
154.55482487438081
 20
328.78282439405058
 11
155.45482496974734
 21
327.8828247755194
  0
LINE
  8
_0-0_
  6
CONTINUOUS
 62
    7
 10
155.45482496974734
 20
327.8828247755194
 11
155.45482496974734
 21
297.28282839405
  0
LINE
  8
_0-0_
  6
CONTINUOUS
 62
    7
 10
139.45482496974824
 20
327.8828247755194
 11
140.35482506511477
 21
328.78282439405058
  0
LINE
  8
_0-0_
  6
CONTINUOUS
 62
    7
 10
139.45482496974824
 20
327.8828247755194
 11
139.45482496974824
 21
297.28282839405
  0
LINE
  8
_0-0_
  6
CONTINUOUS
 62
    7
 10
132.30171866989264
 20
297.28282839405
 11
162.60793126960385
 21
297.28282839405
  0
LINE
  8
_0-0_
  6
CONTINUOUS
 62
    7
 10
165.60381987386705
 20
294.43983626277912
 11
165.9292380041698
 21
288.23048843780651
  0
LINE
  8
_0-0_
  6
CONTINUOUS
 62
    7
 10
128.98041193532669
 20
288.23048843780651
 11
129.30583006562944
 21
294.43983626277912
  0
ARC
  8
_0-0_
  6
CONTINUOUS
 62
    7
 10
76.454824969748188
 20
215.28282439404956
 40
32.499999999999986
 50
87.698542921362574
 51
358.81215746833811
  0
ARC
  8
_0-0_
  6
CONTINUOUS
 62
    7
 10
128.95482496974824
 20
256.78282439404956
 40
6
 50
39.29166890339333
 51
90
  0
LINE
  8
_0-0_
  6
CONTINUOUS
 62
    7
 10
74.932199608617793
 20
271.30978667613039
 11
74.073135311235546
 21
270.53955086793559
  0
LINE
  8
_0-0_
  6
CONTINUOUS
 62
    7
 10
74.073135311235546
 20
270.53955086793559
 11
73.377590930860833
 21
269.64841671705238
  0
LINE
  8
_0-0_
  6
CONTINUOUS
 62
    7
 10
73.377590930860833
 20
269.64841671705238
 11
72.866700231528739
 21
268.66346088371967
  0
LINE
  8
_0-0_
  6
CONTINUOUS
 62
    7
 10
72.866700231528739
 20
268.66346088371967
 11
72.746621037248929
 21
268.33837994954962
  0
LINE
  8
_0-0_
  6
CONTINUOUS
 62
    7
 10
130.23714567832423
 20
267.28282839405
 11
130.45482496974824
 21
266.56060217174979
  0
ARC
  8
_0-0_
  6
CONTINUOUS
 62
    7
 10
76.454824969748188
 20
215.28282439404956
 40
15
 50
122.51361463000015
 51
280.14554443389676
  0
ARC
  8
_0-0_
  6
CONTINUOUS
 62
    7
 10
73.231433404441304
 20
243.82053464203562
 40
6
 50
344.13883118963372
 51
80.536854608056856
  0
ARC
  8
_0-0_
  6
CONTINUOUS
 62
    7
 10
54.954824971644484
 20
249.01337434630403
 40
24.999999999999943
 50
302.51361463000001
 51
344.13883118963389
  0
ARC
  8
_0-0_
  6
CONTINUOUS
 62
    7
 10
73.954824969748188
 20
256.78282439404956
 40
6
 50
90
 51
180
  0
ARC
  8
_0-0_
  6
CONTINUOUS
 62
    7
 10
67.954824969748188
 20
262.78282439404956
 40
63.254533465779254
 50
280.14554443389653
 51
350.90386635813945
  0
ARC
  8
_0-0_
  6
CONTINUOUS
 62
    7
 10
126.45482496974824
 20
264.78282439394951
 40
1.9999999998999982
 50
270
 51
0
  0
ARC
  8
_0-0_
  6
CONTINUOUS
 62
    7
 10
76.454824969748188
 20
264.78282439394951
 40
1.9999999998999982
 50
180
 51
270
  0
LINE
  8
_0-0_
  6
CONTINUOUS
 62
    7
 10
72.454824969748188
 20
266.56060217174979
 11
72.680871787989645
 21
267.32501894172242
  0
LINE
  8
_0-0_
  6
CONTINUOUS
 62
    7
 10
72.680871787989645
 20
267.32501894172242
 11
72.754152420670152
 21
268.1127137193734
  0
LINE
  8
_0-0_
  6
CONTINUOUS
 62
    7
 10
72.754152420670152
 20
268.1127137193734
 11
72.746621037265868
 21
268.33837994954979
  0
CIRCLE
  8
_0-0_
  6
CONTINUOUS
 62
    7
 10
76.454824969748188
 20
215.28282439404956
 40
8.5
  0
ARC
  8
_0-0_
  6
CONTINUOUS
 62
    7
 10
147.45482497160089
 20
248.96165472614229
 40
18.321172714233402
 50
67.780689151566392
 51
112.21931084843362
  0
LINE
  8
_0-0_
  6
CONTINUOUS
 62
    7
 10
161.31123118345386
 20
265.92235532312685
 11
159.78600631813794
 21
266.86775409722384
  0
LINE
  8
_0-0_
  6
CONTINUOUS
 62
    7
 10
159.78600631813794
 20
266.86775409722384
 11
158.20186965854253
 21
267.26908510285404
  0
LINE
  8
_0-0_
  6
CONTINUOUS
 62
    7
 10
158.20186965854253
 20
267.26908510285404
 11
156.60695439545776
 21
267.1141541004946
  0
LINE
  8
_0-0_
  6
CONTINUOUS
 62
    7
 10
156.60695439545776
 20
267.1141541004946
 11
155.04972122208619
 21
266.40766859025337
  0
LINE
  8
_0-0_
  6
CONTINUOUS
 62
    7
 10
155.04972122208619
 20
266.40766859025337
 11
154.38302728751069
 21
265.92235506726809
  0
LINE
  8
_0-0_
  6
CONTINUOUS
 62
    7
 10
140.52662039723708
 20
265.92235691235987
 11
139.00139542349058
 21
266.86775498672614
  0
LINE
  8
_0-0_
  6
CONTINUOUS
 62
    7
 10
139.00139542349058
 20
266.86775498672614
 11
137.41725871786537
 21
267.26908526559851
  0
LINE
  8
_0-0_
  6
CONTINUOUS
 62
    7
 10
137.41725871786537
 20
267.26908526559851
 11
135.82234347255007
 21
267.11415353153637
  0
LINE
  8
_0-0_
  6
CONTINUOUS
 62
    7
 10
135.82234347255007
 20
267.11415353153637
 11
134.26511038020755
 21
266.40766730687994
  0
LINE
  8
_0-0_
  6
CONTINUOUS
 62
    7
 10
134.26511038020755
 20
266.40766730687994
 11
133.59841875974774
 21
265.92235532312674
  0
LINE
  8
_0-0_
  6
CONTINUOUS
 62
    7
 10
154.38302728751069
 20
255.64330172268365
 11
155.90825213536976
 21
254.69790283593346
  0
LINE
  8
_0-0_
  6
CONTINUOUS
 62
    7
 10
155.90825213536976
 20
254.69790283593346
 11
157.4923887875546
 21
254.29657171329882
  0
LINE
  8
_0-0_
  6
CONTINUOUS
 62
    7
 10
157.4923887875546
 20
254.29657171329882
 11
159.08730405350019
 21
254.45150259785777
  0
LINE
  8
_0-0_
  6
CONTINUOUS
 62
    7
 10
159.08730405350019
 20
254.45150259785777
 11
160.64453723991704
 21
255.15798799308163
  0
LINE
  8
_0-0_
  6
CONTINUOUS
 62
    7
 10
160.64453723991704
 20
255.15798799308163
 11
161.31122923817946
 21
255.64329987759186
  0
LINE
  8
_0-0_
  6
CONTINUOUS
 62
    7
 10
133.5984184465683
 20
255.64330172268365
 11
135.12364329442738
 21
254.69790283593346
  0
LINE
  8
_0-0_
  6
CONTINUOUS
 62
    7
 10
135.12364329442738
 20
254.69790283593346
 11
136.70777994661222
 21
254.29657171329882
  0
LINE
  8
_0-0_
  6
CONTINUOUS
 62
    7
 10
136.70777994661222
 20
254.29657171329882
 11
138.30269521255781
 21
254.45150259785777
  0
LINE
  8
_0-0_
  6
CONTINUOUS
 62
    7
 10
138.30269521255781
 20
254.45150259785777
 11
139.85992839897466
 21
255.15798799308163
  0
LINE
  8
_0-0_
  6
CONTINUOUS
 62
    7
 10
139.85992839897466
 20
255.15798799308163
 11
140.52662039723708
 21
255.64329987759186
  0
ARC
  8
_0-0_
  6
CONTINUOUS
 62
    7
 10
147.45482497160089
 20
272.60400206380945
 40
18.321172714233402
 50
247.78068542480463
 51
292.21929931640619
  0
ARC
  8
_0-0_
  6
CONTINUOUS
 62
    7
 10
147.45482496974824
 20
204.78282439405046
 40
12.000000000000004
 50
14.477512185929864
 51
48.189685104221027
  0
ARC
  8
_0-0_
  6
CONTINUOUS
 62
    7
 10
147.45482496974824
 20
204.78282439405046
 40
12.000000000000004
 50
131.81031489577896
 51
165.52248781407013
  0
LINE
  8
_0-0_
  6
CONTINUOUS
 62
    7
 10
154.38302728751069
 20
219.14329772083147
 11
155.90825213536976
 21
218.19789883408129
  0
LINE
  8
_0-0_
  6
CONTINUOUS
 62
    7
 10
155.90825213536976
 20
218.19789883408129
 11
157.4923887875546
 21
217.79656771144664
  0
LINE
  8
_0-0_
  6
CONTINUOUS
 62
    7
 10
157.4923887875546
 20
217.79656771144664
 11
159.08730405350019
 21
217.95149859600559
  0
LINE
  8
_0-0_
  6
CONTINUOUS
 62
    7
 10
159.08730405350019
 20
217.95149859600559
 11
160.64453723991704
 21
218.65798399122946
  0
LINE
  8
_0-0_
  6
CONTINUOUS
 62
    7
 10
160.64453723991704
 20
218.65798399122946
 11
161.31122923817946
 21
219.14329587573968
  0
LINE
  8
_0-0_
  6
CONTINUOUS
 62
    7
 10
133.5984184465683
 20
219.14329772083147
 11
135.12364329442738
 21
218.19789883408129
  0
LINE
  8
_0-0_
  6
CONTINUOUS
 62
    7
 10
135.12364329442738
 20
218.19789883408129
 11
136.70777994661222
 21
217.79656771144664
  0
LINE
  8
_0-0_
  6
CONTINUOUS
 62
    7
 10
136.70777994661222
 20
217.79656771144664
 11
138.30269521255781
 21
217.95149859600559
  0
LINE
  8
_0-0_
  6
CONTINUOUS
 62
    7
 10
138.30269521255781
 20
217.95149859600559
 11
139.85992839897466
 21
218.65798399122946
  0
LINE
  8
_0-0_
  6
CONTINUOUS
 62
    7
 10
139.85992839897466
 20
218.65798399122946
 11
140.52662039723708
 21
219.14329587573968
  0
ARC
  8
_0-0_
  6
CONTINUOUS
 62
    7
 10
147.45482497160089
 20
236.10399806195727
 40
18.321172714233402
 50
247.78068542480463
 51
292.21929931640619
  0
ARC
  8
_0-0_
  6
CONTINUOUS
 62
    7
 10
56.002051128009953
 20
276.91968503386323
 40
3
 50
183.00000000000011
 51
262.23265101441376
  0
ARC
  8
_0-0_
  6
CONTINUOUS
 62
    7
 10
52.98171503238882
 20
286.78282439404956
 40
0.5
 50
89.999999999999972
 51
183.00000000000006
  0
ARC
  8
_0-0_
  6
CONTINUOUS
 62
    7
 10
186.50874046028827
 20
269.28282839405
 40
2
 50
270
 51
356.99999999999989
  0
ARC
  8
_0-0_
  6
CONTINUOUS
 62
    7
 10
132.30171866989264
 20
294.28282839405
 40
3
 50
89.999999999999972
 51
177.00000000000028
  0
ARC
  8
_0-0_
  6
CONTINUOUS
 62
    7
 10
162.60793126960385
 20
294.28282839405
 40
3
 50
2.9999999999996856
 51
90
  0
ARC
  8
_0-0_
  6
CONTINUOUS
 62
    7
 10
127.98178240057138
 20
288.28282439404956
 40
1
 50
270
 51
357.00000000000006
  0
ARC
  8
_0-0_
  6
CONTINUOUS
 62
    7
 10
166.9278675389242
 20
288.28282439404956
 40
1
 50
183
 51
270
  0
ARC
  8
_0-0_
  6
CONTINUOUS
 62
    7
 10
188.95482496974824
 20
286.78282439404956
 40
0.5
 50
0
 51
90
  0
ARC
  8
_0-0_
  6
CONTINUOUS
 62
    7
 10
76.454824969748188
 20
215.28282439404956
 40
26.499999999999986
 50
84.846905317308256
 51
347.84722568943033
  0
ARC
  8
_0-0_
  6
CONTINUOUS
 62
    7
 10
76.454824969748188
 20
215.28282439404956
 40
24.999999999999986
 50
85.643716984156185
 51
344.41035184164332
  0
ARC
  8
_0-0_
  6
CONTINUOUS
 62
    7
 10
76.454824969748188
 20
215.28282439404956
 40
20.999999999999986
 50
89.956682792545706
 51
332.72158301459029
  0
LINE
  8
_0-0_
  6
CONTINUOUS
 62
    7
 10
431.29758157903626
 20
287.28282439404956
 11
262.27631626564681
 21
287.28282439404956
  0
LINE
  8
_0-0_
  6
CONTINUOUS
 62
    7
 10
262.2742218072629
 20
287.29652905198617
 11
262.64858667491745
 21
294.43983626277912
  0
LINE
  8
_0-0_
  6
CONTINUOUS
 62
    7
 10
265.64447527918065
 20
297.28282839405
 11
293.3245390098603
 21
297.28282839405
  0
LINE
  8
_0-0_
  6
CONTINUOUS
 62
    7
 10
294.3231685446147
 20
296.33516435029304
 11
294.79758157903717
 21
287.28282439404956
  0
LINE
  8
_0-0_
  6
CONTINUOUS
 62
    7
 10
294.79758157903717
 20
284.97282925134658
 11
294.79758157903717
 21
269.28282839404909
  0
LINE
  8
_0-0_
  6
CONTINUOUS
 62
    7
 10
294.65398779274193
 20
265.92235532312696
 11
294.65398779274193
 21
255.6433001213656
  0
LINE
  8
_0-0_
  6
CONTINUOUS
 62
    7
 10
291.189886001361
 20
254.28282839590173
 11
270.40527716041862
 21
254.28282839590173
  0
LINE
  8
_0-0_
  6
CONTINUOUS
 62
    7
 10
272.79758157903626
 20
254.28282839590173
 11
272.79758157903626
 21
227.78282439405046
  0
LINE
  8
_0-0_
  6
CONTINUOUS
 62
    7
 10
273.86937847496239
 20
227.7828243959022
 11
273.86937847496239
 21
219.14329611951342
  0
LINE
  8
_0-0_
  6
CONTINUOUS
 62
    7
 10
272.79758157903626
 20
217.78282439405046
 11
272.79758157903626
 21
213.72709630404933
  0
LINE
  8
_0-0_
  6
CONTINUOUS
 62
    7
 10
272.79758157903626
 20
213.72709630404933
 11
288.79758157903626
 21
213.72709630404933
  0
LINE
  8
_0-0_
  6
CONTINUOUS
 62
    7
 10
288.79758157903626
 20
213.72709630404933
 11
288.79758157903626
 21
217.78282439405046
  0
LINE
  8
_0-0_
  6
CONTINUOUS
 62
    7
 10
291.189886001361
 20
217.78282439405046
 11
270.40527716041862
 21
217.78282439405046
  0
LINE
  8
_0-0_
  6
CONTINUOUS
 62
    7
 10
266.94117536903588
 20
219.14329611951342
 11
266.94117536903588
 21
227.78282439590311
  0
LINE
  8
_0-0_
  6
CONTINUOUS
 62
    7
 10
266.94117536903588
 20
227.78282439590311
 11
294.65398779274193
 21
227.78282439590311
  0
LINE
  8
_0-0_
  6
CONTINUOUS
 62
    7
 10
294.65398779274193
 20
227.78282439590311
 11
294.65398779274193
 21
219.14329611951342
  0
LINE
  8
_0-0_
  6
CONTINUOUS
 62
    7
 10
287.72578468681542
 20
219.14329611951342
 11
287.72578468681542
 21
227.7828243959022
  0
LINE
  8
_0-0_
  6
CONTINUOUS
 62
    7
 10
288.79758157903626
 20
227.78282439405046
 11
288.79758157903626
 21
254.28282839590173
  0
LINE
  8
_0-0_
  6
CONTINUOUS
 62
    7
 10
273.86937847496239
 20
255.6433001213656
 11
273.86937847496239
 21
265.92235551790799
  0
LINE
  8
_0-0_
  6
CONTINUOUS
 62
    7
 10
266.94117536903588
 20
265.92235532312696
 11
266.94117536903588
 21
255.6433001213656
  0
LINE
  8
_0-0_
  6
CONTINUOUS
 62
    7
 10
264.69551071246616
 20
267.28282839405
 11
429.79758157903626
 21
267.28282839405
  0
LINE
  8
_0-0_
  6
CONTINUOUS
 62
    7
 10
431.79758157903626
 20
269.28282839405
 11
431.79758157903626
 21
286.78282439404956
  0
LINE
  8
_0-0_
  6
CONTINUOUS
 62
    7
 10
287.72578468681542
 20
265.92235551790799
 11
287.72578468681542
 21
255.6433001213656
  0
LINE
  8
_0-0_
  6
CONTINUOUS
 62
    7
 10
262.99758157903608
 20
207.78282439405046
 11
298.59758157903644
 21
207.78282439405046
  0
LINE
  8
_0-0_
  6
CONTINUOUS
 62
    7
 10
298.59758157903644
 20
207.78282439405046
 11
310.79758157903626
 21
195.58282439405065
  0
LINE
  8
_0-0_
  6
CONTINUOUS
 62
    7
 10
310.79758157903626
 20
195.58282439405065
 11
310.79758157903626
 21
183.78282439405046
  0
LINE
  8
_0-0_
  6
CONTINUOUS
 62
    7
 10
310.79758157903626
 20
183.78282439405046
 11
250.79758157903626
 21
183.78282439405046
  0
LINE
  8
_0-0_
  6
CONTINUOUS
 62
    7
 10
250.79758157903626
 20
183.78282439405046
 11
250.79758157903626
 21
195.58282439405065
  0
LINE
  8
_0-0_
  6
CONTINUOUS
 62
    7
 10
250.79758157903626
 20
195.58282439405065
 11
310.79758157903626
 21
195.58282439405065
  0
LINE
  8
_0-0_
  6
CONTINUOUS
 62
    7
 10
306.79758157903626
 20
183.78282439405046
 11
306.79758157903626
 21
182.78282439405046
  0
LINE
  8
_0-0_
  6
CONTINUOUS
 62
    7
 10
306.79758157903626
 20
182.78282439405046
 11
254.79758157903626
 21
182.78282439405046
  0
LINE
  8
_0-0_
  6
CONTINUOUS
 62
    7
 10
254.79758157903626
 20
182.78282439405046
 11
254.79758157903626
 21
183.78282439405046
  0
LINE
  8
_0-0_
  6
CONTINUOUS
 62
    7
 10
250.79758157903626
 20
195.58282439405065
 11
262.99758157903608
 21
207.78282439405046
  0
LINE
  8
_0-0_
  6
CONTINUOUS
 62
    7
 10
273.69758167440369
 20
328.78282439405058
 11
272.79758157903626
 21
327.8828247755194
  0
LINE
  8
_0-0_
  6
CONTINUOUS
 62
    7
 10
272.79758157903626
 20
327.8828247755194
 11
272.79758157903626
 21
297.28282839405
  0
LINE
  8
_0-0_
  6
CONTINUOUS
 62
    7
 10
273.69758167440369
 20
328.78282439405058
 11
287.89758148366883
 21
328.78282439405058
  0
LINE
  8
_0-0_
  6
CONTINUOUS
 62
    7
 10
287.89758148366883
 20
328.78282439405058
 11
288.79758157903626
 21
327.8828247755194
  0
LINE
  8
_0-0_
  6
CONTINUOUS
 62
    7
 10
288.79758157903626
 20
327.8828247755194
 11
288.79758157903626
 21
297.28282839405
  0
LINE
  8
_0-0_
  6
CONTINUOUS
 62
    7
 10
261.77700149827007
 20
286.75665641592803
 11
262.69825164295736
 21
269.17815648156392
  0
LINE
  8
_0-0_
  6
CONTINUOUS
 62
    7
 10
344.29758157903626
 20
219.58282458478487
 11
348.29758157903626
 21
219.58282458478487
  0
LINE
  8
_0-0_
  6
CONTINUOUS
 62
    7
 10
348.29758157903626
 20
220.28282439405001
 11
344.99758234197571
 21
220.28282439405001
  0
LINE
  8
_0-0_
  6
CONTINUOUS
 62
    7
 10
344.99758234197571
 20
220.28282439405001
 11
344.99758234197571
 21
210.28282439405001
  0
LINE
  8
_0-0_
  6
CONTINUOUS
 62
    7
 10
344.99758234197571
 20
210.28282439405001
 11
344.29758157903626
 21
210.98282420331515
  0
LINE
  8
_0-0_
  6
CONTINUOUS
 62
    7
 10
344.29758157903626
 20
210.98282420331515
 11
344.29758157903626
 21
219.58282458478487
  0
LINE
  8
_0-0_
  6
CONTINUOUS
 62
    7
 10
344.29758157903626
 20
219.58282458478487
 11
344.99758234197571
 21
220.28282439405001
  0
LINE
  8
_0-0_
  6
CONTINUOUS
 62
    7
 10
416.29758157903626
 20
212.45764768464159
 11
416.29758157903626
 21
256.78282439405001
  0
LINE
  8
_0-0_
  6
CONTINUOUS
 62
    7
 10
410.29758157903626
 20
262.78282439405001
 11
355.29758157903626
 21
262.78282439405001
  0
LINE
  8
_0-0_
  6
CONTINUOUS
 62
    7
 10
353.79758157903626
 20
264.78282439394997
 11
353.79758157903626
 21
266.56060217175008
  0
LINE
  8
_0-0_
  6
CONTINUOUS
 62
    7
 10
353.79758157903626
 20
266.56060217175008
 11
411.79758157903626
 21
266.56060217175008
  0
LINE
  8
_0-0_
  6
CONTINUOUS
 62
    7
 10
411.79758157903626
 20
266.56060217175008
 11
411.79758157903626
 21
264.78282439394997
  0
LINE
  8
_0-0_
  6
CONTINUOUS
 62
    7
 10
411.79758157903626
 20
264.78282439394997
 11
353.79758157903626
 21
264.78282439394997
  0
LINE
  8
_0-0_
  6
CONTINUOUS
 62
    7
 10
349.29758157903626
 20
256.78282439405001
 11
349.29758157903626
 21
223.53282439405001
  0
LINE
  8
_0-0_
  6
CONTINUOUS
 62
    7
 10
349.04758157903626
 20
223.53282439405001
 11
349.79758157903626
 21
223.53282439405001
  0
LINE
  8
_0-0_
  6
CONTINUOUS
 62
    7
 10
349.79758157903626
 20
223.53282439405001
 11
350.69247457903685
 21
225.08282439405019
  0
LINE
  8
_0-0_
  6
CONTINUOUS
 62
    7
 10
350.69247457903685
 20
225.08282439405019
 11
355.54702607903647
 21
225.08282439405019
  0
LINE
  8
_0-0_
  6
CONTINUOUS
 62
    7
 10
355.54702607903647
 20
225.08282439405019
 11
356.29758157903626
 21
223.78282439405001
  0
LINE
  8
_0-0_
  6
CONTINUOUS
 62
    7
 10
355.54702607903647
 20
220.18282439405056
 11
350.69247457903685
 21
220.18282439405056
  0
LINE
  8
_0-0_
  6
CONTINUOUS
 62
    7
 10
348.29758157903626
 20
222.78282439405001
 11
348.29758157903626
 21
207.78282439405001
  0
LINE
  8
_0-0_
  6
CONTINUOUS
 62
    7
 10
349.04758157903626
 20
207.03282439405001
 11
349.79758157903626
 21
207.03282439405001
  0
LINE
  8
_0-0_
  6
CONTINUOUS
 62
    7
 10
349.79758157903626
 20
207.03282439405001
 11
350.69247457903685
 21
205.48282439404983
  0
LINE
  8
_0-0_
  6
CONTINUOUS
 62
    7
 10
350.69247457903685
 20
205.48282439404983
 11
355.54702607903647
 21
205.48282439404983
  0
LINE
  8
_0-0_
  6
CONTINUOUS
 62
    7
 10
355.54702607903647
 20
205.48282439404983
 11
356.29758157903626
 21
206.78282439405001
  0
LINE
  8
_0-0_
  6
CONTINUOUS
 62
    7
 10
355.54702607903647
 20
210.38282439405037
 11
350.69247457903685
 21
210.38282439405037
  0
LINE
  8
_0-0_
  6
CONTINUOUS
 62
    7
 10
348.29758157903626
 20
210.28282439405001
 11
344.99758234197571
 21
210.28282439405001
  0
LINE
  8
_0-0_
  6
CONTINUOUS
 62
    7
 10
344.29758157903626
 20
210.98282420331515
 11
348.29758157903626
 21
210.98282420331515
  0
LINE
  8
_0-0_
  6
CONTINUOUS
 62
    7
 10
352.02780378674771
 20
205.48282439404983
 11
356.29758157903626
 21
199.78282439405001
  0
LINE
  8
_0-0_
  6
CONTINUOUS
 62
    7
 10
356.29758157903626
 20
199.78282439405001
 11
359.49758157903608
 21
199.78282439405001
  0
LINE
  8
_0-0_
  6
CONTINUOUS
 62
    7
 10
359.49758157903608
 20
199.78282439405001
 11
359.49758157903608
 21
239.74692600918769
  0
LINE
  8
_0-0_
  6
CONTINUOUS
 62
    7
 10
359.76553077146792
 20
240.74692600918769
 11
361.22963238660515
 21
243.28282439405001
  0
LINE
  8
_0-0_
  6
CONTINUOUS
 62
    7
 10
361.49758157903608
 20
244.28282439405001
 11
361.49758157903608
 21
248.28264744890856
  0
LINE
  8
_0-0_
  6
CONTINUOUS
 62
    7
 10
359.49758157903608
 20
246.22546976994607
 11
359.49758157903608
 21
245.82538697827039
  0
LINE
  8
_0-0_
  6
CONTINUOUS
 62
    7
 10
359.49758157903608
 20
245.82538697827039
 11
356.56553077146719
 21
240.74692600918769
  0
LINE
  8
_0-0_
  6
CONTINUOUS
 62
    7
 10
356.29758157903626
 20
239.74692600918769
 11
356.29758157903626
 21
199.78282439405001
  0
LINE
  8
_0-0_
  6
CONTINUOUS
 62
    7
 10
359.49758157903608
 20
205.28282439405001
 11
361.19758157903681
 21
205.28282439405001
  0
LINE
  8
_0-0_
  6
CONTINUOUS
 62
    7
 10
361.19758157903681
 20
195.78282439405001
 11
361.19758157903681
 21
234.78282439405001
  0
LINE
  8
_0-0_
  6
CONTINUOUS
 62
    7
 10
361.19758157903681
 20
234.78282439405001
 11
362.79758157903626
 21
236.28282439405001
  0
LINE
  8
_0-0_
  6
CONTINUOUS
 62
    7
 10
362.79758157903626
 20
244.78282439405001
 11
362.79758157903626
 21
185.78282439405001
  0
LINE
  8
_0-0_
  6
CONTINUOUS
 62
    7
 10
365.79758157903626
 20
182.78282439405001
 11
399.79758157903626
 21
182.78282439405001
  0
LINE
  8
_0-0_
  6
CONTINUOUS
 62
    7
 10
402.79758157903626
 20
185.78282439405001
 11
402.79758157903626
 21
244.78282439405001
  0
LINE
  8
_0-0_
  6
CONTINUOUS
 62
    7
 10
404.09758157903644
 20
244.28282439405001
 11
404.09758157903644
 21
248.28264744890856
  0
LINE
  8
_0-0_
  6
CONTINUOUS
 62
    7
 10
406.09758157903644
 20
247.78282439405001
 11
406.09758157903644
 21
246.36128536313271
  0
LINE
  8
_0-0_
  6
CONTINUOUS
 62
    7
 10
406.36553077146738
 20
245.36128536313271
 11
409.02963238660533
 21
240.74692600918769
  0
LINE
  8
_0-0_
  6
CONTINUOUS
 62
    7
 10
409.29758157903626
 20
239.74692600918769
 11
409.29758157903626
 21
199.78282439405001
  0
LINE
  8
_0-0_
  6
CONTINUOUS
 62
    7
 10
409.29758157903626
 20
199.78282439405001
 11
414.3010998686853
 21
206.46234160511193
  0
LINE
  8
_0-0_
  6
CONTINUOUS
 62
    7
 10
410.29758157903626
 20
206.78282439492085
 11
409.29758157903626
 21
206.78282439492085
  0
LINE
  8
_0-0_
  6
CONTINUOUS
 62
    7
 10
410.29758157903626
 20
206.78282439492085
 11
410.29758157903626
 21
223.78282439405001
  0
LINE
  8
_0-0_
  6
CONTINUOUS
 62
    7
 10
410.29758157903626
 20
223.78282439405001
 11
409.29758157903626
 21
223.78282439405001
  0
LINE
  8
_0-0_
  6
CONTINUOUS
 62
    7
 10
406.09758157903644
 20
225.28282439405001
 11
404.39758157903663
 21
225.28282439405001
  0
LINE
  8
_0-0_
  6
CONTINUOUS
 62
    7
 10
404.39758157903663
 20
234.78282439405001
 11
402.79758157903626
 21
236.28282439405001
  0
LINE
  8
_0-0_
  6
CONTINUOUS
 62
    7
 10
404.39758157903663
 20
234.78282439405001
 11
404.39758157903663
 21
195.78282439405001
  0
LINE
  8
_0-0_
  6
CONTINUOUS
 62
    7
 10
404.39758157903663
 20
195.78282439405001
 11
402.79758157903626
 21
194.28282439405001
  0
LINE
  8
_0-0_
  6
CONTINUOUS
 62
    7
 10
406.09758157903644
 20
199.78282439405001
 11
406.09758157903644
 21
239.74692600918769
  0
LINE
  8
_0-0_
  6
CONTINUOUS
 62
    7
 10
405.82963238660551
 20
240.74692600918769
 11
404.36553077146738
 21
243.28282439405001
  0
LINE
  8
_0-0_
  6
CONTINUOUS
 62
    7
 10
399.79758157903626
 20
247.78282439405001
 11
365.79758157903626
 21
247.78282439405001
  0
LINE
  8
_0-0_
  6
CONTINUOUS
 62
    7
 10
361.19758157903681
 20
225.28282439405001
 11
359.49758157903608
 21
225.28282439405001
  0
LINE
  8
_0-0_
  6
CONTINUOUS
 62
    7
 10
361.19758157903681
 20
195.78282439405001
 11
362.79758157903626
 21
194.28282439405001
  0
LINE
  8
_0-0_
  6
CONTINUOUS
 62
    7
 10
404.39758157903663
 20
205.28282439405001
 11
406.09758157903644
 21
205.28282439405001
  0
LINE
  8
_0-0_
  6
CONTINUOUS
 62
    7
 10
406.09758157903644
 20
199.78282439405001
 11
409.29758157903626
 21
199.78282439405001
  0
LINE
  8
_0-0_
  6
CONTINUOUS
 62
    7
 10
411.5799022876123
 20
267.28282839404977
 11
411.79758157903626
 21
266.56060217174979
  0
LINE
  8
_0-0_
  6
CONTINUOUS
 62
    7
 10
353.79758157903626
 20
266.56060217174979
 11
354.01526087046022
 21
267.28282839404977
  0
ARC
  8
_0-0_
  6
CONTINUOUS
 62
    7
 10
407.29758157903626
 20
239.74692600918769
 40
2
 50
0
 51
29.999999999999915
  0
ARC
  8
_0-0_
  6
CONTINUOUS
 62
    7
 10
404.09758157903644
 20
239.74692600918769
 40
2
 50
0
 51
30.000000000001442
  0
ARC
  8
_0-0_
  6
CONTINUOUS
 62
    7
 10
406.09758157903644
 20
244.28282439405001
 40
2
 50
180
 51
210.00000000000082
  0
ARC
  8
_0-0_
  6
CONTINUOUS
 62
    7
 10
408.09758157903644
 20
246.36128536313271
 40
2
 50
180
 51
209.99999999999986
  0
ARC
  8
_0-0_
  6
CONTINUOUS
 62
    7
 10
359.49758157903608
 20
244.28282439405001
 40
2
 50
329.99999999999994
 51
0
  0
ARC
  8
_0-0_
  6
CONTINUOUS
 62
    7
 10
361.49758157903608
 20
239.74692600918769
 40
2
 50
150.00000000000009
 51
180
  0
ARC
  8
_0-0_
  6
CONTINUOUS
 62
    7
 10
358.29758157903626
 20
239.74692600918769
 40
2
 50
149.99999999999977
 51
180
  0
ARC
  8
_0-0_
  6
CONTINUOUS
 62
    7
 10
361.49758157903608
 20
246.22546976994607
 40
2
 50
103.69273104115079
 51
180
  0
ARC
  8
_0-0_
  6
CONTINUOUS
 62
    7
 10
382.79758157903626
 20
158.80115773304323
 40
91.981666661191412
 50
75.326452380014757
 51
103.69273104114845
  0
ARC
  8
_0-0_
  6
CONTINUOUS
 62
    7
 10
406.29758157903626
 20
212.45764768464159
 40
10
 50
323.16371269154922
 51
0.0000000000000318
  0
ARC
  8
_0-0_
  6
CONTINUOUS
 62
    7
 10
410.29758157903626
 20
256.78282439405001
 40
6
 50
0
 51
90
  0
ARC
  8
_0-0_
  6
CONTINUOUS
 62
    7
 10
355.29758157903626
 20
256.78282439405001
 40
6
 50
90
 51
180
  0
ARC
  8
_0-0_
  6
CONTINUOUS
 62
    7
 10
407.79758157903626
 20
264.78282439394997
 40
1.9999999998999982
 50
270
 51
0
  0
ARC
  8
_0-0_
  6
CONTINUOUS
 62
    7
 10
357.79758157903626
 20
264.78282439394997
 40
1.9999999998999982
 50
180
 51
270
  0
ARC
  8
_0-0_
  6
CONTINUOUS
 62
    7
 10
349.04758157903626
 20
222.78282439405001
 40
0.75
 50
90
 51
180
  0
ARC
  8
_0-0_
  6
CONTINUOUS
 62
    7
 10
354.77594507903569
 20
223.06817839405056
 40
5
 50
174.66785499999978
 51
215.24477999999988
  0
ARC
  8
_0-0_
  6
CONTINUOUS
 62
    7
 10
359.77234357903609
 20
215.99283939405058
 40
10
 50
155.22862399999991
 51
184.07151099999959
  0
ARC
  8
_0-0_
  6
CONTINUOUS
 62
    7
 10
354.77594507903569
 20
207.49747039405037
 40
5
 50
144.75521999999964
 51
185.33214499999974
  0
ARC
  8
_0-0_
  6
CONTINUOUS
 62
    7
 10
349.04758157903626
 20
207.78282439405001
 40
0.75
 50
180
 51
270
  0
ARC
  8
_0-0_
  6
CONTINUOUS
 62
    7
 10
359.77234357903609
 20
214.57280939405035
 40
10
 50
175.92848900000004
 51
204.77137599999966
  0
ARC
  8
_0-0_
  6
CONTINUOUS
 62
    7
 10
346.34602907903655
 20
216.26598289405018
 40
10
 50
5.6422043214078608
 51
23.059334000000003
  0
ARC
  8
_0-0_
  6
CONTINUOUS
 62
    7
 10
346.34602907903655
 20
214.29966589404984
 40
10
 50
336.94066600000002
 51
354.35779567859214
  0
ARC
  8
_0-0_
  6
CONTINUOUS
 62
    7
 10
351.37053607903664
 20
207.63383739405043
 40
5
 50
9.7995955382493722
 51
33.353117000000431
  0
ARC
  8
_0-0_
  6
CONTINUOUS
 62
    7
 10
351.37053607903664
 20
222.9318113940505
 40
5
 50
326.64688299999955
 51
350.20040446175079
  0
ARC
  8
_0-0_
  6
CONTINUOUS
 62
    7
 10
403.26633158088708
 20
215.28282439405001
 40
11.031249998148837
 50
309.59775270452445
 51
50.402247302573535
  0
ARC
  8
_0-0_
  6
CONTINUOUS
 62
    7
 10
365.79758157903626
 20
185.78282439405001
 40
3
 50
180
 51
270
  0
ARC
  8
_0-0_
  6
CONTINUOUS
 62
    7
 10
399.79758157903626
 20
185.78282439405001
 40
3
 50
270
 51
0
  0
ARC
  8
_0-0_
  6
CONTINUOUS
 62
    7
 10
399.79758157903626
 20
244.78282439405001
 40
3
 50
0
 51
90
  0
ARC
  8
_0-0_
  6
CONTINUOUS
 62
    7
 10
365.79758157903626
 20
244.78282439405001
 40
3
 50
90
 51
180
  0
ARC
  8
_0-0_
  6
CONTINUOUS
 62
    7
 10
280.7975815808889
 20
248.96165472614229
 40
18.321172714233402
 50
67.780689151566392
 51
112.21931084843362
  0
LINE
  8
_0-0_
  6
CONTINUOUS
 62
    7
 10
294.65398779274278
 20
265.92235532312685
 11
293.12876292742686
 21
266.86775409722384
  0
LINE
  8
_0-0_
  6
CONTINUOUS
 62
    7
 10
293.12876292742686
 20
266.86775409722384
 11
291.54462626783152
 21
267.26908510285404
  0
LINE
  8
_0-0_
  6
CONTINUOUS
 62
    7
 10
291.54462626783152
 20
267.26908510285404
 11
289.94971100474669
 21
267.1141541004946
  0
LINE
  8
_0-0_
  6
CONTINUOUS
 62
    7
 10
289.94971100474669
 20
267.1141541004946
 11
288.39247783137512
 21
266.40766859025337
  0
LINE
  8
_0-0_
  6
CONTINUOUS
 62
    7
 10
288.39247783137512
 20
266.40766859025337
 11
287.72578389679961
 21
265.92235506726809
  0
LINE
  8
_0-0_
  6
CONTINUOUS
 62
    7
 10
273.86937700652601
 20
265.92235691235987
 11
272.3441520327795
 21
266.86775498672614
  0
LINE
  8
_0-0_
  6
CONTINUOUS
 62
    7
 10
272.3441520327795
 20
266.86775498672614
 11
270.76001532715429
 21
267.26908526559851
  0
LINE
  8
_0-0_
  6
CONTINUOUS
 62
    7
 10
270.76001532715429
 20
267.26908526559851
 11
269.165100081839
 21
267.11415353153637
  0
LINE
  8
_0-0_
  6
CONTINUOUS
 62
    7
 10
269.165100081839
 20
267.11415353153637
 11
267.60786698949647
 21
266.40766730687994
  0
LINE
  8
_0-0_
  6
CONTINUOUS
 62
    7
 10
267.60786698949647
 20
266.40766730687994
 11
266.94117536903667
 21
265.92235532312674
  0
LINE
  8
_0-0_
  6
CONTINUOUS
 62
    7
 10
287.72578389679961
 20
255.64330172268365
 11
289.25100874465875
 21
254.69790283593346
  0
LINE
  8
_0-0_
  6
CONTINUOUS
 62
    7
 10
289.25100874465875
 20
254.69790283593346
 11
290.83514539684353
 21
254.29657171329882
  0
LINE
  8
_0-0_
  6
CONTINUOUS
 62
    7
 10
290.83514539684353
 20
254.29657171329882
 11
292.43006066278917
 21
254.45150259785777
  0
LINE
  8
_0-0_
  6
CONTINUOUS
 62
    7
 10
292.43006066278917
 20
254.45150259785777
 11
293.98729384920597
 21
255.15798799308163
  0
LINE
  8
_0-0_
  6
CONTINUOUS
 62
    7
 10
293.98729384920597
 20
255.15798799308163
 11
294.65398584746839
 21
255.64329987759186
  0
LINE
  8
_0-0_
  6
CONTINUOUS
 62
    7
 10
266.94117505585723
 20
255.64330172268365
 11
268.46639990371636
 21
254.69790283593346
  0
LINE
  8
_0-0_
  6
CONTINUOUS
 62
    7
 10
268.46639990371636
 20
254.69790283593346
 11
270.05053655590115
 21
254.29657171329882
  0
LINE
  8
_0-0_
  6
CONTINUOUS
 62
    7
 10
270.05053655590115
 20
254.29657171329882
 11
271.64545182184679
 21
254.45150259785777
  0
LINE
  8
_0-0_
  6
CONTINUOUS
 62
    7
 10
271.64545182184679
 20
254.45150259785777
 11
273.20268500826359
 21
255.15798799308163
  0
LINE
  8
_0-0_
  6
CONTINUOUS
 62
    7
 10
273.20268500826359
 20
255.15798799308163
 11
273.86937700652601
 21
255.64329987759186
  0
ARC
  8
_0-0_
  6
CONTINUOUS
 62
    7
 10
280.7975815808889
 20
272.60400206380945
 40
18.321172714233402
 50
247.78068542480463
 51
292.21929931640619
  0
ARC
  8
_0-0_
  6
CONTINUOUS
 62
    7
 10
280.79758157903626
 20
204.78282439405046
 40
12.000000000000004
 50
14.477512185929864
 51
48.189685104221027
  0
ARC
  8
_0-0_
  6
CONTINUOUS
 62
    7
 10
280.79758157903626
 20
204.78282439405046
 40
12.000000000000004
 50
131.81031489577896
 51
165.52248781407013
  0
LINE
  8
_0-0_
  6
CONTINUOUS
 62
    7
 10
287.72578389679961
 20
219.14329772083147
 11
289.25100874465875
 21
218.19789883408129
  0
LINE
  8
_0-0_
  6
CONTINUOUS
 62
    7
 10
289.25100874465875
 20
218.19789883408129
 11
290.83514539684353
 21
217.79656771144664
  0
LINE
  8
_0-0_
  6
CONTINUOUS
 62
    7
 10
290.83514539684353
 20
217.79656771144664
 11
292.43006066278917
 21
217.95149859600559
  0
LINE
  8
_0-0_
  6
CONTINUOUS
 62
    7
 10
292.43006066278917
 20
217.95149859600559
 11
293.98729384920597
 21
218.65798399122946
  0
LINE
  8
_0-0_
  6
CONTINUOUS
 62
    7
 10
293.98729384920597
 20
218.65798399122946
 11
294.65398584746839
 21
219.14329587573968
  0
LINE
  8
_0-0_
  6
CONTINUOUS
 62
    7
 10
266.94117505585723
 20
219.14329772083147
 11
268.46639990371636
 21
218.19789883408129
  0
LINE
  8
_0-0_
  6
CONTINUOUS
 62
    7
 10
268.46639990371636
 20
218.19789883408129
 11
270.05053655590115
 21
217.79656771144664
  0
LINE
  8
_0-0_
  6
CONTINUOUS
 62
    7
 10
270.05053655590115
 20
217.79656771144664
 11
271.64545182184679
 21
217.95149859600559
  0
LINE
  8
_0-0_
  6
CONTINUOUS
 62
    7
 10
271.64545182184679
 20
217.95149859600559
 11
273.20268500826359
 21
218.65798399122946
  0
LINE
  8
_0-0_
  6
CONTINUOUS
 62
    7
 10
273.20268500826359
 20
218.65798399122946
 11
273.86937700652601
 21
219.14329587573968
  0
ARC
  8
_0-0_
  6
CONTINUOUS
 62
    7
 10
280.7975815808889
 20
236.10399806195727
 40
18.321172714233402
 50
247.78068542480463
 51
292.21929931640619
  0
ARC
  8
_0-0_
  6
CONTINUOUS
 62
    7
 10
431.29758157903626
 20
286.78282439404956
 40
0.5
 50
0
 51
90
  0
ARC
  8
_0-0_
  6
CONTINUOUS
 62
    7
 10
429.79758157903626
 20
269.28282839405
 40
2
 50
270
 51
0
  0
ARC
  8
_0-0_
  6
CONTINUOUS
 62
    7
 10
262.27631626564681
 20
286.78282439404956
 40
0.5
 50
89.999999999999972
 51
182.9999999999998
  0
ARC
  8
_0-0_
  6
CONTINUOUS
 62
    7
 10
293.3245390098603
 20
296.28282839405
 40
1
 50
3.0000000000000546
 51
90
  0
ARC
  8
_0-0_
  6
CONTINUOUS
 62
    7
 10
264.69551071246616
 20
269.28282839404909
 40
2
 50
182.99999999999991
 51
270
  0
ARC
  8
_0-0_
  6
CONTINUOUS
 62
    7
 10
265.64447527918065
 20
294.28282839405
 40
3.0000000000000009
 50
89.999999999999972
 51
177.00000000000009
  0
LINE
  8
_0-0_
  6
CONTINUOUS
 62
    7
 10
428.79758157903626
 20
152.38768130956743
 11
294.79758157903626
 21
152.38768130956743
  0
LINE
  8
_0-0_
  6
CONTINUOUS
 62
    7
 10
294.79758157903626
 20
152.38768130956743
 11
283.15302667645693
 21
140.29506966751416
  0
LINE
  8
_0-0_
  6
CONTINUOUS
 62
    7
 10
283.15302667645693
 20
80.480292951620811
 11
294.79758157903626
 21
68.38768130956754
  0
LINE
  8
_0-0_
  6
CONTINUOUS
 62
    7
 10
294.79758157903626
 20
68.38768130956754
 11
294.79758157903626
 21
18.387681309566631
  0
LINE
  8
_0-0_
  6
CONTINUOUS
 62
    7
 10
297.79758157903626
 20
15.38768130956754
 11
362.79758157903626
 21
15.38768130956754
  0
LINE
  8
_0-0_
  6
CONTINUOUS
 62
    7
 10
362.79758157903626
 20
16.887681309567085
 11
354.29758157903626
 21
16.887681309567085
  0
LINE
  8
_0-0_
  6
CONTINUOUS
 62
    7
 10
356.29758157903626
 20
23.887681309567085
 11
359.49758157903608
 21
23.887681309567085
  0
LINE
  8
_0-0_
  6
CONTINUOUS
 62
    7
 10
359.49758157903608
 20
23.887681309567085
 11
359.49758157903608
 21
54.511953276740712
  0
LINE
  8
_0-0_
  6
CONTINUOUS
 62
    7
 10
356.29758157903626
 20
54.628928227811627
 11
356.29758157903626
 21
23.887681309567085
  0
LINE
  8
_0-0_
  6
CONTINUOUS
 62
    7
 10
355.79758157903626
 20
24.725403649398629
 11
355.79758157903626
 21
30.887681309567085
  0
LINE
  8
_0-0_
  6
CONTINUOUS
 62
    7
 10
355.29758157903626
 20
30.887681309567085
 11
355.29758157903626
 21
47.887681308696244
  0
LINE
  8
_0-0_
  6
CONTINUOUS
 62
    7
 10
355.29758157903626
 20
47.887681308696244
 11
356.29758157903626
 21
47.887681308696244
  0
LINE
  8
_0-0_
  6
CONTINUOUS
 62
    7
 10
359.49758157903608
 20
49.387681309567085
 11
361.1975815790359
 21
49.387681309567085
  0
LINE
  8
_0-0_
  6
CONTINUOUS
 62
    7
 10
361.1975815790359
 20
58.887681309567085
 11
361.1975815790359
 21
19.887681309567085
  0
LINE
  8
_0-0_
  6
CONTINUOUS
 62
    7
 10
361.1975815790359
 20
19.887681309567085
 11
362.79758157903626
 21
18.387681309567085
  0
LINE
  8
_0-0_
  6
CONTINUOUS
 62
    7
 10
362.79758157903626
 20
9.8876813095670855
 11
362.79758157903626
 21
68.887681309567085
  0
LINE
  8
_0-0_
  6
CONTINUOUS
 62
    7
 10
365.79758157903626
 20
71.887681309567085
 11
399.79758157903626
 21
71.887681309567085
  0
LINE
  8
_0-0_
  6
CONTINUOUS
 62
    7
 10
402.79758157903626
 20
68.887681309567085
 11
402.79758157903626
 21
9.8876813095670855
  0
LINE
  8
_0-0_
  6
CONTINUOUS
 62
    7
 10
402.79758157903626
 20
15.38768130956754
 11
413.55494089191717
 21
15.38768130956754
  0
LINE
  8
_0-0_
  6
CONTINUOUS
 62
    7
 10
415.67626123547626
 20
16.266360966007539
 11
430.91890192259626
 21
31.509001653126631
  0
LINE
  8
_0-0_
  6
CONTINUOUS
 62
    7
 10
431.79758157903626
 20
33.630321996686632
 11
431.79758157903626
 21
149.38768130956743
  0
LINE
  8
_0-0_
  6
CONTINUOUS
 62
    7
 10
428.79758157903626
 20
142.38768130956743
 11
334.04022226615535
 21
142.38768130956743
  0
LINE
  8
_0-0_
  6
CONTINUOUS
 62
    7
 10
331.91890192259626
 20
141.50900165312652
 11
309.50586851290637
 21
119.09596824343663
  0
LINE
  8
_0-0_
  6
CONTINUOUS
 62
    7
 10
304.79758157903626
 20
92.38768130956754
 11
304.79758157903626
 21
18.387681309566631
  0
LINE
  8
_0-0_
  6
CONTINUOUS
 62
    7
 10
353.79758157903626
 20
97.13490444837629
 11
353.79758157903626
 21
104.64045817075788
  0
LINE
  8
_0-0_
  6
CONTINUOUS
 62
    7
 10
353.79758157903626
 20
104.64045817075788
 11
360.29758157903626
 21
108.39323503194868
  0
LINE
  8
_0-0_
  6
CONTINUOUS
 62
    7
 10
360.29758157903626
 20
108.39323503194868
 11
366.79758157903626
 21
104.64045817075788
  0
LINE
  8
_0-0_
  6
CONTINUOUS
 62
    7
 10
366.79758157903626
 20
104.64045817075788
 11
366.79758157903626
 21
100.69044648419771
  0
LINE
  8
_0-0_
  6
CONTINUOUS
 62
    7
 10
353.79758157903626
 20
97.13490444837629
 11
358.85877126919269
 21
94.212825131558418
  0
LINE
  8
_0-0_
  6
CONTINUOUS
 62
    7
 10
354.29758157903626
 20
111.88768130956709
 11
411.29758157903626
 21
111.88768130956709
  0
LINE
  8
_0-0_
  6
CONTINUOUS
 62
    7
 10
411.79758157903626
 20
104.64045817075788
 11
411.79758157903626
 21
97.13490444837629
  0
LINE
  8
_0-0_
  6
CONTINUOUS
 62
    7
 10
411.79758157903626
 20
97.13490444837629
 11
406.73639188887984
 21
94.212825131558418
  0
LINE
  8
_0-0_
  6
CONTINUOUS
 62
    7
 10
405.29758157903626
 20
108.39323503194868
 11
411.79758157903626
 21
104.64045817075788
  0
LINE
  8
_0-0_
  6
CONTINUOUS
 62
    7
 10
398.79758157903626
 20
100.69044648419771
 11
398.79758157903626
 21
104.64045817075788
  0
LINE
  8
_0-0_
  6
CONTINUOUS
 62
    7
 10
398.79758157903626
 20
104.64045817075788
 11
405.29758157903626
 21
108.39323503194868
  0
LINE
  8
_0-0_
  6
CONTINUOUS
 62
    7
 10
416.29758157903626
 20
106.88768130956709
 11
416.29758157903626
 21
21.887681309567085
  0
LINE
  8
_0-0_
  6
CONTINUOUS
 62
    7
 10
409.29758157903626
 20
23.887681309567085
 11
406.09758157903553
 21
23.887681309567085
  0
LINE
  8
_0-0_
  6
CONTINUOUS
 62
    7
 10
406.09758157903553
 20
23.887681309567085
 11
406.09758157903553
 21
54.511953276740712
  0
LINE
  8
_0-0_
  6
CONTINUOUS
 62
    7
 10
409.29758157903626
 20
54.628928227811627
 11
409.29758157903626
 21
23.887681309567085
  0
LINE
  8
_0-0_
  6
CONTINUOUS
 62
    7
 10
409.79758157903626
 20
24.725403649398629
 11
409.79758157903626
 21
30.021656078921239
  0
LINE
  8
_0-0_
  6
CONTINUOUS
 62
    7
 10
410.04813707903605
 20
29.587681309566904
 11
409.29758157903626
 21
30.887681309567085
  0
LINE
  8
_0-0_
  6
CONTINUOUS
 62
    7
 10
410.04813707903605
 20
29.587681309566904
 11
414.90268857903567
 21
29.587681309566904
  0
LINE
  8
_0-0_
  6
CONTINUOUS
 62
    7
 10
414.90268857903567
 20
29.587681309566904
 11
415.79758157903626
 21
31.137681309567085
  0
LINE
  8
_0-0_
  6
CONTINUOUS
 62
    7
 10
415.79758157903626
 20
31.137681309567085
 11
416.54758157903626
 21
31.137681309567085
  0
LINE
  8
_0-0_
  6
CONTINUOUS
 62
    7
 10
417.29758157903626
 20
31.887681309567085
 11
417.29758157903626
 21
46.887681309567085
  0
LINE
  8
_0-0_
  6
CONTINUOUS
 62
    7
 10
416.54758157903626
 20
47.637681309567085
 11
415.79758157903626
 21
47.637681309567085
  0
LINE
  8
_0-0_
  6
CONTINUOUS
 62
    7
 10
415.79758157903626
 20
47.637681309567085
 11
414.90268857903567
 21
49.187681309567267
  0
LINE
  8
_0-0_
  6
CONTINUOUS
 62
    7
 10
414.90268857903567
 20
49.187681309567267
 11
410.04813707903605
 21
49.187681309567267
  0
LINE
  8
_0-0_
  6
CONTINUOUS
 62
    7
 10
410.04813707903605
 20
49.187681309567267
 11
409.29758157903626
 21
47.887681309567085
  0
LINE
  8
_0-0_
  6
CONTINUOUS
 62
    7
 10
410.04813707903605
 20
44.287681309566722
 11
414.90268857903567
 21
44.287681309566722
  0
LINE
  8
_0-0_
  6
CONTINUOUS
 62
    7
 10
417.29758157903626
 20
44.387681309567085
 11
420.59758081609681
 21
44.387681309567085
  0
LINE
  8
_0-0_
  6
CONTINUOUS
 62
    7
 10
420.59758081609681
 20
44.387681309567085
 11
420.59758081609681
 21
34.387681309567085
  0
LINE
  8
_0-0_
  6
CONTINUOUS
 62
    7
 10
420.59758081609681
 20
34.387681309567085
 11
417.29758157903626
 21
34.387681309567085
  0
LINE
  8
_0-0_
  6
CONTINUOUS
 62
    7
 10
417.29758157903626
 20
35.087681118832222
 11
421.29758157903626
 21
35.087681118832222
  0
LINE
  8
_0-0_
  6
CONTINUOUS
 62
    7
 10
421.29758157903626
 20
35.087681118832222
 11
421.29758157903626
 21
43.687681500301949
  0
LINE
  8
_0-0_
  6
CONTINUOUS
 62
    7
 10
421.29758157903626
 20
43.687681500301949
 11
420.59758081609681
 21
44.387681309567085
  0
LINE
  8
_0-0_
  6
CONTINUOUS
 62
    7
 10
421.29758157903626
 20
43.687681500301949
 11
417.29758157903626
 21
43.687681500301949
  0
LINE
  8
_0-0_
  6
CONTINUOUS
 62
    7
 10
421.29758157903626
 20
35.087681118832222
 11
420.59758081609681
 21
34.387681309567085
  0
LINE
  8
_0-0_
  6
CONTINUOUS
 62
    7
 10
404.39758157903572
 20
58.887681309567085
 11
404.39758157903572
 21
19.887681309567085
  0
LINE
  8
_0-0_
  6
CONTINUOUS
 62
    7
 10
404.39758157903572
 20
19.887681309567085
 11
402.79758157903626
 21
18.387681309567085
  0
LINE
  8
_0-0_
  6
CONTINUOUS
 62
    7
 10
402.79758157903626
 20
16.887681309567085
 11
411.29758157903626
 21
16.887681309567085
  0
LINE
  8
_0-0_
  6
CONTINUOUS
 62
    7
 10
410.04813707903605
 20
34.48768130956654
 11
414.90268857903567
 21
34.48768130956654
  0
LINE
  8
_0-0_
  6
CONTINUOUS
 62
    7
 10
361.1975815790359
 20
58.887681309567085
 11
362.79758157903626
 21
60.387681309567085
  0
LINE
  8
_0-0_
  6
CONTINUOUS
 62
    7
 10
365.79758157903626
 20
6.8876813095670855
 11
399.79758157903626
 21
6.8876813095670855
  0
LINE
  8
_0-0_
  6
CONTINUOUS
 62
    7
 10
404.39758157903572
 20
29.387681309567085
 11
406.09758157903553
 21
29.387681309567085
  0
LINE
  8
_0-0_
  6
CONTINUOUS
 62
    7
 10
406.09758157903553
 20
49.387681309567085
 11
404.39758157903572
 21
49.387681309567085
  0
LINE
  8
_0-0_
  6
CONTINUOUS
 62
    7
 10
404.39758157903572
 20
58.887681309567085
 11
402.79758157903626
 21
60.387681309567085
  0
LINE
  8
_0-0_
  6
CONTINUOUS
 62
    7
 10
361.1975815790359
 20
29.387681309567085
 11
359.49758157903608
 21
29.387681309567085
  0
LINE
  8
_0-0_
  6
CONTINUOUS
 62
    7
 10
356.29758157903626
 20
30.887681309567085
 11
355.29758157903626
 21
30.887681309567085
  0
LINE
  8
_0-0_
  6
CONTINUOUS
 62
    7
 10
349.29758157903626
 20
21.88768130956754
 11
349.29758157903626
 21
106.88768130956709
  0
ARC
  8
_0-0_
  6
CONTINUOUS
 62
    7
 10
413.55494089191717
 20
18.387681309566631
 40
3.0000000000000009
 50
270
 51
314.99999999999977
  0
CIRCLE
  8
_0-0_
  6
CONTINUOUS
 62
    7
 10
314.79758157903626
 20
23.38768130956754
 40
3.2500000000000009
  0
CIRCLE
  8
_0-0_
  6
CONTINUOUS
 62
    7
 10
314.79758157903626
 20
63.387681309566631
 40
3.2500000000000009
  0
CIRCLE
  8
_0-0_
  6
CONTINUOUS
 62
    7
 10
314.79758157903626
 20
83.38768130956754
 40
3.2500000000000009
  0
CIRCLE
  8
_0-0_
  6
CONTINUOUS
 62
    7
 10
423.79758157903626
 20
132.38768130956697
 40
3.2500000000000004
  0
CIRCLE
  8
_0-0_
  6
CONTINUOUS
 62
    7
 10
383.79758157903626
 20
132.38768130956697
 40
3.2500000000000004
  0
CIRCLE
  8
_0-0_
  6
CONTINUOUS
 62
    7
 10
363.79758157903626
 20
132.38768130956697
 40
3.2500000000000004
  0
ARC
  8
_0-0_
  6
CONTINUOUS
 62
    7
 10
428.79758157903626
 20
33.630321996686632
 40
3.0000000000000009
 50
315
 51
0
  0
ARC
  8
_0-0_
  6
CONTINUOUS
 62
    7
 10
428.79758157903626
 20
149.38768130956743
 40
3.0000000000000009
 50
0
 51
90
  0
ARC
  8
_0-0_
  6
CONTINUOUS
 62
    7
 10
297.79758157903626
 20
18.387681309566631
 40
3.0000000000000009
 50
180
 51
270
  0
ARC
  8
_0-0_
  6
CONTINUOUS
 62
    7
 10
431.79758157903626
 20
132.56503475422033
 40
3.0000000000000009
 50
353.2334729076797
 51
0
  0
CIRCLE
  8
_0-0_
  6
CONTINUOUS
 62
    7
 10
280.79758157903626
 20
110.38768130956754
 40
10
  0
CIRCLE
  8
_0-0_
  6
CONTINUOUS
 62
    7
 10
280.79758157903626
 20
110.38768130956754
 40
30
  0
ARC
  8
_0-0_
  6
CONTINUOUS
 62
    7
 10
382.79758157903626
 20
64.387681309567085
 40
24
 50
334.15806723683113
 51
205.84193276316762
  0
ARC
  8
_0-0_
  6
CONTINUOUS
 62
    7
 10
365.79758157903626
 20
9.8876813095670855
 40
3
 50
180
 51
270
  0
ARC
  8
_0-0_
  6
CONTINUOUS
 62
    7
 10
399.79758157903626
 20
9.8876813095670855
 40
3
 50
270
 51
0
  0
ARC
  8
_0-0_
  6
CONTINUOUS
 62
    7
 10
411.29758157903626
 20
106.88768130956709
 40
5
 50
0
 51
90
  0
ARC
  8
_0-0_
  6
CONTINUOUS
 62
    7
 10
411.29758157903626
 20
21.887681309567085
 40
5
 50
270
 51
0
  0
ARC
  8
_0-0_
  6
CONTINUOUS
 62
    7
 10
354.29758157903626
 20
106.88768130956709
 40
5
 50
90
 51
180
  0
ARC
  8
_0-0_
  6
CONTINUOUS
 62
    7
 10
354.29758157903626
 20
21.88768130956754
 40
5
 50
180
 51
270
  0
ARC
  8
_0-0_
  6
CONTINUOUS
 62
    7
 10
416.54758157903626
 20
31.887681309567085
 40
0.75
 50
270
 51
0
  0
ARC
  8
_0-0_
  6
CONTINUOUS
 62
    7
 10
410.81921807903683
 20
31.602327309566533
 40
5
 50
354.66785499999975
 51
35.244780000000013
  0
ARC
  8
_0-0_
  6
CONTINUOUS
 62
    7
 10
405.82281957903643
 20
38.677666309566519
 40
10
 50
335.22862399999991
 51
4.0715109999995889
  0
ARC
  8
_0-0_
  6
CONTINUOUS
 62
    7
 10
410.81921807903683
 20
47.173035309566728
 40
5
 50
324.75521999999961
 51
5.3321449999998736
  0
ARC
  8
_0-0_
  6
CONTINUOUS
 62
    7
 10
416.54758157903626
 20
46.887681309567085
 40
0.75
 50
0
 51
90
  0
ARC
  8
_0-0_
  6
CONTINUOUS
 62
    7
 10
405.82281957903643
 20
40.097696309566743
 40
10
 50
355.92848900000001
 51
24.771375999999677
  0
ARC
  8
_0-0_
  6
CONTINUOUS
 62
    7
 10
419.24913407903597
 20
38.404522809566913
 40
10
 50
185.64220432140786
 51
203.05933400000001
  0
ARC
  8
_0-0_
  6
CONTINUOUS
 62
    7
 10
419.24913407903597
 20
40.370839809567258
 40
10
 50
156.94066600000005
 51
174.35779567859214
  0
ARC
  8
_0-0_
  6
CONTINUOUS
 62
    7
 10
414.22462707903588
 20
47.036668309566664
 40
5
 50
189.79959553824938
 51
213.35311700000037
  0
ARC
  8
_0-0_
  6
CONTINUOUS
 62
    7
 10
414.22462707903588
 20
31.738694309566597
 40
5
 50
146.64688299999955
 51
170.20040446175079
  0
ARC
  8
_0-0_
  6
CONTINUOUS
 62
    7
 10
362.32883157718544
 20
39.387681309567085
 40
11.031249998148837
 50
129.59775270452442
 51
230.40224730257353
  0
ARC
  8
_0-0_
  6
CONTINUOUS
 62
    7
 10
399.79758157903626
 20
68.887681309567085
 40
3
 50
0
 51
90
  0
ARC
  8
_0-0_
  6
CONTINUOUS
 62
    7
 10
365.79758157903626
 20
68.887681309567085
 40
3
 50
90
 51
180
  0
ARC
  8
_0-0_
  6
CONTINUOUS
 62
    7
 10
360.29758157903626
 20
27.88768130956754
 40
5.5
 50
215.09680122758473
 51
223.34175822721895
  0
ARC
  8
_0-0_
  6
CONTINUOUS
 62
    7
 10
360.29758157903626
 20
27.88768130956754
 40
5.5
 50
226.65824177278128
 51
279.41802721995526
  0
ARC
  8
_0-0_
  6
CONTINUOUS
 62
    7
 10
405.29758157903626
 20
27.887681309567085
 40
5.5
 50
260.58197278004229
 51
313.34175822721875
  0
ARC
  8
_0-0_
  6
CONTINUOUS
 62
    7
 10
405.29758157903626
 20
27.887681309567085
 40
5.5
 50
316.65824177277773
 51
324.90319877241524
  0
ARC
  8
_0-0_
  6
CONTINUOUS
 62
    7
 10
408.09758157903553
 20
54.511953276740712
 40
2
 50
158.72039557282559
 51
180
  0
ARC
  8
_0-0_
  6
CONTINUOUS
 62
    7
 10
411.29758157903626
 20
54.628928227811627
 40
2
 50
165.25643716352923
 51
179.99999999999997
  0
ARC
  8
_0-0_
  6
CONTINUOUS
 62
    7
 10
354.29758157903626
 20
54.628928227811627
 40
2
 50
0
 51
14.743562836469456
  0
ARC
  8
_0-0_
  6
CONTINUOUS
 62
    7
 10
357.49758157903608
 20
54.511953276740712
 40
2
 50
0
 51
21.279604427172014
  0
ARC
  8
_0-0_
  6
CONTINUOUS
 62
    7
 10
382.79758157903626
 20
72.318104865668317
 40
29
 50
323.91560358208682
 51
216.08439641791327
  0
ARC
  8
_0-0_
  6
CONTINUOUS
 62
    7
 10
382.79758157903626
 20
72.977633563095822
 40
32
 50
326.11752481942341
 51
213.88247518057665
  0
ARC
  8
_0-0_
  6
CONTINUOUS
 62
    7
 10
382.79758157903626
 20
64.387681309567085
 40
12
 50
38.682187453489483
 51
141.31781254651054
  0
ARC
  8
_0-0_
  6
CONTINUOUS
 62
    7
 10
382.79758157903626
 20
64.387681309567085
 40
21
 50
347.67230522904612
 51
192.3276947709534
  0
ARC
  8
_0-0_
  6
CONTINUOUS
 62
    7
 10
382.79758157903626
 20
101.15723393126785
 40
4.25
 50
62.183052208199804
 51
117.8169477918002
  0
ARC
  8
_0-0_
  6
CONTINUOUS
 62
    7
 10
419.29758157903626
 20
86.88768130956754
 40
4.2500000000000009
 50
225.09912784402729
 51
134.90087215597271
  0
ARC
  8
_0-0_
  6
CONTINUOUS
 62
    7
 10
346.29758157903626
 20
86.88768130956754
 40
4.2500000000000009
 50
45.099127844027414
 51
314.90087215597259
  0
ARC
  8
_0-0_
  6
CONTINUOUS
 62
    7
 10
346.02802895733595
 20
64.38768130956754
 40
4.25
 50
39.70834612844326
 51
320.29165387155678
  0
ARC
  8
_0-0_
  6
CONTINUOUS
 62
    7
 10
346.29758157903626
 20
41.88768130956754
 40
4.2500000000000009
 50
45.099127844027301
 51
314.90087215597271
  0
ARC
  8
_0-0_
  6
CONTINUOUS
 62
    7
 10
419.29758157903626
 20
41.88768130956754
 40
4.2500000000000009
 50
298.07248693585296
 51
118.07248693585296
  0
ARC
  8
_0-0_
  6
CONTINUOUS
 62
    7
 10
419.56713420073658
 20
64.38768130956754
 40
4.25
 50
219.70834612844322
 51
140.29165387155689
  0
ARC
  8
_0-0_
  6
CONTINUOUS
 62
    7
 10
301.79758157903626
 20
18.387681309566631
 40
3.0000000000000009
 50
270
 51
0
  0
ARC
  8
_0-0_
  6
CONTINUOUS
 62
    7
 10
334.04022226615535
 20
139.38768130956743
 40
3.0000000000000009
 50
90.000000000000057
 51
135.00000000000006
  0
ARC
  8
_0-0_
  6
CONTINUOUS
 62
    7
 10
428.79758157903626
 20
145.38768130956743
 40
3.0000000000000009
 50
270
 51
0
  0
CIRCLE
  8
_0-0_
  6
CONTINUOUS
 62
    7
 10
360.29758157903626
 20
100.88768130956709
 40
3.4600000381469727
  0
CIRCLE
  8
_0-0_
  6
CONTINUOUS
 62
    7
 10
405.29758157903626
 20
100.88768130956709
 40
3.4600000381469727
  0
ARC
  8
_0-0_
  6
CONTINUOUS
 62
    7
 10
360.29758157903626
 20
100.88768130956709
 40
6.25
 50
356.80050995849547
 51
260.94832150137637
  0
ARC
  8
_0-0_
  6
CONTINUOUS
 62
    7
 10
360.29758157903626
 20
100.88768130956709
 40
4
 50
323.72438217427384
 51
294.02444928559902
  0
ARC
  8
_0-0_
  6
CONTINUOUS
 62
    7
 10
405.29758157903626
 20
100.88768130956709
 40
6.25
 50
279.05167849862158
 51
183.19949004150453
  0
ARC
  8
_0-0_
  6
CONTINUOUS
 62
    7
 10
405.29758157903626
 20
100.88768130956709
 40
4
 50
245.97555071439754
 51
216.27561782572616
  0
LINE
  8
_0-0_
  6
CONTINUOUS
 62
    7
 10
484.94799087903618
 20
390.12587455364542
 11
484.94799087903618
 21
287.28282439404956
  0
LINE
  8
_0-0_
  6
CONTINUOUS
 62
    7
 10
781.38998222827445
 20
269.17815648156392
 11
780.44115678832418
 21
287.28282439404956
  0
LINE
  8
_0-0_
  6
CONTINUOUS
 62
    7
 10
780.94115678832418
 20
287.28282439404956
 11
916.91426672568355
 21
287.28282439404956
  0
LINE
  8
_0-0_
  6
CONTINUOUS
 62
    7
 10
917.4135814930612
 20
286.75665641592803
 11
916.88981923432652
 21
276.76267716513411
  0
LINE
  8
_0-0_
  6
CONTINUOUS
 62
    7
 10
783.38724129778416
 20
267.28282839405
 11
865.44115678832418
 21
267.28282839405
  0
LINE
  8
_0-0_
  6
CONTINUOUS
 62
    7
 10
865.44115678832418
 20
267.28282839405
 11
914.29938349575036
 21
273.94720997531311
  0
LINE
  8
_0-0_
  6
CONTINUOUS
 62
    7
 10
897.14936072082378
 20
268.33837994954973
 11
873.17966584143392
 21
268.33837994954973
  0
LINE
  8
_0-0_
  6
CONTINUOUS
 62
    7
 10
865.44115678832418
 20
267.92844628975143
 11
865.44115678832418
 21
286.82569829678522
  0
LINE
  8
_0-0_
  6
CONTINUOUS
 62
    7
 10
880.43785452548923
 20
208.33255081048009
 11
887.54204407393422
 21
245.43220734124878
  0
LINE
  8
_0-0_
  6
CONTINUOUS
 62
    7
 10
852.44115678832418
 20
183.78282439405046
 11
792.44115678832418
 21
183.78282439405046
  0
LINE
  8
_0-0_
  6
CONTINUOUS
 62
    7
 10
792.44115678832418
 20
183.78282439405046
 11
792.44115678832418
 21
195.58282439405065
  0
LINE
  8
_0-0_
  6
CONTINUOUS
 62
    7
 10
792.44115678832418
 20
195.58282439405065
 11
852.44115678832418
 21
195.58282439405065
  0
LINE
  8
_0-0_
  6
CONTINUOUS
 62
    7
 10
852.44115678832418
 20
195.58282439405065
 11
852.44115678832418
 21
183.78282439405046
  0
LINE
  8
_0-0_
  6
CONTINUOUS
 62
    7
 10
848.44115678832418
 20
183.78282439405046
 11
848.44115678832418
 21
182.78282439405046
  0
LINE
  8
_0-0_
  6
CONTINUOUS
 62
    7
 10
848.44115678832418
 20
182.78282439405046
 11
796.44115678832509
 21
182.78282439405046
  0
LINE
  8
_0-0_
  6
CONTINUOUS
 62
    7
 10
796.44115678832509
 20
182.78282439405046
 11
796.44115678832509
 21
183.78282439405046
  0
LINE
  8
_0-0_
  6
CONTINUOUS
 62
    7
 10
792.44115678832418
 20
195.58282439405065
 11
804.64115678832491
 21
207.78282439405046
  0
LINE
  8
_0-0_
  6
CONTINUOUS
 62
    7
 10
804.64115678832491
 20
207.78282439405046
 11
840.24115678832436
 21
207.78282439405046
  0
LINE
  8
_0-0_
  6
CONTINUOUS
 62
    7
 10
840.24115678832436
 20
207.78282439405046
 11
852.44115678832418
 21
195.58282439405065
  0
LINE
  8
_0-0_
  6
CONTINUOUS
 62
    7
 10
901.94115678832418
 20
250.78282439404956
 11
895.67806939917568
 21
249.73888401263065
  0
LINE
  8
_0-0_
  6
CONTINUOUS
 62
    7
 10
901.94115678832418
 20
250.78282439404956
 11
901.94115678832418
 21
256.78282439404956
  0
LINE
  8
_0-0_
  6
CONTINUOUS
 62
    7
 10
895.94115678832418
 20
262.78282439404956
 11
840.94115678832418
 21
262.78282439404956
  0
LINE
  8
_0-0_
  6
CONTINUOUS
 62
    7
 10
839.44115678832418
 20
264.78282439394951
 11
839.44115678832418
 21
266.56060217174962
  0
LINE
  8
_0-0_
  6
CONTINUOUS
 62
    7
 10
839.44115678832418
 20
266.56060217174962
 11
897.44115678832418
 21
266.56060217174962
  0
LINE
  8
_0-0_
  6
CONTINUOUS
 62
    7
 10
897.44115678832418
 20
266.56060217174962
 11
897.44115678832418
 21
264.78282439394951
  0
LINE
  8
_0-0_
  6
CONTINUOUS
 62
    7
 10
897.44115678832418
 20
264.78282439394951
 11
839.44115678832418
 21
264.78282439394951
  0
LINE
  8
_0-0_
  6
CONTINUOUS
 62
    7
 10
836.29756299832457
 20
265.92235532312696
 11
836.29756299832457
 21
255.6433001213656
  0
LINE
  8
_0-0_
  6
CONTINUOUS
 62
    7
 10
836.29756299832457
 20
255.58799637968258
 11
839.48208215562295
 21
252.78282439404956
  0
LINE
  8
_0-0_
  6
CONTINUOUS
 62
    7
 10
832.83346120694273
 20
254.28282839590173
 11
812.04885236600035
 21
254.28282839590173
  0
LINE
  8
_0-0_
  6
CONTINUOUS
 62
    7
 10
814.44115678832509
 20
254.28282839590173
 11
814.44115678832509
 21
227.78282439405046
  0
LINE
  8
_0-0_
  6
CONTINUOUS
 62
    7
 10
815.51295368054502
 20
227.7828243959022
 11
815.51295368054502
 21
219.14329611951342
  0
LINE
  8
_0-0_
  6
CONTINUOUS
 62
    7
 10
814.44115678832509
 20
217.78282439405046
 11
814.44115678832509
 21
213.72709630404933
  0
LINE
  8
_0-0_
  6
CONTINUOUS
 62
    7
 10
814.44115678832509
 20
213.72709630404933
 11
830.44115678832418
 21
213.72709630404933
  0
LINE
  8
_0-0_
  6
CONTINUOUS
 62
    7
 10
830.44115678832418
 20
213.72709630404933
 11
830.44115678832418
 21
217.78282439405046
  0
LINE
  8
_0-0_
  6
CONTINUOUS
 62
    7
 10
832.83346120694273
 20
217.78282439405046
 11
812.04885236600035
 21
217.78282439405046
  0
LINE
  8
_0-0_
  6
CONTINUOUS
 62
    7
 10
808.58475057461851
 20
219.14329611951342
 11
808.58475057461851
 21
227.78282439590311
  0
LINE
  8
_0-0_
  6
CONTINUOUS
 62
    7
 10
808.58475057461851
 20
227.78282439590311
 11
836.29756299832457
 21
227.78282439590311
  0
LINE
  8
_0-0_
  6
CONTINUOUS
 62
    7
 10
836.29756299832457
 20
227.78282439590311
 11
836.29756299832457
 21
219.14329611951342
  0
LINE
  8
_0-0_
  6
CONTINUOUS
 62
    7
 10
829.36935989239805
 20
219.14329611951342
 11
829.36935989239805
 21
227.7828243959022
  0
LINE
  8
_0-0_
  6
CONTINUOUS
 62
    7
 10
830.44115678832418
 20
227.78282439405046
 11
830.44115678832418
 21
254.28282839590173
  0
LINE
  8
_0-0_
  6
CONTINUOUS
 62
    7
 10
815.51295368054502
 20
255.6433001213656
 11
815.51295368054502
 21
265.92235551790799
  0
LINE
  8
_0-0_
  6
CONTINUOUS
 62
    7
 10
808.58475057461851
 20
265.92235532312696
 11
808.58475057461851
 21
255.6433001213656
  0
LINE
  8
_0-0_
  6
CONTINUOUS
 62
    7
 10
829.36935989239805
 20
255.6433001213656
 11
829.36935989239805
 21
265.92235551790799
  0
LINE
  8
_0-0_
  6
CONTINUOUS
 62
    7
 10
829.54115669295766
 20
328.78282439405058
 11
815.34115688369161
 21
328.78282439405058
  0
LINE
  8
_0-0_
  6
CONTINUOUS
 62
    7
 10
815.34115688369161
 20
328.78282439405058
 11
814.44115678832509
 21
327.8828247755194
  0
LINE
  8
_0-0_
  6
CONTINUOUS
 62
    7
 10
814.44115678832509
 20
327.8828247755194
 11
814.44115678832509
 21
297.28282839405
  0
LINE
  8
_0-0_
  6
CONTINUOUS
 62
    7
 10
830.44115678832418
 20
327.8828247755194
 11
829.54115669295766
 21
328.78282439405058
  0
LINE
  8
_0-0_
  6
CONTINUOUS
 62
    7
 10
830.44115678832418
 20
327.8828247755194
 11
830.44115678832418
 21
297.28282839405
  0
LINE
  8
_0-0_
  6
CONTINUOUS
 62
    7
 10
837.59426308817979
 20
297.28282839405
 11
807.28805048846857
 21
297.28282839405
  0
LINE
  8
_0-0_
  6
CONTINUOUS
 62
    7
 10
804.29216188420537
 20
294.43983626277912
 11
803.96674375390262
 21
288.23048843780651
  0
LINE
  8
_0-0_
  6
CONTINUOUS
 62
    7
 10
840.91556982274574
 20
288.23048843780651
 11
840.59015169244299
 21
294.43983626277912
  0
ARC
  8
_0-0_
  6
CONTINUOUS
 62
    7
 10
893.44115678832418
 20
215.28282439404956
 40
32.499999999999986
 50
181.18784253166186
 51
92.301457078637455
  0
ARC
  8
_0-0_
  6
CONTINUOUS
 62
    7
 10
840.94115678832418
 20
256.78282439404956
 40
6
 50
90
 51
140.70833109660666
  0
LINE
  8
_0-0_
  6
CONTINUOUS
 62
    7
 10
894.96378214945457
 20
271.30978667613039
 11
895.82284644683682
 21
270.53955086793559
  0
LINE
  8
_0-0_
  6
CONTINUOUS
 62
    7
 10
895.82284644683682
 20
270.53955086793559
 11
896.51839082721153
 21
269.64841671705238
  0
LINE
  8
_0-0_
  6
CONTINUOUS
 62
    7
 10
896.51839082721153
 20
269.64841671705238
 11
897.02928152654363
 21
268.66346088371967
  0
LINE
  8
_0-0_
  6
CONTINUOUS
 62
    7
 10
897.02928152654363
 20
268.66346088371967
 11
897.14936072082355
 21
268.33837994954962
  0
LINE
  8
_0-0_
  6
CONTINUOUS
 62
    7
 10
839.6588360797482
 20
267.28282839405
 11
839.44115678832418
 21
266.56060217174979
  0
ARC
  8
_0-0_
  6
CONTINUOUS
 62
    7
 10
893.44115678832418
 20
215.28282439404956
 40
15
 50
259.85445556610318
 51
57.486385369999823
  0
ARC
  8
_0-0_
  6
CONTINUOUS
 62
    7
 10
896.66454835363106
 20
243.82053464203562
 40
6
 50
99.463145391943158
 51
195.86116881036628
  0
ARC
  8
_0-0_
  6
CONTINUOUS
 62
    7
 10
914.94115678642788
 20
249.01337434630403
 40
24.999999999999943
 50
195.86116881036611
 51
237.48638536999999
  0
ARC
  8
_0-0_
  6
CONTINUOUS
 62
    7
 10
895.94115678832418
 20
256.78282439404956
 40
6
 50
0
 51
90
  0
ARC
  8
_0-0_
  6
CONTINUOUS
 62
    7
 10
901.94115678832418
 20
262.78282439404956
 40
63.254533465779254
 50
189.09613364186055
 51
259.85445556610347
  0
ARC
  8
_0-0_
  6
CONTINUOUS
 62
    7
 10
843.44115678832418
 20
264.78282439394951
 40
1.9999999998999982
 50
180
 51
270
  0
ARC
  8
_0-0_
  6
CONTINUOUS
 62
    7
 10
893.44115678832418
 20
264.78282439394951
 40
1.9999999998999982
 50
270
 51
0
  0
LINE
  8
_0-0_
  6
CONTINUOUS
 62
    7
 10
897.44115678832418
 20
266.56060217174979
 11
897.21510997008272
 21
267.32501894172242
  0
LINE
  8
_0-0_
  6
CONTINUOUS
 62
    7
 10
897.21510997008272
 20
267.32501894172242
 11
897.14182933740221
 21
268.1127137193734
  0
LINE
  8
_0-0_
  6
CONTINUOUS
 62
    7
 10
897.14182933740221
 20
268.1127137193734
 11
897.1493607208065
 21
268.33837994954979
  0
CIRCLE
  8
_0-0_
  6
CONTINUOUS
 62
    7
 10
893.44115678832418
 20
215.28282439404956
 40
8.5
  0
ARC
  8
_0-0_
  6
CONTINUOUS
 62
    7
 10
822.44115678647154
 20
248.96165472614229
 40
18.321172714233402
 50
67.780689151566378
 51
112.21931084843361
  0
LINE
  8
_0-0_
  6
CONTINUOUS
 62
    7
 10
808.58475057461851
 20
265.92235532312685
 11
810.10997543993449
 21
266.86775409722384
  0
LINE
  8
_0-0_
  6
CONTINUOUS
 62
    7
 10
810.10997543993449
 20
266.86775409722384
 11
811.69411209952978
 21
267.26908510285404
  0
LINE
  8
_0-0_
  6
CONTINUOUS
 62
    7
 10
811.69411209952978
 20
267.26908510285404
 11
813.28902736261466
 21
267.1141541004946
  0
LINE
  8
_0-0_
  6
CONTINUOUS
 62
    7
 10
813.28902736261466
 20
267.1141541004946
 11
814.84626053598618
 21
266.40766859025337
  0
LINE
  8
_0-0_
  6
CONTINUOUS
 62
    7
 10
814.84626053598618
 20
266.40766859025337
 11
815.51295447056168
 21
265.92235506726809
  0
LINE
  8
_0-0_
  6
CONTINUOUS
 62
    7
 10
829.36936136083523
 20
265.92235691235987
 11
830.89458633458185
 21
266.86775498672614
  0
LINE
  8
_0-0_
  6
CONTINUOUS
 62
    7
 10
830.89458633458185
 20
266.86775498672614
 11
832.47872304020711
 21
267.26908526559851
  0
LINE
  8
_0-0_
  6
CONTINUOUS
 62
    7
 10
832.47872304020711
 20
267.26908526559851
 11
834.07363828552229
 21
267.11415353153637
  0
LINE
  8
_0-0_
  6
CONTINUOUS
 62
    7
 10
834.07363828552229
 20
267.11415353153637
 11
835.63087137786488
 21
266.40766730687994
  0
LINE
  8
_0-0_
  6
CONTINUOUS
 62
    7
 10
835.63087137786488
 20
266.40766730687994
 11
836.29756299832457
 21
265.92235532312674
  0
LINE
  8
_0-0_
  6
CONTINUOUS
 62
    7
 10
815.51295447056168
 20
255.64330172268365
 11
813.98772962270255
 21
254.69790283593346
  0
LINE
  8
_0-0_
  6
CONTINUOUS
 62
    7
 10
813.98772962270255
 20
254.69790283593346
 11
812.40359297051782
 21
254.29657171329882
  0
LINE
  8
_0-0_
  6
CONTINUOUS
 62
    7
 10
812.40359297051782
 20
254.29657171329882
 11
810.80867770457212
 21
254.45150259785777
  0
LINE
  8
_0-0_
  6
CONTINUOUS
 62
    7
 10
810.80867770457212
 20
254.45150259785777
 11
809.25144451815527
 21
255.15798799308163
  0
LINE
  8
_0-0_
  6
CONTINUOUS
 62
    7
 10
809.25144451815527
 20
255.15798799308163
 11
808.58475251989285
 21
255.64329987759186
  0
LINE
  8
_0-0_
  6
CONTINUOUS
 62
    7
 10
836.29756331150406
 20
255.64330172268365
 11
834.77233846364493
 21
254.69790283593346
  0
LINE
  8
_0-0_
  6
CONTINUOUS
 62
    7
 10
834.77233846364493
 20
254.69790283593346
 11
833.1882018114602
 21
254.29657171329882
  0
LINE
  8
_0-0_
  6
CONTINUOUS
 62
    7
 10
833.1882018114602
 20
254.29657171329882
 11
831.5932865455145
 21
254.45150259785777
  0
LINE
  8
_0-0_
  6
CONTINUOUS
 62
    7
 10
831.5932865455145
 20
254.45150259785777
 11
830.03605335909765
 21
255.15798799308163
  0
LINE
  8
_0-0_
  6
CONTINUOUS
 62
    7
 10
830.03605335909765
 20
255.15798799308163
 11
829.36936136083523
 21
255.64329987759186
  0
ARC
  8
_0-0_
  6
CONTINUOUS
 62
    7
 10
822.44115678647154
 20
272.60400206380945
 40
18.321172714233402
 50
247.78070068359386
 51
292.21931457519543
  0
ARC
  8
_0-0_
  6
CONTINUOUS
 62
    7
 10
822.44115678832418
 20
204.78282439405046
 40
12.000000000000004
 50
131.81031489577896
 51
165.5224878140701
  0
ARC
  8
_0-0_
  6
CONTINUOUS
 62
    7
 10
822.44115678832418
 20
204.78282439405046
 40
12.000000000000004
 50
14.477512185929857
 51
48.189685104221027
  0
LINE
  8
_0-0_
  6
CONTINUOUS
 62
    7
 10
815.51295447056168
 20
219.14329772083147
 11
813.98772962270255
 21
218.19789883408129
  0
LINE
  8
_0-0_
  6
CONTINUOUS
 62
    7
 10
813.98772962270255
 20
218.19789883408129
 11
812.40359297051782
 21
217.79656771144664
  0
LINE
  8
_0-0_
  6
CONTINUOUS
 62
    7
 10
812.40359297051782
 20
217.79656771144664
 11
810.80867770457212
 21
217.95149859600559
  0
LINE
  8
_0-0_
  6
CONTINUOUS
 62
    7
 10
810.80867770457212
 20
217.95149859600559
 11
809.25144451815527
 21
218.65798399122946
  0
LINE
  8
_0-0_
  6
CONTINUOUS
 62
    7
 10
809.25144451815527
 20
218.65798399122946
 11
808.58475251989285
 21
219.14329587573968
  0
LINE
  8
_0-0_
  6
CONTINUOUS
 62
    7
 10
836.29756331150406
 20
219.14329772083147
 11
834.77233846364493
 21
218.19789883408129
  0
LINE
  8
_0-0_
  6
CONTINUOUS
 62
    7
 10
834.77233846364493
 20
218.19789883408129
 11
833.1882018114602
 21
217.79656771144664
  0
LINE
  8
_0-0_
  6
CONTINUOUS
 62
    7
 10
833.1882018114602
 20
217.79656771144664
 11
831.5932865455145
 21
217.95149859600559
  0
LINE
  8
_0-0_
  6
CONTINUOUS
 62
    7
 10
831.5932865455145
 20
217.95149859600559
 11
830.03605335909765
 21
218.65798399122946
  0
LINE
  8
_0-0_
  6
CONTINUOUS
 62
    7
 10
830.03605335909765
 20
218.65798399122946
 11
829.36936136083523
 21
219.14329587573968
  0
ARC
  8
_0-0_
  6
CONTINUOUS
 62
    7
 10
822.44115678647154
 20
236.10399806195727
 40
18.321172714233402
 50
247.78070068359386
 51
292.21931457519543
  0
ARC
  8
_0-0_
  6
CONTINUOUS
 62
    7
 10
913.89393063006241
 20
276.91968503386323
 40
3
 50
277.76734898558624
 51
356.99999999999989
  0
ARC
  8
_0-0_
  6
CONTINUOUS
 62
    7
 10
916.91426672568355
 20
286.78282439404956
 40
0.5
 50
356.99999999999994
 51
90.000000000000043
  0
ARC
  8
_0-0_
  6
CONTINUOUS
 62
    7
 10
783.38724129778416
 20
269.28282839405
 40
2
 50
183.00000000000011
 51
270
  0
ARC
  8
_0-0_
  6
CONTINUOUS
 62
    7
 10
837.59426308817979
 20
294.28282839405
 40
3
 50
2.9999999999997122
 51
90.000000000000028
  0
ARC
  8
_0-0_
  6
CONTINUOUS
 62
    7
 10
807.28805048846857
 20
294.28282839405
 40
3
 50
90
 51
177.00000000000031
  0
ARC
  8
_0-0_
  6
CONTINUOUS
 62
    7
 10
841.91419935750105
 20
288.28282439404956
 40
1
 50
182.99999999999994
 51
270
  0
ARC
  8
_0-0_
  6
CONTINUOUS
 62
    7
 10
802.96811421914822
 20
288.28282439404956
 40
1
 50
269.99999999999994
 51
357
  0
ARC
  8
_0-0_
  6
CONTINUOUS
 62
    7
 10
780.94115678832418
 20
286.78282439404956
 40
0.5
 50
90
 51
180
  0
ARC
  8
_0-0_
  6
CONTINUOUS
 62
    7
 10
893.44115678832418
 20
215.28282439404956
 40
26.499999999999986
 50
192.15277431056964
 51
95.153094682691659
  0
ARC
  8
_0-0_
  6
CONTINUOUS
 62
    7
 10
893.44115678832418
 20
215.28282439404956
 40
24.999999999999986
 50
195.58964815835668
 51
94.356283015843786
  0
ARC
  8
_0-0_
  6
CONTINUOUS
 62
    7
 10
893.44115678832418
 20
215.28282439404956
 40
20.999999999999986
 50
207.27841698540968
 51
90.04331720745428
  0
LINE
  8
_0-0_
  6
CONTINUOUS
 62
    7
 10
538.59840017903616
 20
287.28282439404956
 11
707.61966549242561
 21
287.28282439404956
  0
LINE
  8
_0-0_
  6
CONTINUOUS
 62
    7
 10
707.62175995080952
 20
287.29652905198617
 11
707.24739508315497
 21
294.43983626277912
  0
LINE
  8
_0-0_
  6
CONTINUOUS
 62
    7
 10
704.25150647889177
 20
297.28282839405
 11
676.57144274821212
 21
297.28282839405
  0
LINE
  8
_0-0_
  6
CONTINUOUS
 62
    7
 10
675.57281321345772
 20
296.33516435029304
 11
675.09840017903525
 21
287.28282439404956
  0
LINE
  8
_0-0_
  6
CONTINUOUS
 62
    7
 10
675.09840017903525
 20
284.97282925134658
 11
675.09840017903525
 21
269.28282839404909
  0
LINE
  8
_0-0_
  6
CONTINUOUS
 62
    7
 10
675.24199396533049
 20
265.92235532312696
 11
675.24199396533049
 21
255.6433001213656
  0
LINE
  8
_0-0_
  6
CONTINUOUS
 62
    7
 10
678.70609575671142
 20
254.28282839590173
 11
699.4907045976538
 21
254.28282839590173
  0
LINE
  8
_0-0_
  6
CONTINUOUS
 62
    7
 10
697.09840017903616
 20
254.28282839590173
 11
697.09840017903616
 21
227.78282439405046
  0
LINE
  8
_0-0_
  6
CONTINUOUS
 62
    7
 10
696.02660328311003
 20
227.7828243959022
 11
696.02660328311003
 21
219.14329611951342
  0
LINE
  8
_0-0_
  6
CONTINUOUS
 62
    7
 10
697.09840017903616
 20
217.78282439405046
 11
697.09840017903616
 21
213.72709630404933
  0
LINE
  8
_0-0_
  6
CONTINUOUS
 62
    7
 10
697.09840017903616
 20
213.72709630404933
 11
681.09840017903616
 21
213.72709630404933
  0
LINE
  8
_0-0_
  6
CONTINUOUS
 62
    7
 10
681.09840017903616
 20
213.72709630404933
 11
681.09840017903616
 21
217.78282439405046
  0
LINE
  8
_0-0_
  6
CONTINUOUS
 62
    7
 10
678.70609575671142
 20
217.78282439405046
 11
699.4907045976538
 21
217.78282439405046
  0
LINE
  8
_0-0_
  6
CONTINUOUS
 62
    7
 10
702.95480638903655
 20
219.14329611951342
 11
702.95480638903655
 21
227.78282439590311
  0
LINE
  8
_0-0_
  6
CONTINUOUS
 62
    7
 10
702.95480638903655
 20
227.78282439590311
 11
675.24199396533049
 21
227.78282439590311
  0
LINE
  8
_0-0_
  6
CONTINUOUS
 62
    7
 10
675.24199396533049
 20
227.78282439590311
 11
675.24199396533049
 21
219.14329611951342
  0
LINE
  8
_0-0_
  6
CONTINUOUS
 62
    7
 10
682.17019707125701
 20
219.14329611951342
 11
682.17019707125701
 21
227.7828243959022
  0
LINE
  8
_0-0_
  6
CONTINUOUS
 62
    7
 10
681.09840017903616
 20
227.78282439405046
 11
681.09840017903616
 21
254.28282839590173
  0
LINE
  8
_0-0_
  6
CONTINUOUS
 62
    7
 10
696.02660328311003
 20
255.6433001213656
 11
696.02660328311003
 21
265.92235551790799
  0
LINE
  8
_0-0_
  6
CONTINUOUS
 62
    7
 10
702.95480638903655
 20
265.92235532312696
 11
702.95480638903655
 21
255.6433001213656
  0
LINE
  8
_0-0_
  6
CONTINUOUS
 62
    7
 10
705.20047104560626
 20
267.28282839405
 11
540.09840017903616
 21
267.28282839405
  0
LINE
  8
_0-0_
  6
CONTINUOUS
 62
    7
 10
538.09840017903616
 20
269.28282839405
 11
538.09840017903616
 21
286.78282439404956
  0
LINE
  8
_0-0_
  6
CONTINUOUS
 62
    7
 10
682.17019707125701
 20
265.92235551790799
 11
682.17019707125701
 21
255.6433001213656
  0
LINE
  8
_0-0_
  6
CONTINUOUS
 62
    7
 10
706.89840017903634
 20
207.78282439405046
 11
671.29840017903598
 21
207.78282439405046
  0
LINE
  8
_0-0_
  6
CONTINUOUS
 62
    7
 10
671.29840017903598
 20
207.78282439405046
 11
659.09840017903616
 21
195.58282439405065
  0
LINE
  8
_0-0_
  6
CONTINUOUS
 62
    7
 10
659.09840017903616
 20
195.58282439405065
 11
659.09840017903616
 21
183.78282439405046
  0
LINE
  8
_0-0_
  6
CONTINUOUS
 62
    7
 10
659.09840017903616
 20
183.78282439405046
 11
719.09840017903616
 21
183.78282439405046
  0
LINE
  8
_0-0_
  6
CONTINUOUS
 62
    7
 10
719.09840017903616
 20
183.78282439405046
 11
719.09840017903616
 21
195.58282439405065
  0
LINE
  8
_0-0_
  6
CONTINUOUS
 62
    7
 10
719.09840017903616
 20
195.58282439405065
 11
659.09840017903616
 21
195.58282439405065
  0
LINE
  8
_0-0_
  6
CONTINUOUS
 62
    7
 10
663.09840017903616
 20
183.78282439405046
 11
663.09840017903616
 21
182.78282439405046
  0
LINE
  8
_0-0_
  6
CONTINUOUS
 62
    7
 10
663.09840017903616
 20
182.78282439405046
 11
715.09840017903616
 21
182.78282439405046
  0
LINE
  8
_0-0_
  6
CONTINUOUS
 62
    7
 10
715.09840017903616
 20
182.78282439405046
 11
715.09840017903616
 21
183.78282439405046
  0
LINE
  8
_0-0_
  6
CONTINUOUS
 62
    7
 10
719.09840017903616
 20
195.58282439405065
 11
706.89840017903634
 21
207.78282439405046
  0
LINE
  8
_0-0_
  6
CONTINUOUS
 62
    7
 10
696.19840008366873
 20
328.78282439405058
 11
697.09840017903616
 21
327.8828247755194
  0
LINE
  8
_0-0_
  6
CONTINUOUS
 62
    7
 10
697.09840017903616
 20
327.8828247755194
 11
697.09840017903616
 21
297.28282839405
  0
LINE
  8
_0-0_
  6
CONTINUOUS
 62
    7
 10
696.19840008366873
 20
328.78282439405058
 11
681.99840027440359
 21
328.78282439405058
  0
LINE
  8
_0-0_
  6
CONTINUOUS
 62
    7
 10
681.99840027440359
 20
328.78282439405058
 11
681.09840017903616
 21
327.8828247755194
  0
LINE
  8
_0-0_
  6
CONTINUOUS
 62
    7
 10
681.09840017903616
 20
327.8828247755194
 11
681.09840017903616
 21
297.28282839405
  0
LINE
  8
_0-0_
  6
CONTINUOUS
 62
    7
 10
708.11898025980236
 20
286.75665641592803
 11
707.19773011511506
 21
269.17815648156392
  0
LINE
  8
_0-0_
  6
CONTINUOUS
 62
    7
 10
625.59840017903616
 20
219.58282458478487
 11
621.59840017903616
 21
219.58282458478487
  0
LINE
  8
_0-0_
  6
CONTINUOUS
 62
    7
 10
621.59840017903616
 20
220.28282439405001
 11
624.89839941609671
 21
220.28282439405001
  0
LINE
  8
_0-0_
  6
CONTINUOUS
 62
    7
 10
624.89839941609671
 20
220.28282439405001
 11
624.89839941609671
 21
210.28282439405001
  0
LINE
  8
_0-0_
  6
CONTINUOUS
 62
    7
 10
624.89839941609671
 20
210.28282439405001
 11
625.59840017903616
 21
210.98282420331515
  0
LINE
  8
_0-0_
  6
CONTINUOUS
 62
    7
 10
625.59840017903616
 20
210.98282420331515
 11
625.59840017903616
 21
219.58282458478487
  0
LINE
  8
_0-0_
  6
CONTINUOUS
 62
    7
 10
625.59840017903616
 20
219.58282458478487
 11
624.89839941609671
 21
220.28282439405001
  0
LINE
  8
_0-0_
  6
CONTINUOUS
 62
    7
 10
553.59840017903616
 20
212.45764768464159
 11
553.59840017903616
 21
256.78282439405001
  0
LINE
  8
_0-0_
  6
CONTINUOUS
 62
    7
 10
559.59840017903616
 20
262.78282439405001
 11
614.59840017903616
 21
262.78282439405001
  0
LINE
  8
_0-0_
  6
CONTINUOUS
 62
    7
 10
616.09840017903616
 20
264.78282439394997
 11
616.09840017903616
 21
266.56060217175008
  0
LINE
  8
_0-0_
  6
CONTINUOUS
 62
    7
 10
616.09840017903616
 20
266.56060217175008
 11
558.09840017903616
 21
266.56060217175008
  0
LINE
  8
_0-0_
  6
CONTINUOUS
 62
    7
 10
558.09840017903616
 20
266.56060217175008
 11
558.09840017903616
 21
264.78282439394997
  0
LINE
  8
_0-0_
  6
CONTINUOUS
 62
    7
 10
558.09840017903616
 20
264.78282439394997
 11
616.09840017903616
 21
264.78282439394997
  0
LINE
  8
_0-0_
  6
CONTINUOUS
 62
    7
 10
620.59840017903616
 20
256.78282439405001
 11
620.59840017903616
 21
223.53282439405001
  0
LINE
  8
_0-0_
  6
CONTINUOUS
 62
    7
 10
620.84840017903616
 20
223.53282439405001
 11
620.09840017903616
 21
223.53282439405001
  0
LINE
  8
_0-0_
  6
CONTINUOUS
 62
    7
 10
620.09840017903616
 20
223.53282439405001
 11
619.20350717903557
 21
225.08282439405019
  0
LINE
  8
_0-0_
  6
CONTINUOUS
 62
    7
 10
619.20350717903557
 20
225.08282439405019
 11
614.34895567903595
 21
225.08282439405019
  0
LINE
  8
_0-0_
  6
CONTINUOUS
 62
    7
 10
614.34895567903595
 20
225.08282439405019
 11
613.59840017903616
 21
223.78282439405001
  0
LINE
  8
_0-0_
  6
CONTINUOUS
 62
    7
 10
614.34895567903595
 20
220.18282439405056
 11
619.20350717903557
 21
220.18282439405056
  0
LINE
  8
_0-0_
  6
CONTINUOUS
 62
    7
 10
621.59840017903616
 20
222.78282439405001
 11
621.59840017903616
 21
207.78282439405001
  0
LINE
  8
_0-0_
  6
CONTINUOUS
 62
    7
 10
620.84840017903616
 20
207.03282439405001
 11
620.09840017903616
 21
207.03282439405001
  0
LINE
  8
_0-0_
  6
CONTINUOUS
 62
    7
 10
620.09840017903616
 20
207.03282439405001
 11
619.20350717903557
 21
205.48282439404983
  0
LINE
  8
_0-0_
  6
CONTINUOUS
 62
    7
 10
619.20350717903557
 20
205.48282439404983
 11
614.34895567903595
 21
205.48282439404983
  0
LINE
  8
_0-0_
  6
CONTINUOUS
 62
    7
 10
614.34895567903595
 20
205.48282439404983
 11
613.59840017903616
 21
206.78282439405001
  0
LINE
  8
_0-0_
  6
CONTINUOUS
 62
    7
 10
614.34895567903595
 20
210.38282439405037
 11
619.20350717903557
 21
210.38282439405037
  0
LINE
  8
_0-0_
  6
CONTINUOUS
 62
    7
 10
621.59840017903616
 20
210.28282439405001
 11
624.89839941609671
 21
210.28282439405001
  0
LINE
  8
_0-0_
  6
CONTINUOUS
 62
    7
 10
625.59840017903616
 20
210.98282420331515
 11
621.59840017903616
 21
210.98282420331515
  0
LINE
  8
_0-0_
  6
CONTINUOUS
 62
    7
 10
617.86817797132471
 20
205.48282439404983
 11
613.59840017903616
 21
199.78282439405001
  0
LINE
  8
_0-0_
  6
CONTINUOUS
 62
    7
 10
613.59840017903616
 20
199.78282439405001
 11
610.39840017903634
 21
199.78282439405001
  0
LINE
  8
_0-0_
  6
CONTINUOUS
 62
    7
 10
610.39840017903634
 20
199.78282439405001
 11
610.39840017903634
 21
239.74692600918769
  0
LINE
  8
_0-0_
  6
CONTINUOUS
 62
    7
 10
610.1304509866045
 20
240.74692600918769
 11
608.66634937146728
 21
243.28282439405001
  0
LINE
  8
_0-0_
  6
CONTINUOUS
 62
    7
 10
608.39840017903634
 20
244.28282439405001
 11
608.39840017903634
 21
248.28264744890856
  0
LINE
  8
_0-0_
  6
CONTINUOUS
 62
    7
 10
610.39840017903634
 20
246.22546976994607
 11
610.39840017903634
 21
245.82538697827039
  0
LINE
  8
_0-0_
  6
CONTINUOUS
 62
    7
 10
610.39840017903634
 20
245.82538697827039
 11
613.33045098660523
 21
240.74692600918769
  0
LINE
  8
_0-0_
  6
CONTINUOUS
 62
    7
 10
613.59840017903616
 20
239.74692600918769
 11
613.59840017903616
 21
199.78282439405001
  0
LINE
  8
_0-0_
  6
CONTINUOUS
 62
    7
 10
610.39840017903634
 20
205.28282439405001
 11
608.69840017903562
 21
205.28282439405001
  0
LINE
  8
_0-0_
  6
CONTINUOUS
 62
    7
 10
608.69840017903562
 20
195.78282439405001
 11
608.69840017903562
 21
234.78282439405001
  0
LINE
  8
_0-0_
  6
CONTINUOUS
 62
    7
 10
608.69840017903562
 20
234.78282439405001
 11
607.09840017903616
 21
236.28282439405001
  0
LINE
  8
_0-0_
  6
CONTINUOUS
 62
    7
 10
607.09840017903616
 20
244.78282439405001
 11
607.09840017903616
 21
185.78282439405001
  0
LINE
  8
_0-0_
  6
CONTINUOUS
 62
    7
 10
604.09840017903616
 20
182.78282439405001
 11
570.09840017903616
 21
182.78282439405001
  0
LINE
  8
_0-0_
  6
CONTINUOUS
 62
    7
 10
567.09840017903616
 20
185.78282439405001
 11
567.09840017903616
 21
244.78282439405001
  0
LINE
  8
_0-0_
  6
CONTINUOUS
 62
    7
 10
565.79840017903598
 20
244.28282439405001
 11
565.79840017903598
 21
248.28264744890856
  0
LINE
  8
_0-0_
  6
CONTINUOUS
 62
    7
 10
563.79840017903598
 20
247.78282439405001
 11
563.79840017903598
 21
246.36128536313271
  0
LINE
  8
_0-0_
  6
CONTINUOUS
 62
    7
 10
563.53045098660505
 20
245.36128536313271
 11
560.86634937146709
 21
240.74692600918769
  0
LINE
  8
_0-0_
  6
CONTINUOUS
 62
    7
 10
560.59840017903616
 20
239.74692600918769
 11
560.59840017903616
 21
199.78282439405001
  0
LINE
  8
_0-0_
  6
CONTINUOUS
 62
    7
 10
560.59840017903616
 20
199.78282439405001
 11
555.59488188938712
 21
206.46234160511193
  0
LINE
  8
_0-0_
  6
CONTINUOUS
 62
    7
 10
559.59840017903616
 20
206.78282439492085
 11
560.59840017903616
 21
206.78282439492085
  0
LINE
  8
_0-0_
  6
CONTINUOUS
 62
    7
 10
559.59840017903616
 20
206.78282439492085
 11
559.59840017903616
 21
223.78282439405001
  0
LINE
  8
_0-0_
  6
CONTINUOUS
 62
    7
 10
559.59840017903616
 20
223.78282439405001
 11
560.59840017903616
 21
223.78282439405001
  0
LINE
  8
_0-0_
  6
CONTINUOUS
 62
    7
 10
563.79840017903598
 20
225.28282439405001
 11
565.4984001790358
 21
225.28282439405001
  0
LINE
  8
_0-0_
  6
CONTINUOUS
 62
    7
 10
565.4984001790358
 20
234.78282439405001
 11
567.09840017903616
 21
236.28282439405001
  0
LINE
  8
_0-0_
  6
CONTINUOUS
 62
    7
 10
565.4984001790358
 20
234.78282439405001
 11
565.4984001790358
 21
195.78282439405001
  0
LINE
  8
_0-0_
  6
CONTINUOUS
 62
    7
 10
565.4984001790358
 20
195.78282439405001
 11
567.09840017903616
 21
194.28282439405001
  0
LINE
  8
_0-0_
  6
CONTINUOUS
 62
    7
 10
563.79840017903598
 20
199.78282439405001
 11
563.79840017903598
 21
239.74692600918769
  0
LINE
  8
_0-0_
  6
CONTINUOUS
 62
    7
 10
564.06634937146691
 20
240.74692600918769
 11
565.53045098660505
 21
243.28282439405001
  0
LINE
  8
_0-0_
  6
CONTINUOUS
 62
    7
 10
570.09840017903616
 20
247.78282439405001
 11
604.09840017903616
 21
247.78282439405001
  0
LINE
  8
_0-0_
  6
CONTINUOUS
 62
    7
 10
608.69840017903562
 20
225.28282439405001
 11
610.39840017903634
 21
225.28282439405001
  0
LINE
  8
_0-0_
  6
CONTINUOUS
 62
    7
 10
608.69840017903562
 20
195.78282439405001
 11
607.09840017903616
 21
194.28282439405001
  0
LINE
  8
_0-0_
  6
CONTINUOUS
 62
    7
 10
565.4984001790358
 20
205.28282439405001
 11
563.79840017903598
 21
205.28282439405001
  0
LINE
  8
_0-0_
  6
CONTINUOUS
 62
    7
 10
563.79840017903598
 20
199.78282439405001
 11
560.59840017903616
 21
199.78282439405001
  0
LINE
  8
_0-0_
  6
CONTINUOUS
 62
    7
 10
558.31607947046018
 20
267.28282839404977
 11
558.09840017903616
 21
266.56060217174979
  0
LINE
  8
_0-0_
  6
CONTINUOUS
 62
    7
 10
616.09840017903616
 20
266.56060217174979
 11
615.88072088761214
 21
267.28282839404977
  0
ARC
  8
_0-0_
  6
CONTINUOUS
 62
    7
 10
562.59840017903616
 20
239.74692600918769
 40
2
 50
150.00000000000009
 51
180
  0
ARC
  8
_0-0_
  6
CONTINUOUS
 62
    7
 10
565.79840017903598
 20
239.74692600918769
 40
2
 50
149.99999999999855
 51
180
  0
ARC
  8
_0-0_
  6
CONTINUOUS
 62
    7
 10
563.79840017903598
 20
244.28282439405001
 40
2
 50
329.99999999999915
 51
0.000000000000019
  0
ARC
  8
_0-0_
  6
CONTINUOUS
 62
    7
 10
561.79840017903598
 20
246.36128536313271
 40
2
 50
330.00000000000011
 51
0
  0
ARC
  8
_0-0_
  6
CONTINUOUS
 62
    7
 10
610.39840017903634
 20
244.28282439405001
 40
2
 50
180
 51
210.00000000000006
  0
ARC
  8
_0-0_
  6
CONTINUOUS
 62
    7
 10
608.39840017903634
 20
239.74692600918769
 40
2
 50
0
 51
29.999999999999915
  0
ARC
  8
_0-0_
  6
CONTINUOUS
 62
    7
 10
611.59840017903616
 20
239.74692600918769
 40
2
 50
0
 51
30.000000000000227
  0
ARC
  8
_0-0_
  6
CONTINUOUS
 62
    7
 10
608.39840017903634
 20
246.22546976994607
 40
2
 50
0
 51
76.307268958849207
  0
ARC
  8
_0-0_
  6
CONTINUOUS
 62
    7
 10
587.09840017903616
 20
158.80115773304323
 40
91.981666661191412
 50
76.307268958851552
 51
104.67354761998524
  0
ARC
  8
_0-0_
  6
CONTINUOUS
 62
    7
 10
563.59840017903616
 20
212.45764768464159
 40
10
 50
179.99999999999997
 51
216.83628730845081
  0
ARC
  8
_0-0_
  6
CONTINUOUS
 62
    7
 10
559.59840017903616
 20
256.78282439405001
 40
6
 50
90
 51
180
  0
ARC
  8
_0-0_
  6
CONTINUOUS
 62
    7
 10
614.59840017903616
 20
256.78282439405001
 40
6
 50
0
 51
90
  0
ARC
  8
_0-0_
  6
CONTINUOUS
 62
    7
 10
562.09840017903616
 20
264.78282439394997
 40
1.9999999998999982
 50
180
 51
270
  0
ARC
  8
_0-0_
  6
CONTINUOUS
 62
    7
 10
612.09840017903616
 20
264.78282439394997
 40
1.9999999998999982
 50
270
 51
0
  0
ARC
  8
_0-0_
  6
CONTINUOUS
 62
    7
 10
620.84840017903616
 20
222.78282439405001
 40
0.75
 50
0
 51
90
  0
ARC
  8
_0-0_
  6
CONTINUOUS
 62
    7
 10
615.12003667903673
 20
223.06817839405056
 40
5
 50
324.75522000000001
 51
5.3321450000002173
  0
ARC
  8
_0-0_
  6
CONTINUOUS
 62
    7
 10
610.12363817903633
 20
215.99283939405058
 40
10
 50
355.92848900000041
 51
24.771376000000082
  0
ARC
  8
_0-0_
  6
CONTINUOUS
 62
    7
 10
615.12003667903673
 20
207.49747039405037
 40
5
 50
354.66785500000015
 51
35.244780000000354
  0
ARC
  8
_0-0_
  6
CONTINUOUS
 62
    7
 10
620.84840017903616
 20
207.78282439405001
 40
0.75
 50
270
 51
0
  0
ARC
  8
_0-0_
  6
CONTINUOUS
 62
    7
 10
610.12363817903633
 20
214.57280939405035
 40
10
 50
335.22862400000025
 51
4.071510999999945
  0
ARC
  8
_0-0_
  6
CONTINUOUS
 62
    7
 10
623.54995267903587
 20
216.26598289405018
 40
10
 50
156.94066599999999
 51
174.35779567859217
  0
ARC
  8
_0-0_
  6
CONTINUOUS
 62
    7
 10
623.54995267903587
 20
214.29966589404984
 40
10
 50
185.6422043214078
 51
203.05933399999989
  0
ARC
  8
_0-0_
  6
CONTINUOUS
 62
    7
 10
618.52544567903578
 20
207.63383739405043
 40
5
 50
146.6468829999996
 51
170.20040446175065
  0
ARC
  8
_0-0_
  6
CONTINUOUS
 62
    7
 10
618.52544567903578
 20
222.9318113940505
 40
5
 50
189.79959553824918
 51
213.3531170000004
  0
ARC
  8
_0-0_
  6
CONTINUOUS
 62
    7
 10
566.62965017718534
 20
215.28282439405001
 40
11.031249998148837
 50
129.59775269742644
 51
230.40224729547555
  0
ARC
  8
_0-0_
  6
CONTINUOUS
 62
    7
 10
604.09840017903616
 20
185.78282439405001
 40
3
 50
270
 51
0
  0
ARC
  8
_0-0_
  6
CONTINUOUS
 62
    7
 10
570.09840017903616
 20
185.78282439405001
 40
3
 50
180
 51
270
  0
ARC
  8
_0-0_
  6
CONTINUOUS
 62
    7
 10
570.09840017903616
 20
244.78282439405001
 40
3
 50
90
 51
180
  0
ARC
  8
_0-0_
  6
CONTINUOUS
 62
    7
 10
604.09840017903616
 20
244.78282439405001
 40
3
 50
0
 51
90
  0
ARC
  8
_0-0_
  6
CONTINUOUS
 62
    7
 10
689.09840017718352
 20
248.96165472614229
 40
18.321172714233402
 50
67.780689151566378
 51
112.21931084843361
  0
LINE
  8
_0-0_
  6
CONTINUOUS
 62
    7
 10
675.24199396532958
 20
265.92235532312685
 11
676.76721883064556
 21
266.86775409722384
  0
LINE
  8
_0-0_
  6
CONTINUOUS
 62
    7
 10
676.76721883064556
 20
266.86775409722384
 11
678.35135549024085
 21
267.26908510285404
  0
LINE
  8
_0-0_
  6
CONTINUOUS
 62
    7
 10
678.35135549024085
 20
267.26908510285404
 11
679.94627075332573
 21
267.1141541004946
  0
LINE
  8
_0-0_
  6
CONTINUOUS
 62
    7
 10
679.94627075332573
 20
267.1141541004946
 11
681.50350392669725
 21
266.40766859025337
  0
LINE
  8
_0-0_
  6
CONTINUOUS
 62
    7
 10
681.50350392669725
 20
266.40766859025337
 11
682.17019786127275
 21
265.92235506726809
  0
LINE
  8
_0-0_
  6
CONTINUOUS
 62
    7
 10
696.0266047515463
 20
265.92235691235987
 11
697.55182972529292
 21
266.86775498672614
  0
LINE
  8
_0-0_
  6
CONTINUOUS
 62
    7
 10
697.55182972529292
 20
266.86775498672614
 11
699.13596643091819
 21
267.26908526559851
  0
LINE
  8
_0-0_
  6
CONTINUOUS
 62
    7
 10
699.13596643091819
 20
267.26908526559851
 11
700.73088167623337
 21
267.11415353153637
  0
LINE
  8
_0-0_
  6
CONTINUOUS
 62
    7
 10
700.73088167623337
 20
267.11415353153637
 11
702.28811476857595
 21
266.40766730687994
  0
LINE
  8
_0-0_
  6
CONTINUOUS
 62
    7
 10
702.28811476857595
 20
266.40766730687994
 11
702.95480638903564
 21
265.92235532312674
  0
LINE
  8
_0-0_
  6
CONTINUOUS
 62
    7
 10
682.17019786127275
 20
255.64330172268365
 11
680.64497301341362
 21
254.69790283593346
  0
LINE
  8
_0-0_
  6
CONTINUOUS
 62
    7
 10
680.64497301341362
 20
254.69790283593346
 11
679.06083636122889
 21
254.29657171329882
  0
LINE
  8
_0-0_
  6
CONTINUOUS
 62
    7
 10
679.06083636122889
 20
254.29657171329882
 11
677.46592109528319
 21
254.45150259785777
  0
LINE
  8
_0-0_
  6
CONTINUOUS
 62
    7
 10
677.46592109528319
 20
254.45150259785777
 11
675.90868790886634
 21
255.15798799308163
  0
LINE
  8
_0-0_
  6
CONTINUOUS
 62
    7
 10
675.90868790886634
 20
255.15798799308163
 11
675.24199591060392
 21
255.64329987759186
  0
LINE
  8
_0-0_
  6
CONTINUOUS
 62
    7
 10
702.95480670221514
 20
255.64330172268365
 11
701.429581854356
 21
254.69790283593346
  0
LINE
  8
_0-0_
  6
CONTINUOUS
 62
    7
 10
701.429581854356
 20
254.69790283593346
 11
699.84544520217128
 21
254.29657171329882
  0
LINE
  8
_0-0_
  6
CONTINUOUS
 62
    7
 10
699.84544520217128
 20
254.29657171329882
 11
698.25052993622558
 21
254.45150259785777
  0
LINE
  8
_0-0_
  6
CONTINUOUS
 62
    7
 10
698.25052993622558
 20
254.45150259785777
 11
696.69329674980872
 21
255.15798799308163
  0
LINE
  8
_0-0_
  6
CONTINUOUS
 62
    7
 10
696.69329674980872
 20
255.15798799308163
 11
696.0266047515463
 21
255.64329987759186
  0
ARC
  8
_0-0_
  6
CONTINUOUS
 62
    7
 10
689.09840017718352
 20
272.60400206380945
 40
18.321172714233402
 50
247.78070068359386
 51
292.21931457519543
  0
ARC
  8
_0-0_
  6
CONTINUOUS
 62
    7
 10
689.09840017903616
 20
204.78282439405046
 40
12.000000000000004
 50
131.81031489577896
 51
165.5224878140701
  0
ARC
  8
_0-0_
  6
CONTINUOUS
 62
    7
 10
689.09840017903616
 20
204.78282439405046
 40
12.000000000000004
 50
14.477512185929857
 51
48.189685104221027
  0
LINE
  8
_0-0_
  6
CONTINUOUS
 62
    7
 10
682.17019786127275
 20
219.14329772083147
 11
680.64497301341362
 21
218.19789883408129
  0
LINE
  8
_0-0_
  6
CONTINUOUS
 62
    7
 10
680.64497301341362
 20
218.19789883408129
 11
679.06083636122889
 21
217.79656771144664
  0
LINE
  8
_0-0_
  6
CONTINUOUS
 62
    7
 10
679.06083636122889
 20
217.79656771144664
 11
677.46592109528319
 21
217.95149859600559
  0
LINE
  8
_0-0_
  6
CONTINUOUS
 62
    7
 10
677.46592109528319
 20
217.95149859600559
 11
675.90868790886634
 21
218.65798399122946
  0
LINE
  8
_0-0_
  6
CONTINUOUS
 62
    7
 10
675.90868790886634
 20
218.65798399122946
 11
675.24199591060392
 21
219.14329587573968
  0
LINE
  8
_0-0_
  6
CONTINUOUS
 62
    7
 10
702.95480670221514
 20
219.14329772083147
 11
701.429581854356
 21
218.19789883408129
  0
LINE
  8
_0-0_
  6
CONTINUOUS
 62
    7
 10
701.429581854356
 20
218.19789883408129
 11
699.84544520217128
 21
217.79656771144664
  0
LINE
  8
_0-0_
  6
CONTINUOUS
 62
    7
 10
699.84544520217128
 20
217.79656771144664
 11
698.25052993622558
 21
217.95149859600559
  0
LINE
  8
_0-0_
  6
CONTINUOUS
 62
    7
 10
698.25052993622558
 20
217.95149859600559
 11
696.69329674980872
 21
218.65798399122946
  0
LINE
  8
_0-0_
  6
CONTINUOUS
 62
    7
 10
696.69329674980872
 20
218.65798399122946
 11
696.0266047515463
 21
219.14329587573968
  0
ARC
  8
_0-0_
  6
CONTINUOUS
 62
    7
 10
689.09840017718352
 20
236.10399806195727
 40
18.321172714233402
 50
247.78070068359386
 51
292.21931457519543
  0
ARC
  8
_0-0_
  6
CONTINUOUS
 62
    7
 10
538.59840017903616
 20
286.78282439404956
 40
0.5
 50
90
 51
180
  0
ARC
  8
_0-0_
  6
CONTINUOUS
 62
    7
 10
540.09840017903616
 20
269.28282839405
 40
2
 50
180
 51
270
  0
ARC
  8
_0-0_
  6
CONTINUOUS
 62
    7
 10
707.61966549242561
 20
286.78282439404956
 40
0.5
 50
357.00000000000017
 51
89.999999999999957
  0
ARC
  8
_0-0_
  6
CONTINUOUS
 62
    7
 10
676.57144274821212
 20
296.28282839405
 40
1
 50
90
 51
176.99999999999994
  0
ARC
  8
_0-0_
  6
CONTINUOUS
 62
    7
 10
705.20047104560626
 20
269.28282839404909
 40
2
 50
270
 51
357.00000000000006
  0
ARC
  8
_0-0_
  6
CONTINUOUS
 62
    7
 10
704.25150647889177
 20
294.28282839405
 40
3.0000000000000009
 50
2.9999999999999152
 51
90.000000000000028
  0
LINE
  8
_0-0_
  6
CONTINUOUS
 62
    7
 10
541.09840017903616
 20
152.38768130956743
 11
675.09840017903616
 21
152.38768130956743
  0
LINE
  8
_0-0_
  6
CONTINUOUS
 62
    7
 10
675.09840017903616
 20
152.38768130956743
 11
686.74295508161549
 21
140.29506966751416
  0
LINE
  8
_0-0_
  6
CONTINUOUS
 62
    7
 10
686.74295508161549
 20
80.480292951620811
 11
675.09840017903616
 21
68.38768130956754
  0
LINE
  8
_0-0_
  6
CONTINUOUS
 62
    7
 10
675.09840017903616
 20
68.38768130956754
 11
675.09840017903616
 21
18.387681309566631
  0
LINE
  8
_0-0_
  6
CONTINUOUS
 62
    7
 10
672.09840017903616
 20
15.38768130956754
 11
607.09840017903616
 21
15.38768130956754
  0
LINE
  8
_0-0_
  6
CONTINUOUS
 62
    7
 10
607.09840017903616
 20
16.887681309567085
 11
615.59840017903616
 21
16.887681309567085
  0
LINE
  8
_0-0_
  6
CONTINUOUS
 62
    7
 10
613.59840017903616
 20
23.887681309567085
 11
610.39840017903634
 21
23.887681309567085
  0
LINE
  8
_0-0_
  6
CONTINUOUS
 62
    7
 10
610.39840017903634
 20
23.887681309567085
 11
610.39840017903634
 21
54.511953276740712
  0
LINE
  8
_0-0_
  6
CONTINUOUS
 62
    7
 10
613.59840017903616
 20
54.628928227811627
 11
613.59840017903616
 21
23.887681309567085
  0
LINE
  8
_0-0_
  6
CONTINUOUS
 62
    7
 10
614.09840017903616
 20
24.725403649398629
 11
614.09840017903616
 21
30.887681309567085
  0
LINE
  8
_0-0_
  6
CONTINUOUS
 62
    7
 10
614.59840017903616
 20
30.887681309567085
 11
614.59840017903616
 21
47.887681308696244
  0
LINE
  8
_0-0_
  6
CONTINUOUS
 62
    7
 10
614.59840017903616
 20
47.887681308696244
 11
613.59840017903616
 21
47.887681308696244
  0
LINE
  8
_0-0_
  6
CONTINUOUS
 62
    7
 10
610.39840017903634
 20
49.387681309567085
 11
608.69840017903653
 21
49.387681309567085
  0
LINE
  8
_0-0_
  6
CONTINUOUS
 62
    7
 10
608.69840017903653
 20
58.887681309567085
 11
608.69840017903653
 21
19.887681309567085
  0
LINE
  8
_0-0_
  6
CONTINUOUS
 62
    7
 10
608.69840017903653
 20
19.887681309567085
 11
607.09840017903616
 21
18.387681309567085
  0
LINE
  8
_0-0_
  6
CONTINUOUS
 62
    7
 10
607.09840017903616
 20
9.8876813095670855
 11
607.09840017903616
 21
68.887681309567085
  0
LINE
  8
_0-0_
  6
CONTINUOUS
 62
    7
 10
604.09840017903616
 20
71.887681309567085
 11
570.09840017903616
 21
71.887681309567085
  0
LINE
  8
_0-0_
  6
CONTINUOUS
 62
    7
 10
567.09840017903616
 20
68.887681309567085
 11
567.09840017903616
 21
9.8876813095670855
  0
LINE
  8
_0-0_
  6
CONTINUOUS
 62
    7
 10
567.09840017903616
 20
15.38768130956754
 11
556.34104086615525
 21
15.38768130956754
  0
LINE
  8
_0-0_
  6
CONTINUOUS
 62
    7
 10
554.21972052259616
 20
16.266360966007539
 11
538.97707983547616
 21
31.509001653126631
  0
LINE
  8
_0-0_
  6
CONTINUOUS
 62
    7
 10
538.09840017903616
 20
33.630321996686632
 11
538.09840017903616
 21
149.38768130956743
  0
LINE
  8
_0-0_
  6
CONTINUOUS
 62
    7
 10
541.09840017903616
 20
142.38768130956743
 11
635.85575949191707
 21
142.38768130956743
  0
LINE
  8
_0-0_
  6
CONTINUOUS
 62
    7
 10
637.97707983547616
 20
141.50900165312652
 11
660.39011324516605
 21
119.09596824343663
  0
LINE
  8
_0-0_
  6
CONTINUOUS
 62
    7
 10
665.09840017903616
 20
92.38768130956754
 11
665.09840017903616
 21
18.387681309566631
  0
LINE
  8
_0-0_
  6
CONTINUOUS
 62
    7
 10
616.09840017903616
 20
97.13490444837629
 11
616.09840017903616
 21
104.64045817075788
  0
LINE
  8
_0-0_
  6
CONTINUOUS
 62
    7
 10
616.09840017903616
 20
104.64045817075788
 11
609.59840017903616
 21
108.39323503194868
  0
LINE
  8
_0-0_
  6
CONTINUOUS
 62
    7
 10
609.59840017903616
 20
108.39323503194868
 11
603.09840017903616
 21
104.64045817075788
  0
LINE
  8
_0-0_
  6
CONTINUOUS
 62
    7
 10
603.09840017903616
 20
104.64045817075788
 11
603.09840017903616
 21
100.69044648419771
  0
LINE
  8
_0-0_
  6
CONTINUOUS
 62
    7
 10
616.09840017903616
 20
97.13490444837629
 11
611.03721048887974
 21
94.212825131558418
  0
LINE
  8
_0-0_
  6
CONTINUOUS
 62
    7
 10
615.59840017903616
 20
111.88768130956709
 11
558.59840017903616
 21
111.88768130956709
  0
LINE
  8
_0-0_
  6
CONTINUOUS
 62
    7
 10
558.09840017903616
 20
104.64045817075788
 11
558.09840017903616
 21
97.13490444837629
  0
LINE
  8
_0-0_
  6
CONTINUOUS
 62
    7
 10
558.09840017903616
 20
97.13490444837629
 11
563.15958986919259
 21
94.212825131558418
  0
LINE
  8
_0-0_
  6
CONTINUOUS
 62
    7
 10
564.59840017903616
 20
108.39323503194868
 11
558.09840017903616
 21
104.64045817075788
  0
LINE
  8
_0-0_
  6
CONTINUOUS
 62
    7
 10
571.09840017903616
 20
100.69044648419771
 11
571.09840017903616
 21
104.64045817075788
  0
LINE
  8
_0-0_
  6
CONTINUOUS
 62
    7
 10
571.09840017903616
 20
104.64045817075788
 11
564.59840017903616
 21
108.39323503194868
  0
LINE
  8
_0-0_
  6
CONTINUOUS
 62
    7
 10
553.59840017903616
 20
106.88768130956709
 11
553.59840017903616
 21
21.887681309567085
  0
LINE
  8
_0-0_
  6
CONTINUOUS
 62
    7
 10
560.59840017903616
 20
23.887681309567085
 11
563.79840017903689
 21
23.887681309567085
  0
LINE
  8
_0-0_
  6
CONTINUOUS
 62
    7
 10
563.79840017903689
 20
23.887681309567085
 11
563.79840017903689
 21
54.511953276740712
  0
LINE
  8
_0-0_
  6
CONTINUOUS
 62
    7
 10
560.59840017903616
 20
54.628928227811627
 11
560.59840017903616
 21
23.887681309567085
  0
LINE
  8
_0-0_
  6
CONTINUOUS
 62
    7
 10
560.09840017903616
 20
24.725403649398629
 11
560.09840017903616
 21
30.021656078921239
  0
LINE
  8
_0-0_
  6
CONTINUOUS
 62
    7
 10
559.84784467903637
 20
29.587681309566904
 11
560.59840017903616
 21
30.887681309567085
  0
LINE
  8
_0-0_
  6
CONTINUOUS
 62
    7
 10
559.84784467903637
 20
29.587681309566904
 11
554.99329317903675
 21
29.587681309566904
  0
LINE
  8
_0-0_
  6
CONTINUOUS
 62
    7
 10
554.99329317903675
 20
29.587681309566904
 11
554.09840017903616
 21
31.137681309567085
  0
LINE
  8
_0-0_
  6
CONTINUOUS
 62
    7
 10
554.09840017903616
 20
31.137681309567085
 11
553.34840017903616
 21
31.137681309567085
  0
LINE
  8
_0-0_
  6
CONTINUOUS
 62
    7
 10
552.59840017903616
 20
31.887681309567085
 11
552.59840017903616
 21
46.887681309567085
  0
LINE
  8
_0-0_
  6
CONTINUOUS
 62
    7
 10
553.34840017903616
 20
47.637681309567085
 11
554.09840017903616
 21
47.637681309567085
  0
LINE
  8
_0-0_
  6
CONTINUOUS
 62
    7
 10
554.09840017903616
 20
47.637681309567085
 11
554.99329317903675
 21
49.187681309567267
  0
LINE
  8
_0-0_
  6
CONTINUOUS
 62
    7
 10
554.99329317903675
 20
49.187681309567267
 11
559.84784467903637
 21
49.187681309567267
  0
LINE
  8
_0-0_
  6
CONTINUOUS
 62
    7
 10
559.84784467903637
 20
49.187681309567267
 11
560.59840017903616
 21
47.887681309567085
  0
LINE
  8
_0-0_
  6
CONTINUOUS
 62
    7
 10
559.84784467903637
 20
44.287681309566722
 11
554.99329317903675
 21
44.287681309566722
  0
LINE
  8
_0-0_
  6
CONTINUOUS
 62
    7
 10
552.59840017903616
 20
44.387681309567085
 11
549.29840094197561
 21
44.387681309567085
  0
LINE
  8
_0-0_
  6
CONTINUOUS
 62
    7
 10
549.29840094197561
 20
44.387681309567085
 11
549.29840094197561
 21
34.387681309567085
  0
LINE
  8
_0-0_
  6
CONTINUOUS
 62
    7
 10
549.29840094197561
 20
34.387681309567085
 11
552.59840017903616
 21
34.387681309567085
  0
LINE
  8
_0-0_
  6
CONTINUOUS
 62
    7
 10
552.59840017903616
 20
35.087681118832222
 11
548.59840017903616
 21
35.087681118832222
  0
LINE
  8
_0-0_
  6
CONTINUOUS
 62
    7
 10
548.59840017903616
 20
35.087681118832222
 11
548.59840017903616
 21
43.687681500301949
  0
LINE
  8
_0-0_
  6
CONTINUOUS
 62
    7
 10
548.59840017903616
 20
43.687681500301949
 11
549.29840094197561
 21
44.387681309567085
  0
LINE
  8
_0-0_
  6
CONTINUOUS
 62
    7
 10
548.59840017903616
 20
43.687681500301949
 11
552.59840017903616
 21
43.687681500301949
  0
LINE
  8
_0-0_
  6
CONTINUOUS
 62
    7
 10
548.59840017903616
 20
35.087681118832222
 11
549.29840094197561
 21
34.387681309567085
  0
LINE
  8
_0-0_
  6
CONTINUOUS
 62
    7
 10
565.49840017903671
 20
58.887681309567085
 11
565.49840017903671
 21
19.887681309567085
  0
LINE
  8
_0-0_
  6
CONTINUOUS
 62
    7
 10
565.49840017903671
 20
19.887681309567085
 11
567.09840017903616
 21
18.387681309567085
  0
LINE
  8
_0-0_
  6
CONTINUOUS
 62
    7
 10
567.09840017903616
 20
16.887681309567085
 11
558.59840017903616
 21
16.887681309567085
  0
LINE
  8
_0-0_
  6
CONTINUOUS
 62
    7
 10
559.84784467903637
 20
34.48768130956654
 11
554.99329317903675
 21
34.48768130956654
  0
LINE
  8
_0-0_
  6
CONTINUOUS
 62
    7
 10
608.69840017903653
 20
58.887681309567085
 11
607.09840017903616
 21
60.387681309567085
  0
LINE
  8
_0-0_
  6
CONTINUOUS
 62
    7
 10
604.09840017903616
 20
6.8876813095670855
 11
570.09840017903616
 21
6.8876813095670855
  0
LINE
  8
_0-0_
  6
CONTINUOUS
 62
    7
 10
565.49840017903671
 20
29.387681309567085
 11
563.79840017903689
 21
29.387681309567085
  0
LINE
  8
_0-0_
  6
CONTINUOUS
 62
    7
 10
563.79840017903689
 20
49.387681309567085
 11
565.49840017903671
 21
49.387681309567085
  0
LINE
  8
_0-0_
  6
CONTINUOUS
 62
    7
 10
565.49840017903671
 20
58.887681309567085
 11
567.09840017903616
 21
60.387681309567085
  0
LINE
  8
_0-0_
  6
CONTINUOUS
 62
    7
 10
608.69840017903653
 20
29.387681309567085
 11
610.39840017903634
 21
29.387681309567085
  0
LINE
  8
_0-0_
  6
CONTINUOUS
 62
    7
 10
613.59840017903616
 20
30.887681309567085
 11
614.59840017903616
 21
30.887681309567085
  0
LINE
  8
_0-0_
  6
CONTINUOUS
 62
    7
 10
620.59840017903616
 20
21.88768130956754
 11
620.59840017903616
 21
106.88768130956709
  0
ARC
  8
_0-0_
  6
CONTINUOUS
 62
    7
 10
556.34104086615525
 20
18.387681309566631
 40
3.0000000000000009
 50
225.00000000000023
 51
270
  0
CIRCLE
  8
_0-0_
  6
CONTINUOUS
 62
    7
 10
655.09840017903616
 20
23.38768130956754
 40
3.2500000000000009
  0
CIRCLE
  8
_0-0_
  6
CONTINUOUS
 62
    7
 10
655.09840017903616
 20
63.387681309566631
 40
3.2500000000000009
  0
CIRCLE
  8
_0-0_
  6
CONTINUOUS
 62
    7
 10
655.09840017903616
 20
83.38768130956754
 40
3.2500000000000009
  0
CIRCLE
  8
_0-0_
  6
CONTINUOUS
 62
    7
 10
546.09840017903616
 20
132.38768130956697
 40
3.2500000000000004
  0
CIRCLE
  8
_0-0_
  6
CONTINUOUS
 62
    7
 10
586.09840017903616
 20
132.38768130956697
 40
3.2500000000000004
  0
CIRCLE
  8
_0-0_
  6
CONTINUOUS
 62
    7
 10
606.09840017903616
 20
132.38768130956697
 40
3.2500000000000004
  0
ARC
  8
_0-0_
  6
CONTINUOUS
 62
    7
 10
541.09840017903616
 20
33.630321996686632
 40
3.0000000000000009
 50
180
 51
225
  0
ARC
  8
_0-0_
  6
CONTINUOUS
 62
    7
 10
541.09840017903616
 20
149.38768130956743
 40
3.0000000000000009
 50
90
 51
180
  0
ARC
  8
_0-0_
  6
CONTINUOUS
 62
    7
 10
672.09840017903616
 20
18.387681309566631
 40
3.0000000000000009
 50
270
 51
0
  0
ARC
  8
_0-0_
  6
CONTINUOUS
 62
    7
 10
538.09840017903616
 20
132.56503475422033
 40
3.0000000000000009
 50
180.00000000000006
 51
186.76652709232036
  0
CIRCLE
  8
_0-0_
  6
CONTINUOUS
 62
    7
 10
689.09840017903616
 20
110.38768130956754
 40
10
  0
CIRCLE
  8
_0-0_
  6
CONTINUOUS
 62
    7
 10
689.09840017903616
 20
110.38768130956754
 40
30
  0
ARC
  8
_0-0_
  6
CONTINUOUS
 62
    7
 10
587.09840017903616
 20
64.387681309567085
 40
24
 50
334.15806723683238
 51
205.84193276316887
  0
ARC
  8
_0-0_
  6
CONTINUOUS
 62
    7
 10
604.09840017903616
 20
9.8876813095670855
 40
3
 50
270
 51
0
  0
ARC
  8
_0-0_
  6
CONTINUOUS
 62
    7
 10
570.09840017903616
 20
9.8876813095670855
 40
3
 50
180
 51
270
  0
ARC
  8
_0-0_
  6
CONTINUOUS
 62
    7
 10
558.59840017903616
 20
106.88768130956709
 40
5
 50
90
 51
180
  0
ARC
  8
_0-0_
  6
CONTINUOUS
 62
    7
 10
558.59840017903616
 20
21.887681309567085
 40
5
 50
180
 51
270
  0
ARC
  8
_0-0_
  6
CONTINUOUS
 62
    7
 10
615.59840017903616
 20
106.88768130956709
 40
5
 50
0
 51
90
  0
ARC
  8
_0-0_
  6
CONTINUOUS
 62
    7
 10
615.59840017903616
 20
21.88768130956754
 40
5
 50
270
 51
0
  0
ARC
  8
_0-0_
  6
CONTINUOUS
 62
    7
 10
553.34840017903616
 20
31.887681309567085
 40
0.75
 50
180
 51
270
  0
ARC
  8
_0-0_
  6
CONTINUOUS
 62
    7
 10
559.07676367903559
 20
31.602327309566533
 40
5
 50
144.75521999999998
 51
185.33214500000022
  0
ARC
  8
_0-0_
  6
CONTINUOUS
 62
    7
 10
564.07316217903599
 20
38.677666309566519
 40
10
 50
175.92848900000041
 51
204.77137600000009
  0
ARC
  8
_0-0_
  6
CONTINUOUS
 62
    7
 10
559.07676367903559
 20
47.173035309566728
 40
5
 50
174.66785500000012
 51
215.24478000000036
  0
ARC
  8
_0-0_
  6
CONTINUOUS
 62
    7
 10
553.34840017903616
 20
46.887681309567085
 40
0.75
 50
90
 51
180
  0
ARC
  8
_0-0_
  6
CONTINUOUS
 62
    7
 10
564.07316217903599
 20
40.097696309566743
 40
10
 50
155.22862400000031
 51
184.07151099999999
  0
ARC
  8
_0-0_
  6
CONTINUOUS
 62
    7
 10
550.64684767903645
 20
38.404522809566913
 40
10
 50
336.94066600000002
 51
354.35779567859214
  0
ARC
  8
_0-0_
  6
CONTINUOUS
 62
    7
 10
550.64684767903645
 20
40.370839809567258
 40
10
 50
5.642204321407867
 51
23.059333999999957
  0
ARC
  8
_0-0_
  6
CONTINUOUS
 62
    7
 10
555.67135467903654
 20
47.036668309566664
 40
5
 50
326.64688299999972
 51
350.20040446175074
  0
ARC
  8
_0-0_
  6
CONTINUOUS
 62
    7
 10
555.67135467903654
 20
31.738694309566597
 40
5
 50
9.7995955382492159
 51
33.353117000000452
  0
ARC
  8
_0-0_
  6
CONTINUOUS
 62
    7
 10
607.56715018088698
 20
39.387681309567085
 40
11.031249998148837
 50
309.59775269742647
 51
50.402247295475554
  0
ARC
  8
_0-0_
  6
CONTINUOUS
 62
    7
 10
570.09840017903616
 20
68.887681309567085
 40
3
 50
90
 51
180
  0
ARC
  8
_0-0_
  6
CONTINUOUS
 62
    7
 10
604.09840017903616
 20
68.887681309567085
 40
3
 50
0
 51
90
  0
ARC
  8
_0-0_
  6
CONTINUOUS
 62
    7
 10
609.59840017903616
 20
27.88768130956754
 40
5.5
 50
316.65824177278108
 51
324.90319877241529
  0
ARC
  8
_0-0_
  6
CONTINUOUS
 62
    7
 10
609.59840017903616
 20
27.88768130956754
 40
5.5
 50
260.58197278004468
 51
313.34175822721875
  0
ARC
  8
_0-0_
  6
CONTINUOUS
 62
    7
 10
564.59840017903616
 20
27.887681309567085
 40
5.5
 50
226.65824177278128
 51
279.41802721995771
  0
ARC
  8
_0-0_
  6
CONTINUOUS
 62
    7
 10
564.59840017903616
 20
27.887681309567085
 40
5.5
 50
215.09680122758473
 51
223.34175822722224
  0
ARC
  8
_0-0_
  6
CONTINUOUS
 62
    7
 10
561.79840017903689
 20
54.511953276740712
 40
2
 50
0
 51
21.279604427174405
  0
ARC
  8
_0-0_
  6
CONTINUOUS
 62
    7
 10
558.59840017903616
 20
54.628928227811627
 40
2
 50
0.0000000000000381
 51
14.743562836470787
  0
ARC
  8
_0-0_
  6
CONTINUOUS
 62
    7
 10
615.59840017903616
 20
54.628928227811627
 40
2
 50
165.25643716353051
 51
179.99999999999997
  0
ARC
  8
_0-0_
  6
CONTINUOUS
 62
    7
 10
612.39840017903634
 20
54.511953276740712
 40
2
 50
158.72039557282798
 51
180
  0
ARC
  8
_0-0_
  6
CONTINUOUS
 62
    7
 10
587.09840017903616
 20
72.318104865668317
 40
29
 50
323.91560358208676
 51
216.08439641791321
  0
ARC
  8
_0-0_
  6
CONTINUOUS
 62
    7
 10
587.09840017903616
 20
72.977633563095822
 40
32
 50
326.11752481942335
 51
213.88247518057659
  0
ARC
  8
_0-0_
  6
CONTINUOUS
 62
    7
 10
587.09840017903616
 20
64.387681309567085
 40
12
 50
38.682187453489483
 51
141.31781254651054
  0
ARC
  8
_0-0_
  6
CONTINUOUS
 62
    7
 10
587.09840017903616
 20
64.387681309567085
 40
21
 50
347.67230522904657
 51
192.32769477095388
  0
ARC
  8
_0-0_
  6
CONTINUOUS
 62
    7
 10
587.09840017903616
 20
101.15723393126785
 40
4.25
 50
62.183052208199804
 51
117.8169477918002
  0
ARC
  8
_0-0_
  6
CONTINUOUS
 62
    7
 10
550.59840017903616
 20
86.88768130956754
 40
4.2500000000000009
 50
45.099127844027286
 51
314.90087215597271
  0
ARC
  8
_0-0_
  6
CONTINUOUS
 62
    7
 10
623.59840017903616
 20
86.88768130956754
 40
4.2500000000000009
 50
225.09912784402741
 51
134.90087215597259
  0
ARC
  8
_0-0_
  6
CONTINUOUS
 62
    7
 10
623.86795280073648
 20
64.38768130956754
 40
4.25
 50
219.70834612844322
 51
140.29165387155675
  0
ARC
  8
_0-0_
  6
CONTINUOUS
 62
    7
 10
623.59840017903616
 20
41.88768130956754
 40
4.2500000000000009
 50
225.09912784402727
 51
134.90087215597268
  0
ARC
  8
_0-0_
  6
CONTINUOUS
 62
    7
 10
550.59840017903616
 20
41.88768130956754
 40
4.2500000000000009
 50
61.927513064147035
 51
241.92751306414704
  0
ARC
  8
_0-0_
  6
CONTINUOUS
 62
    7
 10
550.32884755733585
 20
64.38768130956754
 40
4.25
 50
39.708346128443111
 51
320.29165387155678
  0
ARC
  8
_0-0_
  6
CONTINUOUS
 62
    7
 10
668.09840017903616
 20
18.387681309566631
 40
3.0000000000000009
 50
180
 51
270
  0
ARC
  8
_0-0_
  6
CONTINUOUS
 62
    7
 10
635.85575949191707
 20
139.38768130956743
 40
3.0000000000000009
 50
44.999999999999936
 51
89.999999999999929
  0
ARC
  8
_0-0_
  6
CONTINUOUS
 62
    7
 10
541.09840017903616
 20
145.38768130956743
 40
3.0000000000000009
 50
180
 51
270
  0
CIRCLE
  8
_0-0_
  6
CONTINUOUS
 62
    7
 10
609.59840017903616
 20
100.88768130956709
 40
3.4600000381469727
  0
CIRCLE
  8
_0-0_
  6
CONTINUOUS
 62
    7
 10
564.59840017903616
 20
100.88768130956709
 40
3.4600000381469727
  0
ARC
  8
_0-0_
  6
CONTINUOUS
 62
    7
 10
609.59840017903616
 20
100.88768130956709
 40
6.25
 50
279.05167849862363
 51
183.19949004150453
  0
ARC
  8
_0-0_
  6
CONTINUOUS
 62
    7
 10
609.59840017903616
 20
100.88768130956709
 40
4
 50
245.97555071440101
 51
216.27561782572613
  0
ARC
  8
_0-0_
  6
CONTINUOUS
 62
    7
 10
564.59840017903616
 20
100.88768130956709
 40
6.25
 50
356.80050995849547
 51
260.94832150137842
  0
ARC
  8
_0-0_
  6
CONTINUOUS
 62
    7
 10
564.59840017903616
 20
100.88768130956709
 40
4
 50
323.72438217427396
 51
294.02444928560243
  0
LINE
  8
_0-1_
  6
PHANTOM1
 62
  152
 10
25.664231571812934
 20
287.28282439404956
 11
149.45482497060328
 21
287.28282439404956
  0
LINE
  8
_0-1_
  6
PHANTOM1
 62
  152
 10
13.79738049159505
 20
331.57051555127657
 11
27.129970150484951
 21
281.81261354783152
  0
LINE
  8
_0-1_
  6
PHANTOM1
 62
  152
 10
14.946263874568103
 20
327.28282439404956
 11
149.45482497060328
 21
327.28282439404956
  0
LINE
  8
_0-1_
  6
PHANTOM1
 62
  152
 10
149.45482497060328
 20
287.28282439404956
 11
149.45482497060328
 21
390.12587455364542
  0
LINE
  8
_0-1_
  6
PHANTOM1
 62
  152
 10
189.45482497060328
 20
287.28282439404956
 11
189.45482497060328
 21
379.40790685640053
  0
LINE
  8
_0-1_
  6
PHANTOM1
 62
  152
 10
143.95032467788133
 20
391.60080096181713
 11
195.1471918838613
 21
377.88264173897136
  0
LINE
  8
_0-1_
  6
PHANTOM1
 62
  152
 10
289.26445569580773
 20
391.60847116567624
 11
340.15838285914873
 21
377.97148448261061
  0
LINE
  8
_0-1_
  6
PHANTOM1
 62
  152
 10
294.79758157903615
 20
390.12587455364542
 11
294.79758157903615
 21
287.28282439404956
  0
LINE
  8
_0-1_
  6
PHANTOM1
 62
  152
 10
334.79758157903615
 20
379.40790685640053
 11
334.79758157903615
 21
287.28282439404956
  0
LINE
  8
_0-1_
  6
PHANTOM1
 62
  152
 10
442.77796390677071
 20
327.28282439404978
 11
334.79758157903615
 21
327.28282439404978
  0
LINE
  8
_0-1_
  6
PHANTOM1
 62
  152
 10
441.62908052379771
 20
331.57051555127657
 11
454.96167018268773
 21
281.81261354783152
  0
LINE
  8
_0-1_
  6
PHANTOM1
 62
  152
 10
294.79758157903615
 20
287.28282439404956
 11
453.49593160401565
 21
287.28282439404956
  0
LINE
  8
_0-1_
  6
DASHED2
 62
  152
 10
54.428553502292743
 20
276.78282439404956
 11
176.010866766731
 21
276.78282439404956
  0
LINE
  8
_0-1_
  6
DASHED2
 62
  152
 10
178.0081258362398
 20
274.88749630653564
 11
178.30733965763926
 21
269.17815648156392
  0
LINE
  8
_0-1_
  6
CENTER1
 62
  152
 10
101.45482496974824
 20
282.02433772659896
 11
101.45482496974824
 21
209.12757298308878
  0
LINE
  8
_0-1_
  6
CENTER1
 62
  152
 10
76.454824969748188
 20
247.78282439404956
 11
76.454824969748188
 21
182.78282439404956
  0
LINE
  8
_0-1_
  6
CENTER1
 62
  152
 10
108.95482496974824
 20
215.28282439404956
 11
43.954824969748188
 21
215.28282439404956
  0
LINE
  8
_0-1_
  6
CONTINUOUS
 62
  152
 10
140.35482506511477
 20
254.28282839590173
 11
140.35482506511477
 21
234.28282439405046
  0
LINE
  8
_0-1_
  6
CONTINUOUS
 62
  152
 10
140.35482506511477
 20
234.28282439405046
 11
139.45482496974824
 21
232.7239785020567
  0
LINE
  8
_0-1_
  6
CONTINUOUS
 62
  152
 10
139.45482496974824
 20
234.28282439405046
 11
155.45482496974734
 21
234.28282439405046
  0
LINE
  8
_0-1_
  6
CONTINUOUS
 62
  152
 10
154.55482487438081
 20
234.28282439405046
 11
154.55482487438081
 21
254.28282839590173
  0
LINE
  8
_0-1_
  6
CONTINUOUS
 62
  152
 10
140.35482506511477
 20
297.28282839405
 11
140.35482506511477
 21
328.78282439405058
  0
LINE
  8
_0-1_
  6
CONTINUOUS
 62
  152
 10
154.55482487438081
 20
297.28282839590173
 11
154.55482487438081
 21
328.78282439405058
  0
LINE
  8
_0-1_
  6
CONTINUOUS
 62
  152
 10
155.45482496974734
 20
327.8828247755194
 11
139.45482496974824
 21
327.8828247755194
  0
LINE
  8
_0-1_
  6
CENTER1
 62
  152
 10
147.45482496974824
 20
328.78282439405058
 11
147.45482496974824
 21
182.78282439405046
  0
LINE
  8
_0-1_
  6
CONTINUOUS
 62
  152
 10
155.45482496974734
 20
232.7239785020567
 11
154.55482487438081
 21
234.28282439405046
  0
ARC
  8
_0-1_
  6
DASHED2
 62
  152
 10
176.010866766731
 20
274.78282439404956
 40
2
 50
3.0000000000005773
 51
90
  0
ARC
  8
_0-1_
  6
DASHED2
 62
  152
 10
54.428553502292743
 20
278.28282439404956
 40
1.5
 50
183.00000000000003
 51
270
  0
ARC
  8
_0-1_
  6
DASHED2
 62
  152
 10
180.30459872714806
 20
269.28282839405
 40
2
 50
183.00000000000003
 51
270
  0
LINE
  8
_0-1_
  6
CONTINUOUS
 62
  152
 10
287.89758148366883
 20
254.28282839590173
 11
287.89758148366883
 21
234.28282439405046
  0
LINE
  8
_0-1_
  6
CONTINUOUS
 62
  152
 10
287.89758148366883
 20
234.28282439405046
 11
288.79758157903626
 21
232.7239785020567
  0
LINE
  8
_0-1_
  6
CONTINUOUS
 62
  152
 10
288.79758157903626
 20
234.28282439405046
 11
272.79758157903626
 21
234.28282439405046
  0
LINE
  8
_0-1_
  6
CONTINUOUS
 62
  152
 10
273.69758167440369
 20
234.28282439405046
 11
273.69758167440369
 21
254.28282839590173
  0
LINE
  8
_0-1_
  6
DASHED2
 62
  152
 10
429.79758157903626
 20
276.78282439404956
 11
309.12523605860252
 21
276.78282439404956
  0
LINE
  8
_0-1_
  6
DASHED2
 62
  152
 10
307.12797698909282
 20
274.88749630653564
 11
306.82876316769426
 21
269.17815648156392
  0
LINE
  8
_0-1_
  6
CONTINUOUS
 62
  152
 10
273.69758167440369
 20
234.28282439405046
 11
272.79758157903626
 21
232.7239785020567
  0
LINE
  8
_0-1_
  6
CENTER1
 62
  152
 10
280.79758157903626
 20
182.78282439405046
 11
280.79758157903626
 21
330.78282439404967
  0
LINE
  8
_0-1_
  6
CONTINUOUS
 62
  152
 10
273.69758167440369
 20
297.28282839405
 11
273.69758167440369
 21
328.78282439405058
  0
LINE
  8
_0-1_
  6
CONTINUOUS
 62
  152
 10
287.89758148366883
 20
297.28282839590173
 11
287.89758148366883
 21
328.78282439405058
  0
LINE
  8
_0-1_
  6
CONTINUOUS
 62
  152
 10
288.79758157903626
 20
327.8828247755194
 11
272.79758157903626
 21
327.8828247755194
  0
LINE
  8
_0-1_
  6
CENTER1
 62
  152
 10
344.29758157903626
 20
215.28282439405001
 11
414.29758157903626
 21
215.28282439405001
  0
LINE
  8
ADD_LINE
  6
DOT
 62
  152
 10
357.00468836022293
 20
215.98993117523668
 11
356.29758157903626
 21
215.28282439405001
  0
LINE
  8
ADD_LINE
  6
DOT
 62
  152
 10
356.29758157903626
 20
215.28282439405001
 11
357.00468836022293
 21
214.57571761286334
  0
LINE
  8
_0-1_
  6
CENTER1
 62
  152
 10
382.79758157903626
 20
182.78282439405046
 11
382.79758157903626
 21
287.28282439405046
  0
ARC
  8
_0-1_
  6
DASHED2
 62
  152
 10
429.79758157903626
 20
278.78282439404956
 40
2
 50
270
 51
0
  0
ARC
  8
_0-1_
  6
DASHED2
 62
  152
 10
309.12523605860252
 20
274.78282439404956
 40
2
 50
90
 51
176.99999999999937
  0
LINE
  8
_0-1_
  6
CENTER1
 62
  152
 10
280.79758157903626
 20
128.38768130956765
 11
280.79758157903626
 21
92.38768130956754
  0
LINE
  8
_0-1_
  6
CENTER1
 62
  152
 10
296.48393359086759
 20
110.38768130956754
 11
265.11122956903574
 21
110.38768130956754
  0
LINE
  8
_0-1_
  6
CENTER1
 62
  152
 10
308.34149958378413
 20
23.38768130956754
 11
321.71222126091135
 21
23.38768130956754
  0
LINE
  8
_0-1_
  6
CENTER1
 62
  152
 10
314.79758157903626
 20
13.88768130956754
 11
314.79758157903626
 21
88.539408229112212
  0
LINE
  8
_0-1_
  6
CENTER1
 62
  152
 10
308.34149958378413
 20
83.38768130956754
 11
321.71222126091135
 21
83.38768130956754
  0
LINE
  8
_0-1_
  6
CENTER1
 62
  152
 10
321.71222126091135
 20
63.387681309566631
 11
308.34149958378413
 21
63.387681309566631
  0
LINE
  8
_0-1_
  6
CENTER1
 62
  152
 10
338.32596600609969
 20
64.38768130956754
 11
351.97206097869395
 21
64.38768130956754
  0
LINE
  8
_0-1_
  6
CENTER1
 62
  152
 10
346.02802895733595
 20
56.135241006376361
 11
346.02802895733595
 21
72.674947733908027
  0
LINE
  8
_0-1_
  6
CENTER1
 62
  152
 10
346.29758157903626
 20
78.635241006376361
 11
346.29758157903626
 21
95.174947733908027
  0
LINE
  8
_0-1_
  6
CENTER1
 62
  152
 10
368.21943622444479
 20
100.88768130956709
 11
352.5955186278
 21
100.88768130956709
  0
LINE
  8
_0-1_
  6
CENTER1
 62
  152
 10
360.29758157903626
 20
90.614279329200542
 11
360.29758157903626
 21
109.17494773390803
  0
LINE
  8
_0-1_
  6
CENTER1
 62
  152
 10
405.29758157903626
 20
90.614279329200542
 11
405.29758157903626
 21
109.17494773390803
  0
LINE
  8
_0-1_
  6
CENTER1
 62
  152
 10
413.21943622444479
 20
100.88768130956709
 11
397.5955186278
 21
100.88768130956709
  0
LINE
  8
_0-1_
  6
CENTER1
 62
  152
 10
415.66131304601396
 20
41.88768130956754
 11
427.21943622444388
 21
41.88768130956754
  0
LINE
  8
_0-1_
  6
CENTER1
 62
  152
 10
419.29758157903626
 20
33.635241006376361
 11
419.29758157903626
 21
50.174947733908027
  0
LINE
  8
_0-1_
  6
CENTER1
 62
  152
 10
419.56713420073658
 20
56.135241006376361
 11
419.56713420073658
 21
72.674947733908027
  0
LINE
  8
_0-1_
  6
CENTER1
 62
  152
 10
419.29758157903626
 20
78.635241006376361
 11
419.29758157903626
 21
95.174947733908027
  0
LINE
  8
_0-1_
  6
CENTER1
 62
  152
 10
411.61616189956686
 20
86.88768130956754
 11
427.21943622444388
 21
86.88768130956754
  0
LINE
  8
_0-1_
  6
CENTER1
 62
  152
 10
427.4889888461442
 20
64.38768130956754
 11
413.62310217937767
 21
64.38768130956754
  0
LINE
  8
_0-1_
  6
CENTER1
 62
  152
 10
405.29758157903626
 20
19.635241006376361
 11
405.29758157903626
 21
35.531745037023427
  0
LINE
  8
ADD_LINE
  6
DOT
 62
  152
 10
408.59047479784959
 20
38.680574528380419
 11
409.29758157903626
 21
39.387681309567085
  0
LINE
  8
ADD_LINE
  6
DOT
 62
  152
 10
409.29758157903626
 20
39.387681309567085
 11
408.59047479784959
 21
40.094788090753752
  0
LINE
  8
_0-1_
  6
CENTER1
 62
  152
 10
401.71772674409505
 20
41.88768130956754
 11
364.19986935061416
 21
41.88768130956754
  0
LINE
  8
_0-1_
  6
CENTER1
 62
  152
 10
351.5846016596127
 20
41.88768130956754
 11
338.5955186278
 21
41.88768130956754
  0
LINE
  8
_0-1_
  6
CENTER1
 62
  152
 10
346.29758157903626
 20
33.635241006376361
 11
346.29758157903626
 21
50.174947733908027
  0
LINE
  8
_0-1_
  6
CENTER1
 62
  152
 10
382.79758157903626
 20
64.409674229567315
 11
382.79758157903626
 21
19.365688384676048
  0
LINE
  8
_0-1_
  6
CENTER1
 62
  152
 10
353.97900125850566
 20
86.88768130956754
 11
338.5955186278
 21
86.88768130956754
  0
LINE
  8
_0-1_
  6
CENTER1
 62
  152
 10
363.79758157903626
 20
125.47304162769257
 11
363.79758157903626
 21
138.84376330481956
  0
LINE
  8
_0-1_
  6
CENTER1
 62
  152
 10
357.19536449571416
 20
132.38768130956697
 11
434.79233461654559
 21
132.38768130956697
  0
LINE
  8
_0-1_
  6
CENTER1
 62
  152
 10
423.79758157903626
 20
138.84376330481956
 11
423.79758157903626
 21
125.47304162769257
  0
LINE
  8
_0-1_
  6
CENTER1
 62
  152
 10
383.79758157903626
 20
125.47304162769257
 11
383.79758157903626
 21
138.84376330481956
  0
LINE
  8
_0-1_
  6
PHANTOM1
 62
  152
 10
944.23175018625943
 20
287.28282439404956
 11
820.44115678746903
 21
287.28282439404956
  0
LINE
  8
_0-1_
  6
PHANTOM1
 62
  152
 10
956.09860126647732
 20
331.57051555127657
 11
942.76601160758742
 21
281.81261354783152
  0
LINE
  8
_0-1_
  6
PHANTOM1
 62
  152
 10
954.94971788350426
 20
327.28282439404956
 11
820.44115678746903
 21
327.28282439404956
  0
LINE
  8
_0-1_
  6
PHANTOM1
 62
  152
 10
820.44115678746903
 20
287.28282439404956
 11
820.44115678746903
 21
390.12587455364542
  0
LINE
  8
_0-1_
  6
PHANTOM1
 62
  152
 10
780.44115678746903
 20
287.28282439404956
 11
780.44115678746903
 21
379.40790685640053
  0
LINE
  8
_0-1_
  6
PHANTOM1
 62
  152
 10
825.94565708019104
 20
391.60080096181713
 11
774.74878987421107
 21
377.88264173897136
  0
LINE
  8
_0-1_
  6
PHANTOM1
 62
  152
 10
680.63152606226458
 20
391.60847116567624
 11
629.73759889892358
 21
377.97148448261061
  0
LINE
  8
_0-1_
  6
PHANTOM1
 62
  152
 10
675.09840017903616
 20
390.12587455364542
 11
675.09840017903616
 21
287.28282439404956
  0
LINE
  8
_0-1_
  6
PHANTOM1
 62
  152
 10
635.09840017903616
 20
379.40790685640053
 11
635.09840017903616
 21
287.28282439404956
  0
LINE
  8
_0-1_
  6
PHANTOM1
 62
  152
 10
527.1180178513016
 20
327.28282439404978
 11
635.09840017903616
 21
327.28282439404978
  0
LINE
  8
_0-1_
  6
PHANTOM1
 62
  152
 10
528.26690123427466
 20
331.57051555127657
 11
514.93431157538475
 21
281.81261354783152
  0
LINE
  8
_0-1_
  6
PHANTOM1
 62
  152
 10
675.09840017903616
 20
287.28282439404956
 11
516.40005015405677
 21
287.28282439404956
  0
LINE
  8
_0-1_
  6
DASHED2
 62
  152
 10
915.46742825577962
 20
276.78282439404956
 11
793.88511499134142
 21
276.78282439404956
  0
LINE
  8
_0-1_
  6
DASHED2
 62
  152
 10
791.88785592183262
 20
274.88749630653564
 11
791.58864210043316
 21
269.17815648156392
  0
LINE
  8
_0-1_
  6
CENTER1
 62
  152
 10
868.44115678832418
 20
282.02433772659896
 11
868.44115678832418
 21
209.12757298308878
  0
LINE
  8
_0-1_
  6
CENTER1
 62
  152
 10
893.44115678832418
 20
247.78282439404956
 11
893.44115678832418
 21
182.78282439404956
  0
LINE
  8
_0-1_
  6
CENTER1
 62
  152
 10
860.94115678832418
 20
215.28282439404956
 11
925.94115678832418
 21
215.28282439404956
  0
LINE
  8
_0-1_
  6
CONTINUOUS
 62
  152
 10
829.54115669295766
 20
254.28282839590173
 11
829.54115669295766
 21
234.28282439405046
  0
LINE
  8
_0-1_
  6
CONTINUOUS
 62
  152
 10
829.54115669295766
 20
234.28282439405046
 11
830.44115678832418
 21
232.7239785020567
  0
LINE
  8
_0-1_
  6
CONTINUOUS
 62
  152
 10
830.44115678832418
 20
234.28282439405046
 11
814.44115678832509
 21
234.28282439405046
  0
LINE
  8
_0-1_
  6
CONTINUOUS
 62
  152
 10
815.34115688369161
 20
234.28282439405046
 11
815.34115688369161
 21
254.28282839590173
  0
LINE
  8
_0-1_
  6
CONTINUOUS
 62
  152
 10
829.54115669295766
 20
297.28282839405
 11
829.54115669295766
 21
328.78282439405058
  0
LINE
  8
_0-1_
  6
CONTINUOUS
 62
  152
 10
815.34115688369161
 20
297.28282839590173
 11
815.34115688369161
 21
328.78282439405058
  0
LINE
  8
_0-1_
  6
CONTINUOUS
 62
  152
 10
814.44115678832509
 20
327.8828247755194
 11
830.44115678832418
 21
327.8828247755194
  0
LINE
  8
_0-1_
  6
CENTER1
 62
  152
 10
822.44115678832418
 20
328.78282439405058
 11
822.44115678832418
 21
182.78282439405046
  0
LINE
  8
_0-1_
  6
CONTINUOUS
 62
  152
 10
814.44115678832509
 20
232.7239785020567
 11
815.34115688369161
 21
234.28282439405046
  0
ARC
  8
_0-1_
  6
DASHED2
 62
  152
 10
793.88511499134142
 20
274.78282439404956
 40
2
 50
90
 51
176.99999999999943
  0
ARC
  8
_0-1_
  6
DASHED2
 62
  152
 10
915.46742825577962
 20
278.28282439404956
 40
1.5
 50
270
 51
357
  0
ARC
  8
_0-1_
  6
DASHED2
 62
  152
 10
789.59138303092436
 20
269.28282839405
 40
2
 50
270
 51
357
  0
LINE
  8
_0-1_
  6
CONTINUOUS
 62
  152
 10
681.99840027440359
 20
254.28282839590173
 11
681.99840027440359
 21
234.28282439405046
  0
LINE
  8
_0-1_
  6
CONTINUOUS
 62
  152
 10
681.99840027440359
 20
234.28282439405046
 11
681.09840017903616
 21
232.7239785020567
  0
LINE
  8
_0-1_
  6
CONTINUOUS
 62
  152
 10
681.09840017903616
 20
234.28282439405046
 11
697.09840017903616
 21
234.28282439405046
  0
LINE
  8
_0-1_
  6
CONTINUOUS
 62
  152
 10
696.19840008366873
 20
234.28282439405046
 11
696.19840008366873
 21
254.28282839590173
  0
LINE
  8
_0-1_
  6
DASHED2
 62
  152
 10
540.09840017903616
 20
276.78282439404956
 11
660.7707456994699
 21
276.78282439404956
  0
LINE
  8
_0-1_
  6
DASHED2
 62
  152
 10
662.76800476897961
 20
274.88749630653564
 11
663.06721859037816
 21
269.17815648156392
  0
LINE
  8
_0-1_
  6
CONTINUOUS
 62
  152
 10
696.19840008366873
 20
234.28282439405046
 11
697.09840017903616
 21
232.7239785020567
  0
LINE
  8
_0-1_
  6
CENTER1
 62
  152
 10
689.09840017903616
 20
182.78282439405046
 11
689.09840017903616
 21
330.78282439404967
  0
LINE
  8
_0-1_
  6
CONTINUOUS
 62
  152
 10
696.19840008366873
 20
297.28282839405
 11
696.19840008366873
 21
328.78282439405058
  0
LINE
  8
_0-1_
  6
CONTINUOUS
 62
  152
 10
681.99840027440359
 20
297.28282839590173
 11
681.99840027440359
 21
328.78282439405058
  0
LINE
  8
_0-1_
  6
CONTINUOUS
 62
  152
 10
681.09840017903616
 20
327.8828247755194
 11
697.09840017903616
 21
327.8828247755194
  0
LINE
  8
_0-1_
  6
CENTER1
 62
  152
 10
625.59840017903616
 20
215.28282439405001
 11
555.59840017903616
 21
215.28282439405001
  0
LINE
  8
ADD_LINE
  6
DOT
 62
  152
 10
612.89129339784949
 20
215.98993117523668
 11
613.59840017903616
 21
215.28282439405001
  0
LINE
  8
ADD_LINE
  6
DOT
 62
  152
 10
613.59840017903616
 20
215.28282439405001
 11
612.89129339784949
 21
214.57571761286334
  0
LINE
  8
_0-1_
  6
CENTER1
 62
  152
 10
587.09840017903616
 20
182.78282439405046
 11
587.09840017903616
 21
287.28282439405046
  0
ARC
  8
_0-1_
  6
DASHED2
 62
  152
 10
540.09840017903616
 20
278.78282439404956
 40
2
 50
180
 51
270
  0
ARC
  8
_0-1_
  6
DASHED2
 62
  152
 10
660.7707456994699
 20
274.78282439404956
 40
2
 50
3.0000000000006275
 51
90
  0
LINE
  8
_0-1_
  6
CENTER1
 62
  152
 10
689.09840017903616
 20
128.38768130956765
 11
689.09840017903616
 21
92.38768130956754
  0
LINE
  8
_0-1_
  6
CENTER1
 62
  152
 10
673.41204816720483
 20
110.38768130956754
 11
704.78475218903668
 21
110.38768130956754
  0
LINE
  8
_0-1_
  6
CENTER1
 62
  152
 10
661.5544821742883
 20
23.38768130956754
 11
648.18376049716107
 21
23.38768130956754
  0
LINE
  8
_0-1_
  6
CENTER1
 62
  152
 10
655.09840017903616
 20
13.88768130956754
 11
655.09840017903616
 21
88.539408229112212
  0
LINE
  8
_0-1_
  6
CENTER1
 62
  152
 10
661.5544821742883
 20
83.38768130956754
 11
648.18376049716107
 21
83.38768130956754
  0
LINE
  8
_0-1_
  6
CENTER1
 62
  152
 10
648.18376049716107
 20
63.387681309566631
 11
661.5544821742883
 21
63.387681309566631
  0
LINE
  8
_0-1_
  6
CENTER1
 62
  152
 10
631.57001575197273
 20
64.38768130956754
 11
617.92392077937848
 21
64.38768130956754
  0
LINE
  8
_0-1_
  6
CENTER1
 62
  152
 10
623.86795280073648
 20
56.135241006376361
 11
623.86795280073648
 21
72.674947733908027
  0
LINE
  8
_0-1_
  6
CENTER1
 62
  152
 10
623.59840017903616
 20
78.635241006376361
 11
623.59840017903616
 21
95.174947733908027
  0
LINE
  8
_0-1_
  6
CENTER1
 62
  152
 10
601.67654553362763
 20
100.88768130956709
 11
617.30046313027242
 21
100.88768130956709
  0
LINE
  8
_0-1_
  6
CENTER1
 62
  152
 10
609.59840017903616
 20
90.614279329200542
 11
609.59840017903616
 21
109.17494773390803
  0
LINE
  8
_0-1_
  6
CENTER1
 62
  152
 10
564.59840017903616
 20
90.614279329200542
 11
564.59840017903616
 21
109.17494773390803
  0
LINE
  8
_0-1_
  6
CENTER1
 62
  152
 10
556.67654553362763
 20
100.88768130956709
 11
572.30046313027242
 21
100.88768130956709
  0
LINE
  8
_0-1_
  6
CENTER1
 62
  152
 10
554.23466871205846
 20
41.88768130956754
 11
542.67654553362854
 21
41.88768130956754
  0
LINE
  8
_0-1_
  6
CENTER1
 62
  152
 10
550.59840017903616
 20
33.635241006376361
 11
550.59840017903616
 21
50.174947733908027
  0
LINE
  8
_0-1_
  6
CENTER1
 62
  152
 10
550.32884755733585
 20
56.135241006376361
 11
550.32884755733585
 21
72.674947733908027
  0
LINE
  8
_0-1_
  6
CENTER1
 62
  152
 10
550.59840017903616
 20
78.635241006376361
 11
550.59840017903616
 21
95.174947733908027
  0
LINE
  8
_0-1_
  6
CENTER1
 62
  152
 10
558.27981985850556
 20
86.88768130956754
 11
542.67654553362854
 21
86.88768130956754
  0
LINE
  8
_0-1_
  6
CENTER1
 62
  152
 10
542.40699291192823
 20
64.38768130956754
 11
556.27287957869476
 21
64.38768130956754
  0
LINE
  8
_0-1_
  6
CENTER1
 62
  152
 10
564.59840017903616
 20
19.635241006376361
 11
564.59840017903616
 21
35.531745037023427
  0
LINE
  8
ADD_LINE
  6
DOT
 62
  152
 10
561.30550696022283
 20
38.680574528380419
 11
560.59840017903616
 21
39.387681309567085
  0
LINE
  8
ADD_LINE
  6
DOT
 62
  152
 10
560.59840017903616
 20
39.387681309567085
 11
561.30550696022283
 21
40.094788090753752
  0
LINE
  8
_0-1_
  6
CENTER1
 62
  152
 10
568.17825501397738
 20
41.88768130956754
 11
605.69611240745826
 21
41.88768130956754
  0
LINE
  8
_0-1_
  6
CENTER1
 62
  152
 10
618.31138009845972
 20
41.88768130956754
 11
631.30046313027242
 21
41.88768130956754
  0
LINE
  8
_0-1_
  6
CENTER1
 62
  152
 10
623.59840017903616
 20
33.635241006376361
 11
623.59840017903616
 21
50.174947733908027
  0
LINE
  8
_0-1_
  6
CENTER1
 62
  152
 10
587.09840017903616
 20
64.409674229567315
 11
587.09840017903616
 21
19.365688384676048
  0
LINE
  8
_0-1_
  6
CENTER1
 62
  152
 10
615.91698049956676
 20
86.88768130956754
 11
631.30046313027242
 21
86.88768130956754
  0
LINE
  8
_0-1_
  6
CENTER1
 62
  152
 10
606.09840017903616
 20
125.47304162769257
 11
606.09840017903616
 21
138.84376330481956
  0
LINE
  8
_0-1_
  6
CENTER1
 62
  152
 10
612.70061726235826
 20
132.38768130956697
 11
535.10364714152684
 21
132.38768130956697
  0
LINE
  8
_0-1_
  6
CENTER1
 62
  152
 10
546.09840017903616
 20
138.84376330481956
 11
546.09840017903616
 21
125.47304162769257
  0
LINE
  8
_0-1_
  6
CENTER1
 62
  152
 10
586.09840017903616
 20
125.47304162769257
 11
586.09840017903616
 21
138.84376330481956
  0
TEXT
  8
_0-0_
 62
    7
 10
362.23960740114586
 20
159.34613606783938
 40
10
 41
1
 50
0
  1
L
  0
TEXT
  8
_0-0_
 62
    7
 10
602.55071113257929
 20
160.86950281098632
 40
10
 41
1
 50
0
  1
R
  0
ENDSEC
  0
EOF
