  0
SECTION
  2
HEADER
  9
$ACADVER
  1
AC1009
  9
$INSBASE
 10
0
 20
0
 30
0
  9
$EXTMIN
 10
0
 20
0
  9
$EXTMAX
 10
1189
 20
841
  9
$LIMMIN
 10
0
 20
0
  9
$LIMMAX
 10
1189
 20
841
  9
$LTSCALE
 40
1
  0
ENDSEC
  0
SECTION
  2
TABLES
  0
TABLE
  2
LTYPE
 70
     9
  0
LTYPE
  2
CONTINUOUS
 70
    64
  3
実線
 72
    65
 73
     0
 40
0.0
  0
LTYPE
  2
DASHED1
 70
    64
  3
--  --  --  --  --  --  --  --  
 72
    65
 73
     2
 40
2.5
 49
1.25
 49
-1.25
  0
LTYPE
  2
DASHED2
 70
    64
  3
----    ----    ----    ----    
 72
    65
 73
     2
 40
5.0
 49
2.5
 49
-2.5
  0
LTYPE
  2
DASHED3
 70
    64
  3
------  ------  ------  ------  
 72
    65
 73
     2
 40
5.0
 49
3.75
 49
-1.25
  0
LTYPE
  2
CENTER1
 70
    64
  3
----- - ----- - ----- - ----- - 
 72
    65
 73
     4
 40
10.0
 49
6.25
 49
-1.25
 49
1.25
 49
-1.25
  0
LTYPE
  2
CENTER2
 70
    64
  3
----------  --  ----------  --  
 72
    65
 73
     4
 40
20.0
 49
12.5
 49
-2.5
 49
2.5
 49
-2.5
  0
LTYPE
  2
PHANTOM1
 70
    64
  3
--- - - --- - - --- - - --- - - 
 72
    65
 73
     6
 40
10.0
 49
3.25
 49
-1.25
 49
1.25
 49
-1.25
 49
1.25
 49
-1.25
  0
LTYPE
  2
PHANTOM2
 70
    64
  3
--------  -  -  --------  -  -  
 72
    65
 73
     6
 40
20.0
 49
10.0
 49
-2.5
 49
1.25
 49
-2.5
 49
1.25
 49
-2.5
  0
LTYPE
  2
DOT
 70
    64
  3
-   -   -   -   -   -   -   -   
 72
    65
 73
     2
 40
2.5
 49
0.625
 49
-1.875
  0
LTYPE
  2
DUMMY
 70
    64
  3
ダミー
 72
    65
 73
     0
 40
0.0
  0
LTYPE
  2
RAND1
 70
    64
  3
ランダム線1
 72
    65
 73
     4
 40
10.0
 49
1.0
 49
-2.0
 49
3.0
 49
-4.0
  0
LTYPE
  2
RAND2
 70
    64
  3
ランダム線2
 72
    65
 73
     4
 40
14.0
 49
2.0
 49
-3.0
 49
4.0
 49
-5.0
  0
LTYPE
  2
RAND3
 70
    64
  3
ランダム線3
 72
    65
 73
     4
 40
18.0
 49
3.0
 49
-4.0
 49
5.0
 49
-6.0
  0
LTYPE
  2
RAND4
 70
    64
  3
ランダム線4
 72
    65
 73
     4
 40
22.0
 49
4.0
 49
-5.0
 49
6.0
 49
-7.0
  0
LTYPE
  2
RAND5
 70
    64
  3
ランダム線5
 72
    65
 73
     4
 40
26.0
 49
5.0
 49
-6.0
 49
7.0
 49
-8.0
  0
LTYPE
  2
LONG1
 70
    64
  3
----------  --  ----------  --  
 72
    65
 73
     4
 40
40.0
 49
32.5
 49
-2.5
 49
2.5
 49
-2.5
  0
LTYPE
  2
LONG2
 70
    64
  3
--------  -  -  --------  -  -  
 72
    65
 73
     6
 40
40.0
 49
30.0
 49
-2.5
 49
1.25
 49
-2.5
 49
1.25
 49
-2.5
  0
LTYPE
  2
LONG3
 70
    64
  3
+++++++++++++++..+++++++++++++++
 72
    65
 73
     2
 40
40.0
 49
37.5
 49
-2.5
  0
LTYPE
  2
LONG4
 70
    64
  3
+++++++++++++++..+++++++++++++++
 72
    65
 73
     2
 40
80.0
 49
75.0
 49
-5.0
  0
LTYPE
  2
LONG5
 70
    64
  3
----------  --  ----------  --  
 72
    65
 73
     4
 40
60.0
 49
37.5
 49
-7.5
 49
7.5
 49
-7.5
  0
LTYPE
  2
dashed
 70
   64
  3
-------   -------------   ------
 72
   65
 73
    2
 40
7.5
 49
6
 49
-1.5
  0
LTYPE
  2
dashed_spaced
 70
   64
  3
----        --------        ----
 72
   65
 73
    2
 40
12
 49
6
 49
-6
  0
LTYPE
  2
long_dashed_dotted
 70
   64
  3
------------- --- --------------
 72
   65
 73
    4
 40
15.25
 49
12
 49
-1.5
 49
0.25
 49
-1.5
  0
LTYPE
  2
long_dashed_double-dotted
 70
   64
  3
----------- --- --- ------------
 72
   65
 73
    6
 40
17
 49
12
 49
-1.5
 49
0.25
 49
-1.5
 49
0.25
 49
-1.5
  0
LTYPE
  2
long_dashed_triplicate-dotted
 70
   64
  3
--------- --- --- --- ----------
 72
   65
 73
    8
 40
18.75
 49
12
 49
-1.5
 49
0.25
 49
-1.5
 49
0.25
 49
-1.5
 49
0.25
 49
-1.5
  0
LTYPE
  2
dotted
 70
   64
  3
   -       -       -       -    
 72
   65
 73
    2
 40
1.75
 49
0.25
 49
-1.5
  0
LTYPE
  2
chain
 70
   64
  3
-------------- -- --------------
 72
   65
 73
    4
 40
18.5
 49
12
 49
-1.5
 49
3.5
 49
-1.5
  0
LTYPE
  2
chain_double_dash
 70
   64
  3
------------ -- -- -------------
 72
   65
 73
    6
 40
23.5
 49
12
 49
-1.5
 49
3.5
 49
-1.5
 49
3.5
 49
-1.5
  0
LTYPE
  2
dashed_dotted
 70
   64
  3
-----------     -     ----------
 72
   65
 73
    4
 40
9.25
 49
6
 49
-1.5
 49
0.25
 49
-1.5
  0
LTYPE
  2
double-dashed_dotted
 70
   64
  3
------   -----------   -   -----
 72
   65
 73
    6
 40
16.75
 49
6
 49
-1.5
 49
6
 49
-1.5
 49
0.25
 49
-1.5
  0
LTYPE
  2
dashed_double-dotted
 70
   64
  3
---------    -    -    ---------
 72
   65
 73
    6
 40
11
 49
6
 49
-1.5
 49
0.25
 49
-1.5
 49
0.25
 49
-1.5
  0
LTYPE
  2
double-dashed_double-dotted
 70
   64
  3
-----   ---------   -   -   ----
 72
   65
 73
    8
 40
18.5
 49
6
 49
-1.5
 49
6
 49
-1.5
 49
0.25
 49
-1.5
 49
0.25
 49
-1.5
  0
LTYPE
  2
dashed_triplicate-dotted
 70
   64
  3
-------    -    -    -    ------
 72
   65
 73
    8
 40
12.75
 49
6
 49
-1.5
 49
0.25
 49
-1.5
 49
0.25
 49
-1.5
 49
0.25
 49
-1.5
  0
LTYPE
  2
double-dashed_triplicate-dotted
 70
   64
  3
-----  ---------  -  -  -  -----
 72
   65
 73
   10
 40
20.25
 49
6
 49
-1.5
 49
6
 49
-1.5
 49
0.25
 49
-1.5
 49
0.25
 49
-1.5
 49
0.25
 49
-1.5
  0
LTYPE
  2
undefined
 70
   64
  3
--------------------------------
 72
   65
 73
    0
 40
0
  0
ENDTAB
  0
TABLE
  2
STYLE
  5
3
100
AcDbSymbolTable
 70
     1
  0
STYLE
  5
10
100
AcDbSymbolTableRecord
100
AcDbTextStyleTableRecord
  2
STANDARD
 70
     0
 40
0.0
 41
1.0
 50
0.0
 71
     0
 42
0.2
  3
txt
  4
bigfont.shx
  0
STYLE
  5
26
100
AcDbSymbolTableRecord
100
AcDbTextStyleTableRecord
  2
TATEGAKI
 70
    68
 40
0.0
 41
1.0
 50
0.0
 71
     0
 42
1.0
  3
txt
  4
bigfont.shx
  0
ENDTAB
  0
TABLE
  2
LAYER
 70
    6
  0
LAYER
  2
_0-0_
 70
   64
 62
    7
  6
CONTINUOUS
  0
LAYER
  2
_0-1_
 70
   64
 62
    7
  6
CONTINUOUS
  0
LAYER
  2
_0-8_
 70
   64
 62
    7
  6
CONTINUOUS
  0
LAYER
  2
_0-9_
 70
   64
 62
    7
  6
CONTINUOUS
  0
LAYER
  2
_0-f_
 70
   64
 62
    7
  6
CONTINUOUS
  0
LAYER
  2
ADD_LINE
 70
   64
 62
    7
  6
CONTINUOUS
  0
ENDTAB
  0
ENDSEC
  0
SECTION
  2
BLOCKS
  0
ENDSEC
  0
SECTION
  2
ENTITIES
  0
LINE
  8
_0-1_
  6
PHANTOM1
 62
  152
 10
13.79738049159505
 20
365.74081890412384
 11
27.129970150484951
 21
315.98291690067879
  0
LINE
  8
_0-1_
  6
PHANTOM1
 62
  152
 10
25.664231571812934
 20
321.45312774689683
 11
149.45482497060328
 21
321.45312774689683
  0
LINE
  8
_0-1_
  6
PHANTOM1
 62
  152
 10
149.45482497060328
 20
321.45312774689683
 11
149.45482497060328
 21
424.29617790649269
  0
LINE
  8
_0-1_
  6
PHANTOM1
 62
  152
 10
143.95032467788133
 20
425.7711043146644
 11
195.1471918838613
 21
412.05294509181863
  0
LINE
  8
_0-1_
  6
PHANTOM1
 62
  152
 10
189.45482497060328
 20
413.5782102092478
 11
189.45482497060328
 21
321.45312774689683
  0
LINE
  8
_0-0_
  6
CONTINUOUS
 62
    7
 10
189.45482496974824
 20
321.45312774689683
 11
188.50599952979798
 21
303.34845983441119
  0
LINE
  8
_0-0_
  6
CONTINUOUS
 62
    7
 10
186.50874046028827
 20
301.45313174689727
 11
104.45482496974824
 21
301.45313174689727
  0
LINE
  8
_0-0_
  6
CONTINUOUS
 62
    7
 10
104.45482496974824
 20
301.45313174689727
 11
55.596598262322004
 21
308.11751332816038
  0
LINE
  8
_0-1_
  6
DASHED2
 62
  152
 10
54.428553502292743
 20
310.95312774689683
 11
176.010866766731
 21
310.95312774689683
  0
LINE
  8
_0-1_
  6
DASHED2
 62
  152
 10
178.0081258362398
 20
309.05779965938291
 11
178.30733965763926
 21
303.34845983441119
  0
LINE
  8
_0-0_
  6
CONTINUOUS
 62
    7
 10
134.9548249697483
 20
290.95312774689791
 11
130.41389960244948
 21
286.95312774689683
  0
LINE
  8
_0-0_
  6
CONTINUOUS
 62
    7
 10
128.95482496974824
 20
296.95312774689683
 11
73.954824969748188
 21
296.95312774689683
  0
LINE
  8
_0-0_
  6
CONTINUOUS
 62
    7
 10
72.454824969748188
 20
298.95312774679678
 11
72.454824969748188
 21
300.73090552459689
  0
LINE
  8
_0-0_
  6
CONTINUOUS
 62
    7
 10
72.454824969748188
 20
300.73090552459689
 11
130.45482496974824
 21
300.73090552459689
  0
LINE
  8
_0-0_
  6
CONTINUOUS
 62
    7
 10
130.45482496974824
 20
300.73090552459689
 11
130.45482496974824
 21
298.95312774679678
  0
LINE
  8
_0-0_
  6
CONTINUOUS
 62
    7
 10
130.45482496974824
 20
298.95312774679678
 11
72.454824969748188
 21
298.95312774679678
  0
LINE
  8
_0-0_
  6
CONTINUOUS
 62
    7
 10
72.454824969748188
 20
300.73090552459706
 11
72.680871787989645
 21
301.49532229456969
  0
LINE
  8
_0-0_
  6
CONTINUOUS
 62
    7
 10
72.680871787989645
 20
301.49532229456969
 11
72.754152420670152
 21
302.28301707222067
  0
LINE
  8
_0-0_
  6
CONTINUOUS
 62
    7
 10
72.754152420670152
 20
302.28301707222067
 11
72.746621037265868
 21
302.50868330239706
  0
LINE
  8
_0-0_
  6
CONTINUOUS
 62
    7
 10
72.746621037248588
 20
302.508683302397
 11
96.716315916638507
 21
302.508683302397
  0
LINE
  8
_0-0_
  6
CONTINUOUS
 62
    7
 10
104.45482496974824
 20
302.0987496425987
 11
104.45482496974824
 21
320.99600164963249
  0
LINE
  8
_0-1_
  6
CENTER1
 62
  152
 10
101.45482496974824
 20
316.19464107944623
 11
101.45482496974824
 21
243.29787633593605
  0
LINE
  8
_0-0_
  6
CONTINUOUS
 62
    7
 10
89.458127232583195
 20
242.50285416332736
 11
82.353937684138145
 21
279.60251069409605
  0
LINE
  8
_0-1_
  6
CENTER1
 62
  152
 10
76.454824969748188
 20
281.95312774689683
 11
76.454824969748188
 21
216.95312774689683
  0
LINE
  8
_0-1_
  6
PHANTOM1
 62
  152
 10
149.45482497060328
 20
361.45312774689683
 11
14.946263874568103
 21
361.45312774689683
  0
LINE
  8
_0-0_
  6
CONTINUOUS
 62
    7
 10
52.98171503238882
 20
321.45312774689683
 11
188.95482496974824
 21
321.45312774689683
  0
LINE
  8
_0-0_
  6
CONTINUOUS
 62
    7
 10
165.9292380041698
 20
322.40079179065378
 11
165.60381987386705
 21
328.61013961562639
  0
LINE
  8
_0-0_
  6
CONTINUOUS
 62
    7
 10
162.60793126960385
 20
331.45313174689727
 11
132.30171866989264
 21
331.45313174689727
  0
LINE
  8
_0-0_
  6
CONTINUOUS
 62
    7
 10
129.30583006562944
 20
328.61013961562639
 11
128.98041193532669
 21
322.40079179065378
  0
LINE
  8
_0-0_
  6
CONTINUOUS
 62
    7
 10
130.45482496974824
 20
300.73090552459706
 11
130.23714567832423
 21
301.45313174689727
  0
LINE
  8
_0-0_
  6
CONTINUOUS
 62
    7
 10
72.746621037248929
 20
302.50868330239689
 11
72.866700231528739
 21
302.83376423656694
  0
LINE
  8
_0-0_
  6
CONTINUOUS
 62
    7
 10
72.866700231528739
 20
302.83376423656694
 11
73.377590930860833
 21
303.81872006989965
  0
LINE
  8
_0-0_
  6
CONTINUOUS
 62
    7
 10
73.377590930860833
 20
303.81872006989965
 11
74.073135311235546
 21
304.70985422078286
  0
LINE
  8
_0-0_
  6
CONTINUOUS
 62
    7
 10
74.073135311235546
 20
304.70985422078286
 11
74.932199608617793
 21
305.48009002897766
  0
LINE
  8
_0-0_
  6
CONTINUOUS
 62
    7
 10
67.954824969748188
 20
290.95312774689683
 11
67.954824969748188
 21
284.95312774689683
  0
LINE
  8
_0-0_
  6
CONTINUOUS
 62
    7
 10
67.954824969748188
 20
284.95312774689683
 11
74.217912358896683
 21
283.90918736547792
  0
LINE
  8
_0-0_
  6
CONTINUOUS
 62
    7
 10
53.006162523745843
 20
310.93298051798138
 11
52.482400265011165
 21
320.9269597687753
  0
LINE
  8
_0-1_
  6
CENTER1
 62
  152
 10
43.954824969748188
 20
249.45312774689683
 11
108.95482496974824
 21
249.45312774689683
  0
LINE
  8
_0-0_
  6
CONTINUOUS
 62
    7
 10
293.3245390098603
 20
331.45313174689727
 11
265.64447527918065
 21
331.45313174689727
  0
LINE
  8
_0-0_
  6
CONTINUOUS
 62
    7
 10
262.64858667491745
 20
328.61013961562639
 11
262.2742218072629
 21
321.46683240483344
  0
LINE
  8
_0-0_
  6
CONTINUOUS
 62
    7
 10
262.27631626564681
 20
321.45312774689683
 11
431.29758157903626
 21
321.45312774689683
  0
LINE
  8
_0-0_
  6
CONTINUOUS
 62
    7
 10
431.79758157903626
 20
320.95312774689683
 11
431.79758157903626
 21
303.45313174689727
  0
LINE
  8
_0-0_
  6
CONTINUOUS
 62
    7
 10
429.79758157903626
 20
301.45313174689727
 11
264.69551071246616
 21
301.45313174689727
  0
LINE
  8
_0-0_
  6
CONTINUOUS
 62
    7
 10
262.69825164295736
 20
303.34845983441119
 11
261.77700149827007
 21
320.9269597687753
  0
LINE
  8
_0-0_
  6
CONTINUOUS
 62
    7
 10
294.79758157903717
 20
303.45313174689636
 11
294.79758157903717
 21
319.14313260419385
  0
LINE
  8
_0-0_
  6
CONTINUOUS
 62
    7
 10
294.79758157903717
 20
321.45312774689683
 11
294.3231685446147
 21
330.50546770314031
  0
LINE
  8
_0-1_
  6
PHANTOM1
 62
  152
 10
294.79758157903615
 20
321.45312774689683
 11
294.79758157903615
 21
424.29617790649269
  0
LINE
  8
_0-1_
  6
PHANTOM1
 62
  152
 10
289.26445569580773
 20
425.77877451852351
 11
340.15838285914873
 21
412.14178783545788
  0
LINE
  8
_0-1_
  6
PHANTOM1
 62
  152
 10
334.79758157903615
 20
413.5782102092478
 11
334.79758157903615
 21
321.45312774689683
  0
LINE
  8
_0-1_
  6
DASHED2
 62
  152
 10
309.12523605860252
 20
310.95312774689683
 11
429.79758157903626
 21
310.95312774689683
  0
LINE
  8
_0-0_
  6
CONTINUOUS
 62
    7
 10
411.5799022876123
 20
301.45313174689704
 11
411.79758157903626
 21
300.73090552459706
  0
LINE
  8
_0-0_
  6
CONTINUOUS
 62
    7
 10
411.79758157903626
 20
300.73090552459735
 11
353.79758157903626
 21
300.73090552459735
  0
LINE
  8
_0-0_
  6
CONTINUOUS
 62
    7
 10
353.79758157903626
 20
300.73090552459735
 11
353.79758157903626
 21
298.95312774679724
  0
LINE
  8
_0-0_
  6
CONTINUOUS
 62
    7
 10
353.79758157903626
 20
298.95312774679724
 11
411.79758157903626
 21
298.95312774679724
  0
LINE
  8
_0-0_
  6
CONTINUOUS
 62
    7
 10
411.79758157903626
 20
298.95312774679724
 11
411.79758157903626
 21
300.73090552459735
  0
LINE
  8
_0-0_
  6
CONTINUOUS
 62
    7
 10
410.29758157903626
 20
296.95312774689728
 11
355.29758157903626
 21
296.95312774689728
  0
LINE
  8
_0-0_
  6
CONTINUOUS
 62
    7
 10
353.79758157903626
 20
300.73090552459706
 11
354.01526087046022
 21
301.45313174689704
  0
LINE
  8
_0-0_
  6
CONTINUOUS
 62
    7
 10
349.29758157903626
 20
290.95312774689728
 11
349.29758157903626
 21
257.70312774689728
  0
LINE
  8
_0-0_
  6
CONTINUOUS
 62
    7
 10
349.04758157903626
 20
257.70312774689728
 11
349.79758157903626
 21
257.70312774689728
  0
LINE
  8
_0-0_
  6
CONTINUOUS
 62
    7
 10
349.79758157903626
 20
257.70312774689728
 11
350.69247457903685
 21
259.25312774689746
  0
LINE
  8
_0-0_
  6
CONTINUOUS
 62
    7
 10
350.69247457903685
 20
259.25312774689746
 11
355.54702607903647
 21
259.25312774689746
  0
LINE
  8
_0-0_
  6
CONTINUOUS
 62
    7
 10
355.54702607903647
 20
259.25312774689746
 11
356.29758157903626
 21
257.95312774689728
  0
LINE
  8
_0-0_
  6
CONTINUOUS
 62
    7
 10
355.54702607903647
 20
254.35312774689783
 11
350.69247457903685
 21
254.35312774689783
  0
LINE
  8
_0-0_
  6
CONTINUOUS
 62
    7
 10
348.29758157903626
 20
254.45312774689728
 11
344.99758234197571
 21
254.45312774689728
  0
LINE
  8
_0-0_
  6
CONTINUOUS
 62
    7
 10
344.99758234197571
 20
254.45312774689728
 11
344.99758234197571
 21
244.45312774689728
  0
LINE
  8
_0-0_
  6
CONTINUOUS
 62
    7
 10
344.99758234197571
 20
244.45312774689728
 11
344.29758157903626
 21
245.15312755616242
  0
LINE
  8
_0-0_
  6
CONTINUOUS
 62
    7
 10
344.29758157903626
 20
245.15312755616242
 11
344.29758157903626
 21
253.75312793763214
  0
LINE
  8
_0-0_
  6
CONTINUOUS
 62
    7
 10
344.29758157903626
 20
253.75312793763214
 11
348.29758157903626
 21
253.75312793763214
  0
LINE
  8
_0-0_
  6
CONTINUOUS
 62
    7
 10
348.29758157903626
 20
256.95312774689728
 11
348.29758157903626
 21
241.95312774689728
  0
LINE
  8
_0-0_
  6
CONTINUOUS
 62
    7
 10
349.04758157903626
 20
241.20312774689728
 11
349.79758157903626
 21
241.20312774689728
  0
LINE
  8
_0-0_
  6
CONTINUOUS
 62
    7
 10
349.79758157903626
 20
241.20312774689728
 11
350.69247457903685
 21
239.6531277468971
  0
LINE
  8
_0-0_
  6
CONTINUOUS
 62
    7
 10
350.69247457903685
 20
239.6531277468971
 11
355.54702607903647
 21
239.6531277468971
  0
LINE
  8
_0-0_
  6
CONTINUOUS
 62
    7
 10
355.54702607903647
 20
239.6531277468971
 11
356.29758157903626
 21
240.95312774689728
  0
LINE
  8
_0-0_
  6
CONTINUOUS
 62
    7
 10
355.54702607903647
 20
244.55312774689764
 11
350.69247457903685
 21
244.55312774689764
  0
LINE
  8
_0-0_
  6
CONTINUOUS
 62
    7
 10
348.29758157903626
 20
244.45312774689728
 11
344.99758234197571
 21
244.45312774689728
  0
LINE
  8
_0-0_
  6
CONTINUOUS
 62
    7
 10
344.29758157903626
 20
245.15312755616242
 11
348.29758157903626
 21
245.15312755616242
  0
LINE
  8
_0-1_
  6
CENTER1
 62
  152
 10
344.29758157903626
 20
249.45312774689728
 11
414.29758157903626
 21
249.45312774689728
  0
LINE
  8
_0-0_
  6
CONTINUOUS
 62
    7
 10
416.29758157903626
 20
246.62795103748886
 11
416.29758157903626
 21
290.95312774689728
  0
LINE
  8
_0-0_
  6
CONTINUOUS
 62
    7
 10
406.09758157903644
 20
281.95312774689728
 11
406.09758157903644
 21
280.53158871597998
  0
LINE
  8
_0-0_
  6
CONTINUOUS
 62
    7
 10
406.36553077146738
 20
279.53158871597998
 11
409.02963238660533
 21
274.91722936203496
  0
LINE
  8
_0-0_
  6
CONTINUOUS
 62
    7
 10
409.29758157903626
 20
273.91722936203496
 11
409.29758157903626
 21
233.95312774689728
  0
LINE
  8
_0-0_
  6
CONTINUOUS
 62
    7
 10
409.29758157903626
 20
233.95312774689728
 11
414.3010998686853
 21
240.6326449579592
  0
LINE
  8
_0-0_
  6
CONTINUOUS
 62
    7
 10
410.29758157903626
 20
240.95312774776812
 11
409.29758157903626
 21
240.95312774776812
  0
LINE
  8
_0-0_
  6
CONTINUOUS
 62
    7
 10
410.29758157903626
 20
240.95312774776812
 11
410.29758157903626
 21
257.95312774689728
  0
LINE
  8
_0-0_
  6
CONTINUOUS
 62
    7
 10
410.29758157903626
 20
257.95312774689728
 11
409.29758157903626
 21
257.95312774689728
  0
LINE
  8
_0-0_
  6
CONTINUOUS
 62
    7
 10
406.09758157903644
 20
259.45312774689728
 11
404.39758157903663
 21
259.45312774689728
  0
LINE
  8
_0-0_
  6
CONTINUOUS
 62
    7
 10
404.39758157903663
 20
268.95312774689728
 11
402.79758157903626
 21
270.45312774689728
  0
LINE
  8
_0-0_
  6
CONTINUOUS
 62
    7
 10
404.39758157903663
 20
268.95312774689728
 11
404.39758157903663
 21
229.95312774689728
  0
LINE
  8
_0-0_
  6
CONTINUOUS
 62
    7
 10
404.39758157903663
 20
229.95312774689728
 11
402.79758157903626
 21
228.45312774689728
  0
LINE
  8
_0-0_
  6
CONTINUOUS
 62
    7
 10
402.79758157903626
 20
219.95312774689728
 11
402.79758157903626
 21
278.95312774689728
  0
LINE
  8
_0-0_
  6
CONTINUOUS
 62
    7
 10
404.09758157903644
 20
278.45312774689728
 11
404.09758157903644
 21
282.45295080175583
  0
LINE
  8
_0-0_
  6
CONTINUOUS
 62
    7
 10
399.79758157903626
 20
281.95312774689728
 11
365.79758157903626
 21
281.95312774689728
  0
LINE
  8
_0-0_
  6
CONTINUOUS
 62
    7
 10
361.49758157903608
 20
282.45295080175583
 11
361.49758157903608
 21
278.45312774689728
  0
LINE
  8
_0-0_
  6
CONTINUOUS
 62
    7
 10
361.22963238660515
 20
277.45312774689728
 11
359.76553077146792
 21
274.91722936203496
  0
LINE
  8
_0-0_
  6
CONTINUOUS
 62
    7
 10
359.49758157903608
 20
273.91722936203496
 11
359.49758157903608
 21
233.95312774689728
  0
LINE
  8
_0-0_
  6
CONTINUOUS
 62
    7
 10
359.49758157903608
 20
233.95312774689728
 11
356.29758157903626
 21
233.95312774689728
  0
LINE
  8
_0-0_
  6
CONTINUOUS
 62
    7
 10
356.29758157903626
 20
233.95312774689728
 11
352.02780378674771
 21
239.6531277468971
  0
LINE
  8
_0-0_
  6
CONTINUOUS
 62
    7
 10
359.49758157903608
 20
239.45312774689728
 11
361.19758157903681
 21
239.45312774689728
  0
LINE
  8
_0-0_
  6
CONTINUOUS
 62
    7
 10
361.19758157903681
 20
229.95312774689728
 11
361.19758157903681
 21
268.95312774689728
  0
LINE
  8
_0-0_
  6
CONTINUOUS
 62
    7
 10
361.19758157903681
 20
268.95312774689728
 11
362.79758157903626
 21
270.45312774689728
  0
LINE
  8
_0-0_
  6
CONTINUOUS
 62
    7
 10
362.79758157903626
 20
278.95312774689728
 11
362.79758157903626
 21
219.95312774689728
  0
LINE
  8
_0-0_
  6
CONTINUOUS
 62
    7
 10
365.79758157903626
 20
216.95312774689728
 11
399.79758157903626
 21
216.95312774689728
  0
LINE
  8
_0-1_
  6
CENTER1
 62
  152
 10
382.79758157903626
 20
216.95312774689774
 11
382.79758157903626
 21
321.45312774689774
  0
LINE
  8
_0-0_
  6
CONTINUOUS
 62
    7
 10
359.49758157903608
 20
280.39577312279334
 11
359.49758157903608
 21
279.99569033111766
  0
LINE
  8
_0-0_
  6
CONTINUOUS
 62
    7
 10
359.49758157903608
 20
279.99569033111766
 11
356.56553077146719
 21
274.91722936203496
  0
LINE
  8
_0-0_
  6
CONTINUOUS
 62
    7
 10
356.29758157903626
 20
273.91722936203496
 11
356.29758157903626
 21
233.95312774689728
  0
LINE
  8
_0-0_
  6
CONTINUOUS
 62
    7
 10
361.19758157903681
 20
229.95312774689728
 11
362.79758157903626
 21
228.45312774689728
  0
LINE
  8
ADD_LINE
  6
DOT
 62
  152
 10
357.00468836022293
 20
248.74602096571061
 11
356.29758157903626
 21
249.45312774689728
  0
LINE
  8
ADD_LINE
  6
DOT
 62
  152
 10
356.29758157903626
 20
249.45312774689728
 11
357.00468836022293
 21
250.16023452808395
  0
LINE
  8
_0-0_
  6
CONTINUOUS
 62
    7
 10
359.49758157903608
 20
259.45312774689728
 11
361.19758157903681
 21
259.45312774689728
  0
LINE
  8
_0-0_
  6
CONTINUOUS
 62
    7
 10
344.99758234197571
 20
254.45312774689728
 11
344.29758157903626
 21
253.75312793763214
  0
LINE
  8
_0-0_
  6
CONTINUOUS
 62
    7
 10
404.39758157903663
 20
239.45312774689728
 11
406.09758157903644
 21
239.45312774689728
  0
LINE
  8
_0-0_
  6
CONTINUOUS
 62
    7
 10
406.09758157903644
 20
233.95312774689728
 11
406.09758157903644
 21
273.91722936203496
  0
LINE
  8
_0-0_
  6
CONTINUOUS
 62
    7
 10
405.82963238660551
 20
274.91722936203496
 11
404.36553077146738
 21
277.45312774689728
  0
LINE
  8
_0-0_
  6
CONTINUOUS
 62
    7
 10
406.09758157903644
 20
233.95312774689728
 11
409.29758157903626
 21
233.95312774689728
  0
LINE
  8
_0-0_
  6
CONTINUOUS
 62
    7
 10
428.79758157903626
 20
152.38768130956743
 11
294.79758157903626
 21
152.38768130956743
  0
LINE
  8
_0-0_
  6
CONTINUOUS
 62
    7
 10
294.79758157903626
 20
152.38768130956743
 11
278.30778159745591
 21
135.26339026532844
  0
LINE
  8
_0-1_
  6
CENTER1
 62
  152
 10
280.79758157903626
 20
128.38768130956765
 11
280.79758157903626
 21
92.38768130956754
  0
LINE
  8
_0-0_
  6
CONTINUOUS
 62
    7
 10
278.30778159745574
 20
85.511972353806641
 11
294.79758157903626
 21
68.38768130956754
  0
LINE
  8
_0-0_
  6
CONTINUOUS
 62
    7
 10
294.79758157903626
 20
68.38768130956754
 11
294.79758157903626
 21
18.387681309566631
  0
LINE
  8
_0-0_
  6
CONTINUOUS
 62
    7
 10
297.79758157903626
 20
15.38768130956754
 11
362.79758157903626
 21
15.38768130956754
  0
LINE
  8
_0-0_
  6
CONTINUOUS
 62
    7
 10
362.79758157903626
 20
16.887681309567085
 11
354.29758157903626
 21
16.887681309567085
  0
LINE
  8
_0-0_
  6
CONTINUOUS
 62
    7
 10
356.29758157903626
 20
23.887681309567085
 11
359.49758157903608
 21
23.887681309567085
  0
LINE
  8
_0-0_
  6
CONTINUOUS
 62
    7
 10
359.49758157903608
 20
23.887681309567085
 11
359.49758157903608
 21
54.511953276740712
  0
LINE
  8
_0-0_
  6
CONTINUOUS
 62
    7
 10
356.29758157903626
 20
54.628928227811627
 11
356.29758157903626
 21
23.887681309567085
  0
LINE
  8
_0-0_
  6
CONTINUOUS
 62
    7
 10
355.79758157903626
 20
24.725403649398629
 11
355.79758157903626
 21
30.887681309567085
  0
LINE
  8
_0-0_
  6
CONTINUOUS
 62
    7
 10
355.29758157903626
 20
30.887681309567085
 11
355.29758157903626
 21
47.887681308696244
  0
LINE
  8
_0-0_
  6
CONTINUOUS
 62
    7
 10
355.29758157903626
 20
47.887681308696244
 11
356.29758157903626
 21
47.887681308696244
  0
LINE
  8
_0-0_
  6
CONTINUOUS
 62
    7
 10
359.49758157903608
 20
49.387681309567085
 11
361.1975815790359
 21
49.387681309567085
  0
LINE
  8
_0-0_
  6
CONTINUOUS
 62
    7
 10
361.1975815790359
 20
58.887681309567085
 11
361.1975815790359
 21
19.887681309567085
  0
LINE
  8
_0-0_
  6
CONTINUOUS
 62
    7
 10
361.1975815790359
 20
19.887681309567085
 11
362.79758157903626
 21
18.387681309567085
  0
LINE
  8
_0-0_
  6
CONTINUOUS
 62
    7
 10
362.79758157903626
 20
9.8876813095670855
 11
362.79758157903626
 21
68.887681309567085
  0
LINE
  8
_0-0_
  6
CONTINUOUS
 62
    7
 10
365.79758157903626
 20
71.887681309567085
 11
399.79758157903626
 21
71.887681309567085
  0
LINE
  8
_0-0_
  6
CONTINUOUS
 62
    7
 10
402.79758157903626
 20
68.887681309567085
 11
402.79758157903626
 21
9.8876813095670855
  0
LINE
  8
_0-0_
  6
CONTINUOUS
 62
    7
 10
402.79758157903626
 20
15.38768130956754
 11
413.55494089191717
 21
15.38768130956754
  0
LINE
  8
_0-0_
  6
CONTINUOUS
 62
    7
 10
415.67626123547626
 20
16.266360966007539
 11
430.91890192259626
 21
31.509001653126631
  0
LINE
  8
_0-0_
  6
CONTINUOUS
 62
    7
 10
431.79758157903626
 20
33.630321996686632
 11
431.79758157903626
 21
149.38768130956743
  0
LINE
  8
_0-0_
  6
CONTINUOUS
 62
    7
 10
428.79758157903626
 20
142.38768130956743
 11
334.04022226615535
 21
142.38768130956743
  0
LINE
  8
_0-0_
  6
CONTINUOUS
 62
    7
 10
331.91890192259626
 20
141.50900165312652
 11
305.37496131614967
 21
114.96506104667992
  0
LINE
  8
_0-0_
  6
CONTINUOUS
 62
    7
 10
304.79758157903626
 20
103.38768130956754
 11
304.79758157903626
 21
18.387681309566631
  0
LINE
  8
_0-1_
  6
CENTER1
 62
  152
 10
307.97361260478266
 20
23.38768130956754
 11
321.71222126091135
 21
23.38768130956754
  0
LINE
  8
_0-0_
  6
CONTINUOUS
 62
   56
 10
317.29758157903626
 20
21.944305602894872
 11
317.29758157903626
 21
24.831057016240209
  0
LINE
  8
_0-0_
  6
CONTINUOUS
 62
   56
 10
317.29758157903626
 20
24.831057016240209
 11
314.79758157903626
 21
26.274432722912877
  0
LINE
  8
_0-0_
  6
CONTINUOUS
 62
   56
 10
314.79758157903626
 20
26.274432722912877
 11
312.29758157903626
 21
24.831057016240209
  0
LINE
  8
_0-0_
  6
CONTINUOUS
 62
   56
 10
312.29758157903626
 20
24.831057016240209
 11
312.29758157903626
 21
21.944305602894872
  0
LINE
  8
_0-0_
  6
CONTINUOUS
 62
   56
 10
312.29758157903626
 20
21.944305602894872
 11
314.79758157903626
 21
20.500929896222203
  0
LINE
  8
_0-0_
  6
CONTINUOUS
 62
   56
 10
314.79758157903626
 20
20.500929896222203
 11
317.29758157903626
 21
21.944305602894872
  0
LINE
  8
_0-1_
  6
CENTER1
 62
  152
 10
314.79758157903626
 20
13.88768130956754
 11
314.79758157903626
 21
88.539408229112212
  0
LINE
  8
_0-0_
  6
CONTINUOUS
 62
   56
 10
314.79758157903626
 20
86.274432722912877
 11
317.29758157903626
 21
84.831057016240209
  0
LINE
  8
_0-0_
  6
CONTINUOUS
 62
   56
 10
317.29758157903626
 20
84.831057016240209
 11
317.29758157903626
 21
81.944305602894872
  0
LINE
  8
_0-0_
  6
CONTINUOUS
 62
   56
 10
317.29758157903626
 20
81.944305602894872
 11
314.79758157903626
 21
80.500929896222203
  0
LINE
  8
_0-0_
  6
CONTINUOUS
 62
   56
 10
314.79758157903626
 20
80.500929896222203
 11
312.29758157903626
 21
81.944305602894872
  0
LINE
  8
_0-0_
  6
CONTINUOUS
 62
   56
 10
312.29758157903626
 20
81.944305602894872
 11
312.29758157903626
 21
84.831057016240209
  0
LINE
  8
_0-0_
  6
CONTINUOUS
 62
   56
 10
312.29758157903626
 20
84.831057016240209
 11
314.79758157903626
 21
86.274432722912877
  0
LINE
  8
_0-1_
  6
CENTER1
 62
  152
 10
308.34149958378413
 20
83.38768130956754
 11
321.71222126091135
 21
83.38768130956754
  0
LINE
  8
_0-1_
  6
CENTER1
 62
  152
 10
321.71222126091135
 20
63.387681309566631
 11
308.34149958378413
 21
63.387681309566631
  0
LINE
  8
_0-1_
  6
CENTER1
 62
  152
 10
338.32596600609969
 20
64.38768130956754
 11
351.97206097869395
 21
64.38768130956754
  0
LINE
  8
_0-1_
  6
CENTER1
 62
  152
 10
346.02802895733595
 20
56.135241006376361
 11
346.02802895733595
 21
72.674947733908027
  0
LINE
  8
_0-1_
  6
CENTER1
 62
  152
 10
346.29758157903626
 20
78.635241006376361
 11
346.29758157903626
 21
95.174947733908027
  0
LINE
  8
_0-0_
  6
CONTINUOUS
 62
    7
 10
353.79758157903626
 20
97.13490444837629
 11
353.79758157903626
 21
104.64045817075788
  0
LINE
  8
_0-0_
  6
CONTINUOUS
 62
    7
 10
353.79758157903626
 20
104.64045817075788
 11
360.29758157903626
 21
108.39323503194868
  0
LINE
  8
_0-0_
  6
CONTINUOUS
 62
    7
 10
360.29758157903626
 20
108.39323503194868
 11
366.79758157903626
 21
104.64045817075788
  0
LINE
  8
_0-0_
  6
CONTINUOUS
 62
    7
 10
366.79758157903626
 20
104.64045817075788
 11
366.79758157903626
 21
100.69044648419771
  0
LINE
  8
_0-1_
  6
CENTER1
 62
  152
 10
368.21943622444479
 20
100.88768130956709
 11
352.5955186278
 21
100.88768130956709
  0
LINE
  8
_0-0_
  6
CONTINUOUS
 62
    7
 10
353.79758157903626
 20
97.13490444837629
 11
358.85877126919269
 21
94.212825131558418
  0
LINE
  8
_0-1_
  6
CENTER1
 62
  152
 10
360.29758157903626
 20
90.614279329200542
 11
360.29758157903626
 21
109.17494773390803
  0
LINE
  8
_0-0_
  6
CONTINUOUS
 62
    7
 10
354.29758157903626
 20
111.88768130956709
 11
411.29758157903626
 21
111.88768130956709
  0
LINE
  8
_0-0_
  6
CONTINUOUS
 62
    7
 10
411.79758157903626
 20
104.64045817075788
 11
411.79758157903626
 21
97.13490444837629
  0
LINE
  8
_0-0_
  6
CONTINUOUS
 62
    7
 10
411.79758157903626
 20
97.13490444837629
 11
406.73639188887984
 21
94.212825131558418
  0
LINE
  8
_0-1_
  6
CENTER1
 62
  152
 10
405.29758157903626
 20
90.614279329200542
 11
405.29758157903626
 21
109.17494773390803
  0
LINE
  8
_0-0_
  6
CONTINUOUS
 62
    7
 10
405.29758157903626
 20
108.39323503194868
 11
411.79758157903626
 21
104.64045817075788
  0
LINE
  8
_0-1_
  6
CENTER1
 62
  152
 10
413.21943622444479
 20
100.88768130956709
 11
397.5955186278
 21
100.88768130956709
  0
LINE
  8
_0-0_
  6
CONTINUOUS
 62
    7
 10
398.79758157903626
 20
100.69044648419771
 11
398.79758157903626
 21
104.64045817075788
  0
LINE
  8
_0-0_
  6
CONTINUOUS
 62
    7
 10
398.79758157903626
 20
104.64045817075788
 11
405.29758157903626
 21
108.39323503194868
  0
LINE
  8
_0-0_
  6
CONTINUOUS
 62
    7
 10
416.29758157903626
 20
106.88768130956709
 11
416.29758157903626
 21
21.887681309567085
  0
LINE
  8
_0-0_
  6
CONTINUOUS
 62
    7
 10
409.29758157903626
 20
23.887681309567085
 11
406.09758157903553
 21
23.887681309567085
  0
LINE
  8
_0-0_
  6
CONTINUOUS
 62
    7
 10
406.09758157903553
 20
23.887681309567085
 11
406.09758157903553
 21
54.511953276740712
  0
LINE
  8
_0-0_
  6
CONTINUOUS
 62
    7
 10
409.29758157903626
 20
54.628928227811627
 11
409.29758157903626
 21
23.887681309567085
  0
LINE
  8
_0-0_
  6
CONTINUOUS
 62
    7
 10
409.79758157903626
 20
24.725403649398629
 11
409.79758157903626
 21
30.021656078921239
  0
LINE
  8
_0-0_
  6
CONTINUOUS
 62
    7
 10
410.04813707903605
 20
29.587681309566904
 11
409.29758157903626
 21
30.887681309567085
  0
LINE
  8
_0-0_
  6
CONTINUOUS
 62
    7
 10
410.04813707903605
 20
29.587681309566904
 11
414.90268857903567
 21
29.587681309566904
  0
LINE
  8
_0-0_
  6
CONTINUOUS
 62
    7
 10
414.90268857903567
 20
29.587681309566904
 11
415.79758157903626
 21
31.137681309567085
  0
LINE
  8
_0-0_
  6
CONTINUOUS
 62
    7
 10
415.79758157903626
 20
31.137681309567085
 11
416.54758157903626
 21
31.137681309567085
  0
LINE
  8
_0-0_
  6
CONTINUOUS
 62
    7
 10
417.29758157903626
 20
31.887681309567085
 11
417.29758157903626
 21
46.887681309567085
  0
LINE
  8
_0-0_
  6
CONTINUOUS
 62
    7
 10
416.54758157903626
 20
47.637681309567085
 11
415.79758157903626
 21
47.637681309567085
  0
LINE
  8
_0-0_
  6
CONTINUOUS
 62
    7
 10
415.79758157903626
 20
47.637681309567085
 11
414.90268857903567
 21
49.187681309567267
  0
LINE
  8
_0-0_
  6
CONTINUOUS
 62
    7
 10
414.90268857903567
 20
49.187681309567267
 11
410.04813707903605
 21
49.187681309567267
  0
LINE
  8
_0-0_
  6
CONTINUOUS
 62
    7
 10
410.04813707903605
 20
49.187681309567267
 11
409.29758157903626
 21
47.887681309567085
  0
LINE
  8
_0-0_
  6
CONTINUOUS
 62
    7
 10
410.04813707903605
 20
44.287681309566722
 11
414.90268857903567
 21
44.287681309566722
  0
LINE
  8
_0-0_
  6
CONTINUOUS
 62
    7
 10
417.29758157903626
 20
44.387681309567085
 11
420.59758081609681
 21
44.387681309567085
  0
LINE
  8
_0-0_
  6
CONTINUOUS
 62
    7
 10
420.59758081609681
 20
44.387681309567085
 11
420.59758081609681
 21
34.387681309567085
  0
LINE
  8
_0-0_
  6
CONTINUOUS
 62
    7
 10
420.59758081609681
 20
34.387681309567085
 11
417.29758157903626
 21
34.387681309567085
  0
LINE
  8
_0-0_
  6
CONTINUOUS
 62
    7
 10
417.29758157903626
 20
35.087681118832222
 11
421.29758157903626
 21
35.087681118832222
  0
LINE
  8
_0-0_
  6
CONTINUOUS
 62
    7
 10
421.29758157903626
 20
35.087681118832222
 11
421.29758157903626
 21
43.687681500301949
  0
LINE
  8
_0-0_
  6
CONTINUOUS
 62
    7
 10
421.29758157903626
 20
43.687681500301949
 11
420.59758081609681
 21
44.387681309567085
  0
LINE
  8
_0-0_
  6
CONTINUOUS
 62
    7
 10
421.29758157903626
 20
43.687681500301949
 11
417.29758157903626
 21
43.687681500301949
  0
LINE
  8
_0-1_
  6
CENTER1
 62
  152
 10
415.66131304601396
 20
41.88768130956754
 11
427.21943622444388
 21
41.88768130956754
  0
LINE
  8
_0-0_
  6
CONTINUOUS
 62
    7
 10
421.29758157903626
 20
35.087681118832222
 11
420.59758081609681
 21
34.387681309567085
  0
LINE
  8
_0-1_
  6
CENTER1
 62
  152
 10
419.29758157903626
 20
33.635241006376361
 11
419.29758157903626
 21
50.174947733908027
  0
LINE
  8
_0-1_
  6
CENTER1
 62
  152
 10
419.56713420073658
 20
56.135241006376361
 11
419.56713420073658
 21
72.674947733908027
  0
LINE
  8
_0-1_
  6
CENTER1
 62
  152
 10
419.29758157903626
 20
78.635241006376361
 11
419.29758157903626
 21
95.174947733908027
  0
LINE
  8
_0-1_
  6
CENTER1
 62
  152
 10
411.61616189956686
 20
86.88768130956754
 11
427.21943622444388
 21
86.88768130956754
  0
LINE
  8
_0-1_
  6
CENTER1
 62
  152
 10
427.4889888461442
 20
64.38768130956754
 11
413.62310217937767
 21
64.38768130956754
  0
LINE
  8
_0-0_
  6
CONTINUOUS
 62
    7
 10
404.39758157903572
 20
58.887681309567085
 11
404.39758157903572
 21
19.887681309567085
  0
LINE
  8
_0-0_
  6
CONTINUOUS
 62
    7
 10
404.39758157903572
 20
19.887681309567085
 11
402.79758157903626
 21
18.387681309567085
  0
LINE
  8
_0-0_
  6
CONTINUOUS
 62
    7
 10
402.79758157903626
 20
16.887681309567085
 11
411.29758157903626
 21
16.887681309567085
  0
LINE
  8
_0-1_
  6
CENTER1
 62
  152
 10
405.29758157903626
 20
19.635241006376361
 11
405.29758157903626
 21
35.531745037023427
  0
LINE
  8
_0-0_
  6
CONTINUOUS
 62
    7
 10
410.04813707903605
 20
34.48768130956654
 11
414.90268857903567
 21
34.48768130956654
  0
LINE
  8
ADD_LINE
  6
DOT
 62
  152
 10
408.59047479784959
 20
38.680574528380419
 11
409.29758157903626
 21
39.387681309567085
  0
LINE
  8
ADD_LINE
  6
DOT
 62
  152
 10
409.29758157903626
 20
39.387681309567085
 11
408.59047479784959
 21
40.094788090753752
  0
LINE
  8
_0-1_
  6
CENTER1
 62
  152
 10
401.71772674409505
 20
41.88768130956754
 11
364.19986935061416
 21
41.88768130956754
  0
LINE
  8
_0-1_
  6
CENTER1
 62
  152
 10
351.5846016596127
 20
41.88768130956754
 11
338.5955186278
 21
41.88768130956754
  0
LINE
  8
_0-1_
  6
CENTER1
 62
  152
 10
346.29758157903626
 20
33.635241006376361
 11
346.29758157903626
 21
50.174947733908027
  0
LINE
  8
_0-0_
  6
CONTINUOUS
 62
    7
 10
361.1975815790359
 20
58.887681309567085
 11
362.79758157903626
 21
60.387681309567085
  0
LINE
  8
_0-1_
  6
CENTER1
 62
  152
 10
382.79758157903626
 20
64.409674229567315
 11
382.79758157903626
 21
19.365688384676048
  0
LINE
  8
_0-0_
  6
CONTINUOUS
 62
    7
 10
365.79758157903626
 20
6.8876813095670855
 11
399.79758157903626
 21
6.8876813095670855
  0
LINE
  8
_0-0_
  6
CONTINUOUS
 62
    7
 10
404.39758157903572
 20
29.387681309567085
 11
406.09758157903553
 21
29.387681309567085
  0
LINE
  8
_0-0_
  6
CONTINUOUS
 62
    7
 10
406.09758157903553
 20
49.387681309567085
 11
404.39758157903572
 21
49.387681309567085
  0
LINE
  8
_0-0_
  6
CONTINUOUS
 62
    7
 10
404.39758157903572
 20
58.887681309567085
 11
402.79758157903626
 21
60.387681309567085
  0
LINE
  8
_0-0_
  6
CONTINUOUS
 62
    7
 10
361.1975815790359
 20
29.387681309567085
 11
359.49758157903608
 21
29.387681309567085
  0
LINE
  8
_0-0_
  6
CONTINUOUS
 62
    7
 10
356.29758157903626
 20
30.887681309567085
 11
355.29758157903626
 21
30.887681309567085
  0
LINE
  8
_0-0_
  6
CONTINUOUS
 62
    7
 10
349.29758157903626
 20
21.88768130956754
 11
349.29758157903626
 21
106.88768130956709
  0
LINE
  8
_0-1_
  6
CENTER1
 62
  152
 10
353.97900125850566
 20
86.88768130956754
 11
338.5955186278
 21
86.88768130956754
  0
LINE
  8
_0-1_
  6
CENTER1
 62
  152
 10
363.79758157903626
 20
125.47304162769257
 11
363.79758157903626
 21
138.84376330481956
  0
LINE
  8
_0-0_
  6
CONTINUOUS
 62
   56
 10
363.79758157903626
 20
135.27443272291231
 11
366.29758157903626
 21
133.83105701623964
  0
LINE
  8
_0-0_
  6
CONTINUOUS
 62
   56
 10
366.29758157903626
 20
133.83105701623964
 11
366.29758157903626
 21
130.9443056028943
  0
LINE
  8
_0-0_
  6
CONTINUOUS
 62
   56
 10
366.29758157903626
 20
130.9443056028943
 11
363.79758157903626
 21
129.50092989622163
  0
LINE
  8
_0-0_
  6
CONTINUOUS
 62
   56
 10
363.79758157903626
 20
129.50092989622163
 11
361.29758157903626
 21
130.9443056028943
  0
LINE
  8
_0-0_
  6
CONTINUOUS
 62
   56
 10
361.29758157903626
 20
130.9443056028943
 11
361.29758157903626
 21
133.83105701623964
  0
LINE
  8
_0-0_
  6
CONTINUOUS
 62
   56
 10
361.29758157903626
 20
133.83105701623964
 11
363.79758157903626
 21
135.27443272291231
  0
LINE
  8
_0-1_
  6
CENTER1
 62
  152
 10
357.19536449571416
 20
132.38768130956697
 11
434.79233461654559
 21
132.38768130956697
  0
LINE
  8
_0-0_
  6
CONTINUOUS
 62
   56
 10
426.29758157903626
 20
130.9443056028943
 11
426.29758157903626
 21
133.83105701623964
  0
LINE
  8
_0-0_
  6
CONTINUOUS
 62
   56
 10
426.29758157903626
 20
133.83105701623964
 11
423.79758157903626
 21
135.27443272291231
  0
LINE
  8
_0-0_
  6
CONTINUOUS
 62
   56
 10
423.79758157903626
 20
135.27443272291231
 11
421.29758157903626
 21
133.83105701623964
  0
LINE
  8
_0-0_
  6
CONTINUOUS
 62
   56
 10
421.29758157903626
 20
133.83105701623964
 11
421.29758157903626
 21
130.9443056028943
  0
LINE
  8
_0-0_
  6
CONTINUOUS
 62
   56
 10
421.29758157903626
 20
130.9443056028943
 11
423.79758157903626
 21
129.50092989622163
  0
LINE
  8
_0-0_
  6
CONTINUOUS
 62
   56
 10
423.79758157903626
 20
129.50092989622163
 11
426.29758157903626
 21
130.9443056028943
  0
LINE
  8
_0-1_
  6
CENTER1
 62
  152
 10
423.79758157903626
 20
125.47304162769257
 11
423.79758157903626
 21
138.84376330481956
  0
LINE
  8
_0-1_
  6
CENTER1
 62
  152
 10
383.79758157903626
 20
138.84376330481956
 11
383.79758157903626
 21
125.47304162769257
  0
LINE
  8
_0-1_
  6
CENTER1
 62
  152
 10
296.48393359086759
 20
110.38768130956754
 11
265.11122956903574
 21
110.38768130956754
  0
LINE
  8
_0-1_
  6
DASHED2
 62
  152
 10
306.82876316769426
 20
303.34845983441119
 11
307.12797698909282
 21
309.05779965938291
  0
LINE
  8
_0-1_
  6
PHANTOM1
 62
  152
 10
294.79758157903615
 20
321.45312774689683
 11
453.49593160401565
 21
321.45312774689683
  0
LINE
  8
_0-1_
  6
PHANTOM1
 62
  152
 10
454.96167018268773
 20
315.98291690067879
 11
441.62908052379771
 21
365.74081890412384
  0
LINE
  8
_0-1_
  6
PHANTOM1
 62
  152
 10
442.77796390677071
 20
361.45312774689705
 11
334.79758157903615
 21
361.45312774689705
  0
LINE
  8
_0-0_
  6
CONTINUOUS
 62
    7
 10
484.94799087903618
 20
321.45312774689683
 11
484.94799087903618
 21
424.29617790649269
  0
LINE
  8
_0-1_
  6
PHANTOM1
 62
  152
 10
528.26690123427466
 20
365.74081890412384
 11
514.93431157538475
 21
315.98291690067879
  0
LINE
  8
_0-1_
  6
PHANTOM1
 62
  152
 10
516.40005015405677
 20
321.45312774689683
 11
675.09840017903616
 21
321.45312774689683
  0
LINE
  8
_0-1_
  6
PHANTOM1
 62
  152
 10
675.09840017903616
 20
321.45312774689683
 11
675.09840017903616
 21
424.29617790649269
  0
LINE
  8
_0-1_
  6
PHANTOM1
 62
  152
 10
680.63152606226458
 20
425.77877451852351
 11
629.73759889892358
 21
412.14178783545788
  0
LINE
  8
_0-1_
  6
PHANTOM1
 62
  152
 10
635.09840017903616
 20
413.5782102092478
 11
635.09840017903616
 21
321.45312774689683
  0
LINE
  8
_0-1_
  6
DASHED2
 62
  152
 10
660.7707456994699
 20
310.95312774689683
 11
540.09840017903616
 21
310.95312774689683
  0
LINE
  8
_0-0_
  6
CONTINUOUS
 62
    7
 10
540.09840017903616
 20
301.45313174689727
 11
705.20047104560626
 21
301.45313174689727
  0
LINE
  8
_0-0_
  6
CONTINUOUS
 62
    7
 10
707.19773011511506
 20
303.34845983441119
 11
708.11898025980236
 21
320.9269597687753
  0
LINE
  8
_0-0_
  6
CONTINUOUS
 62
    7
 10
707.61966549242561
 20
321.45312774689683
 11
538.59840017903616
 21
321.45312774689683
  0
LINE
  8
_0-0_
  6
CONTINUOUS
 62
    7
 10
538.09840017903616
 20
320.95312774689683
 11
538.09840017903616
 21
303.45313174689727
  0
LINE
  8
_0-0_
  6
CONTINUOUS
 62
    7
 10
558.31607947046018
 20
301.45313174689704
 11
558.09840017903616
 21
300.73090552459706
  0
LINE
  8
_0-0_
  6
CONTINUOUS
 62
    7
 10
558.09840017903616
 20
300.73090552459735
 11
616.09840017903616
 21
300.73090552459735
  0
LINE
  8
_0-0_
  6
CONTINUOUS
 62
    7
 10
616.09840017903616
 20
300.73090552459735
 11
616.09840017903616
 21
298.95312774679724
  0
LINE
  8
_0-0_
  6
CONTINUOUS
 62
    7
 10
616.09840017903616
 20
298.95312774679724
 11
558.09840017903616
 21
298.95312774679724
  0
LINE
  8
_0-0_
  6
CONTINUOUS
 62
    7
 10
558.09840017903616
 20
298.95312774679724
 11
558.09840017903616
 21
300.73090552459735
  0
LINE
  8
_0-0_
  6
CONTINUOUS
 62
    7
 10
559.59840017903616
 20
296.95312774689728
 11
614.59840017903616
 21
296.95312774689728
  0
LINE
  8
_0-0_
  6
CONTINUOUS
 62
    7
 10
616.09840017903616
 20
300.73090552459706
 11
615.88072088761214
 21
301.45313174689704
  0
LINE
  8
_0-0_
  6
CONTINUOUS
 62
    7
 10
620.59840017903616
 20
290.95312774689728
 11
620.59840017903616
 21
257.70312774689728
  0
LINE
  8
_0-0_
  6
CONTINUOUS
 62
    7
 10
620.84840017903616
 20
257.70312774689728
 11
620.09840017903616
 21
257.70312774689728
  0
LINE
  8
_0-0_
  6
CONTINUOUS
 62
    7
 10
620.09840017903616
 20
257.70312774689728
 11
619.20350717903557
 21
259.25312774689746
  0
LINE
  8
_0-0_
  6
CONTINUOUS
 62
    7
 10
619.20350717903557
 20
259.25312774689746
 11
614.34895567903595
 21
259.25312774689746
  0
LINE
  8
_0-0_
  6
CONTINUOUS
 62
    7
 10
614.34895567903595
 20
259.25312774689746
 11
613.59840017903616
 21
257.95312774689728
  0
LINE
  8
_0-0_
  6
CONTINUOUS
 62
    7
 10
614.34895567903595
 20
254.35312774689783
 11
619.20350717903557
 21
254.35312774689783
  0
LINE
  8
_0-0_
  6
CONTINUOUS
 62
    7
 10
621.59840017903616
 20
254.45312774689728
 11
624.89839941609671
 21
254.45312774689728
  0
LINE
  8
_0-0_
  6
CONTINUOUS
 62
    7
 10
624.89839941609671
 20
254.45312774689728
 11
624.89839941609671
 21
244.45312774689728
  0
LINE
  8
_0-0_
  6
CONTINUOUS
 62
    7
 10
624.89839941609671
 20
244.45312774689728
 11
625.59840017903616
 21
245.15312755616242
  0
LINE
  8
_0-0_
  6
CONTINUOUS
 62
    7
 10
625.59840017903616
 20
245.15312755616242
 11
625.59840017903616
 21
253.75312793763214
  0
LINE
  8
_0-0_
  6
CONTINUOUS
 62
    7
 10
625.59840017903616
 20
253.75312793763214
 11
621.59840017903616
 21
253.75312793763214
  0
LINE
  8
_0-0_
  6
CONTINUOUS
 62
    7
 10
621.59840017903616
 20
256.95312774689728
 11
621.59840017903616
 21
241.95312774689728
  0
LINE
  8
_0-0_
  6
CONTINUOUS
 62
    7
 10
620.84840017903616
 20
241.20312774689728
 11
620.09840017903616
 21
241.20312774689728
  0
LINE
  8
_0-0_
  6
CONTINUOUS
 62
    7
 10
620.09840017903616
 20
241.20312774689728
 11
619.20350717903557
 21
239.6531277468971
  0
LINE
  8
_0-0_
  6
CONTINUOUS
 62
    7
 10
619.20350717903557
 20
239.6531277468971
 11
614.34895567903595
 21
239.6531277468971
  0
LINE
  8
_0-0_
  6
CONTINUOUS
 62
    7
 10
614.34895567903595
 20
239.6531277468971
 11
613.59840017903616
 21
240.95312774689728
  0
LINE
  8
_0-0_
  6
CONTINUOUS
 62
    7
 10
614.34895567903595
 20
244.55312774689764
 11
619.20350717903557
 21
244.55312774689764
  0
LINE
  8
_0-0_
  6
CONTINUOUS
 62
    7
 10
621.59840017903616
 20
244.45312774689728
 11
624.89839941609671
 21
244.45312774689728
  0
LINE
  8
_0-0_
  6
CONTINUOUS
 62
    7
 10
625.59840017903616
 20
245.15312755616242
 11
621.59840017903616
 21
245.15312755616242
  0
LINE
  8
_0-1_
  6
CENTER1
 62
  152
 10
625.59840017903616
 20
249.45312774689728
 11
555.59840017903616
 21
249.45312774689728
  0
LINE
  8
_0-0_
  6
CONTINUOUS
 62
    7
 10
553.59840017903616
 20
246.62795103748886
 11
553.59840017903616
 21
290.95312774689728
  0
LINE
  8
_0-0_
  6
CONTINUOUS
 62
    7
 10
563.79840017903598
 20
281.95312774689728
 11
563.79840017903598
 21
280.53158871597998
  0
LINE
  8
_0-0_
  6
CONTINUOUS
 62
    7
 10
563.53045098660505
 20
279.53158871597998
 11
560.86634937146709
 21
274.91722936203496
  0
LINE
  8
_0-0_
  6
CONTINUOUS
 62
    7
 10
560.59840017903616
 20
273.91722936203496
 11
560.59840017903616
 21
233.95312774689728
  0
LINE
  8
_0-0_
  6
CONTINUOUS
 62
    7
 10
560.59840017903616
 20
233.95312774689728
 11
555.59488188938712
 21
240.6326449579592
  0
LINE
  8
_0-0_
  6
CONTINUOUS
 62
    7
 10
559.59840017903616
 20
240.95312774776812
 11
560.59840017903616
 21
240.95312774776812
  0
LINE
  8
_0-0_
  6
CONTINUOUS
 62
    7
 10
559.59840017903616
 20
240.95312774776812
 11
559.59840017903616
 21
257.95312774689728
  0
LINE
  8
_0-0_
  6
CONTINUOUS
 62
    7
 10
559.59840017903616
 20
257.95312774689728
 11
560.59840017903616
 21
257.95312774689728
  0
LINE
  8
_0-0_
  6
CONTINUOUS
 62
    7
 10
563.79840017903598
 20
259.45312774689728
 11
565.4984001790358
 21
259.45312774689728
  0
LINE
  8
_0-0_
  6
CONTINUOUS
 62
    7
 10
565.4984001790358
 20
268.95312774689728
 11
567.09840017903616
 21
270.45312774689728
  0
LINE
  8
_0-0_
  6
CONTINUOUS
 62
    7
 10
565.4984001790358
 20
268.95312774689728
 11
565.4984001790358
 21
229.95312774689728
  0
LINE
  8
_0-0_
  6
CONTINUOUS
 62
    7
 10
565.4984001790358
 20
229.95312774689728
 11
567.09840017903616
 21
228.45312774689728
  0
LINE
  8
_0-0_
  6
CONTINUOUS
 62
    7
 10
567.09840017903616
 20
219.95312774689728
 11
567.09840017903616
 21
278.95312774689728
  0
LINE
  8
_0-0_
  6
CONTINUOUS
 62
    7
 10
565.79840017903598
 20
278.45312774689728
 11
565.79840017903598
 21
282.45295080175583
  0
LINE
  8
_0-0_
  6
CONTINUOUS
 62
    7
 10
570.09840017903616
 20
281.95312774689728
 11
604.09840017903616
 21
281.95312774689728
  0
LINE
  8
_0-0_
  6
CONTINUOUS
 62
    7
 10
608.39840017903634
 20
282.45295080175583
 11
608.39840017903634
 21
278.45312774689728
  0
LINE
  8
_0-0_
  6
CONTINUOUS
 62
    7
 10
608.66634937146728
 20
277.45312774689728
 11
610.1304509866045
 21
274.91722936203496
  0
LINE
  8
_0-0_
  6
CONTINUOUS
 62
    7
 10
610.39840017903634
 20
273.91722936203496
 11
610.39840017903634
 21
233.95312774689728
  0
LINE
  8
_0-0_
  6
CONTINUOUS
 62
    7
 10
610.39840017903634
 20
233.95312774689728
 11
613.59840017903616
 21
233.95312774689728
  0
LINE
  8
_0-0_
  6
CONTINUOUS
 62
    7
 10
613.59840017903616
 20
233.95312774689728
 11
617.86817797132471
 21
239.6531277468971
  0
LINE
  8
_0-0_
  6
CONTINUOUS
 62
    7
 10
610.39840017903634
 20
239.45312774689728
 11
608.69840017903562
 21
239.45312774689728
  0
LINE
  8
_0-0_
  6
CONTINUOUS
 62
    7
 10
608.69840017903562
 20
229.95312774689728
 11
608.69840017903562
 21
268.95312774689728
  0
LINE
  8
_0-0_
  6
CONTINUOUS
 62
    7
 10
608.69840017903562
 20
268.95312774689728
 11
607.09840017903616
 21
270.45312774689728
  0
LINE
  8
_0-0_
  6
CONTINUOUS
 62
    7
 10
607.09840017903616
 20
278.95312774689728
 11
607.09840017903616
 21
219.95312774689728
  0
LINE
  8
_0-0_
  6
CONTINUOUS
 62
    7
 10
604.09840017903616
 20
216.95312774689728
 11
570.09840017903616
 21
216.95312774689728
  0
LINE
  8
_0-1_
  6
CENTER1
 62
  152
 10
587.09840017903616
 20
216.95312774689774
 11
587.09840017903616
 21
321.45312774689774
  0
LINE
  8
_0-0_
  6
CONTINUOUS
 62
    7
 10
610.39840017903634
 20
280.39577312279334
 11
610.39840017903634
 21
279.99569033111766
  0
LINE
  8
_0-0_
  6
CONTINUOUS
 62
    7
 10
610.39840017903634
 20
279.99569033111766
 11
613.33045098660523
 21
274.91722936203496
  0
LINE
  8
_0-0_
  6
CONTINUOUS
 62
    7
 10
613.59840017903616
 20
273.91722936203496
 11
613.59840017903616
 21
233.95312774689728
  0
LINE
  8
_0-0_
  6
CONTINUOUS
 62
    7
 10
608.69840017903562
 20
229.95312774689728
 11
607.09840017903616
 21
228.45312774689728
  0
LINE
  8
ADD_LINE
  6
DOT
 62
  152
 10
612.89129339784949
 20
248.74602096571061
 11
613.59840017903616
 21
249.45312774689728
  0
LINE
  8
ADD_LINE
  6
DOT
 62
  152
 10
613.59840017903616
 20
249.45312774689728
 11
612.89129339784949
 21
250.16023452808395
  0
LINE
  8
_0-0_
  6
CONTINUOUS
 62
    7
 10
610.39840017903634
 20
259.45312774689728
 11
608.69840017903562
 21
259.45312774689728
  0
LINE
  8
_0-0_
  6
CONTINUOUS
 62
    7
 10
624.89839941609671
 20
254.45312774689728
 11
625.59840017903616
 21
253.75312793763214
  0
LINE
  8
_0-0_
  6
CONTINUOUS
 62
    7
 10
565.4984001790358
 20
239.45312774689728
 11
563.79840017903598
 21
239.45312774689728
  0
LINE
  8
_0-0_
  6
CONTINUOUS
 62
    7
 10
563.79840017903598
 20
233.95312774689728
 11
563.79840017903598
 21
273.91722936203496
  0
LINE
  8
_0-0_
  6
CONTINUOUS
 62
    7
 10
564.06634937146691
 20
274.91722936203496
 11
565.53045098660505
 21
277.45312774689728
  0
LINE
  8
_0-0_
  6
CONTINUOUS
 62
    7
 10
563.79840017903598
 20
233.95312774689728
 11
560.59840017903616
 21
233.95312774689728
  0
LINE
  8
_0-0_
  6
CONTINUOUS
 62
    7
 10
541.09840017903616
 20
152.38768130956743
 11
675.09840017903616
 21
152.38768130956743
  0
LINE
  8
_0-0_
  6
CONTINUOUS
 62
    7
 10
675.09840017903616
 20
152.38768130956743
 11
691.58820016061645
 21
135.26339026532844
  0
LINE
  8
_0-1_
  6
CENTER1
 62
  152
 10
689.09840017903616
 20
128.38768130956765
 11
689.09840017903616
 21
92.38768130956754
  0
LINE
  8
_0-0_
  6
CONTINUOUS
 62
    7
 10
691.58820016061657
 20
85.511972353806641
 11
675.09840017903616
 21
68.38768130956754
  0
LINE
  8
_0-0_
  6
CONTINUOUS
 62
    7
 10
675.09840017903616
 20
68.38768130956754
 11
675.09840017903616
 21
18.387681309566631
  0
LINE
  8
_0-0_
  6
CONTINUOUS
 62
    7
 10
672.09840017903616
 20
15.38768130956754
 11
607.09840017903616
 21
15.38768130956754
  0
LINE
  8
_0-0_
  6
CONTINUOUS
 62
    7
 10
607.09840017903616
 20
16.887681309567085
 11
615.59840017903616
 21
16.887681309567085
  0
LINE
  8
_0-0_
  6
CONTINUOUS
 62
    7
 10
613.59840017903616
 20
23.887681309567085
 11
610.39840017903634
 21
23.887681309567085
  0
LINE
  8
_0-0_
  6
CONTINUOUS
 62
    7
 10
610.39840017903634
 20
23.887681309567085
 11
610.39840017903634
 21
54.511953276740712
  0
LINE
  8
_0-0_
  6
CONTINUOUS
 62
    7
 10
613.59840017903616
 20
54.628928227811627
 11
613.59840017903616
 21
23.887681309567085
  0
LINE
  8
_0-0_
  6
CONTINUOUS
 62
    7
 10
614.09840017903616
 20
24.725403649398629
 11
614.09840017903616
 21
30.887681309567085
  0
LINE
  8
_0-0_
  6
CONTINUOUS
 62
    7
 10
614.59840017903616
 20
30.887681309567085
 11
614.59840017903616
 21
47.887681308696244
  0
LINE
  8
_0-0_
  6
CONTINUOUS
 62
    7
 10
614.59840017903616
 20
47.887681308696244
 11
613.59840017903616
 21
47.887681308696244
  0
LINE
  8
_0-0_
  6
CONTINUOUS
 62
    7
 10
610.39840017903634
 20
49.387681309567085
 11
608.69840017903653
 21
49.387681309567085
  0
LINE
  8
_0-0_
  6
CONTINUOUS
 62
    7
 10
608.69840017903653
 20
58.887681309567085
 11
608.69840017903653
 21
19.887681309567085
  0
LINE
  8
_0-0_
  6
CONTINUOUS
 62
    7
 10
608.69840017903653
 20
19.887681309567085
 11
607.09840017903616
 21
18.387681309567085
  0
LINE
  8
_0-0_
  6
CONTINUOUS
 62
    7
 10
607.09840017903616
 20
9.8876813095670855
 11
607.09840017903616
 21
68.887681309567085
  0
LINE
  8
_0-0_
  6
CONTINUOUS
 62
    7
 10
604.09840017903616
 20
71.887681309567085
 11
570.09840017903616
 21
71.887681309567085
  0
LINE
  8
_0-0_
  6
CONTINUOUS
 62
    7
 10
567.09840017903616
 20
68.887681309567085
 11
567.09840017903616
 21
9.8876813095670855
  0
LINE
  8
_0-0_
  6
CONTINUOUS
 62
    7
 10
567.09840017903616
 20
15.38768130956754
 11
556.34104086615525
 21
15.38768130956754
  0
LINE
  8
_0-0_
  6
CONTINUOUS
 62
    7
 10
554.21972052259616
 20
16.266360966007539
 11
538.97707983547616
 21
31.509001653126631
  0
LINE
  8
_0-0_
  6
CONTINUOUS
 62
    7
 10
538.09840017903616
 20
33.630321996686632
 11
538.09840017903616
 21
149.38768130956743
  0
LINE
  8
_0-0_
  6
CONTINUOUS
 62
    7
 10
541.09840017903616
 20
142.38768130956743
 11
635.85575949191707
 21
142.38768130956743
  0
LINE
  8
_0-0_
  6
CONTINUOUS
 62
    7
 10
637.97707983547616
 20
141.50900165312652
 11
664.5210204419227
 21
114.96506104667992
  0
LINE
  8
_0-0_
  6
CONTINUOUS
 62
    7
 10
665.09840017903616
 20
103.38768130956754
 11
665.09840017903616
 21
18.387681309566631
  0
LINE
  8
_0-1_
  6
CENTER1
 62
  152
 10
661.5544821742883
 20
23.38768130956754
 11
648.18376049716107
 21
23.38768130956754
  0
LINE
  8
_0-0_
  6
CONTINUOUS
 62
   56
 10
652.59840017903616
 20
24.831057016240209
 11
655.09840017903616
 21
26.274432722912877
  0
LINE
  8
_0-0_
  6
CONTINUOUS
 62
   56
 10
655.09840017903616
 20
26.274432722912877
 11
657.59840017903616
 21
24.831057016240209
  0
LINE
  8
_0-0_
  6
CONTINUOUS
 62
   56
 10
657.59840017903616
 20
24.831057016240209
 11
657.59840017903616
 21
21.944305602894872
  0
LINE
  8
_0-0_
  6
CONTINUOUS
 62
   56
 10
657.59840017903616
 20
21.944305602894872
 11
655.09840017903616
 21
20.500929896222203
  0
LINE
  8
_0-0_
  6
CONTINUOUS
 62
   56
 10
655.09840017903616
 20
20.500929896222203
 11
652.59840017903616
 21
21.944305602894872
  0
LINE
  8
_0-0_
  6
CONTINUOUS
 62
   56
 10
652.59840017903616
 20
21.944305602894872
 11
652.59840017903616
 21
24.831057016240209
  0
LINE
  8
_0-1_
  6
CENTER1
 62
  152
 10
655.09840017903616
 20
13.88768130956754
 11
655.09840017903616
 21
88.539408229112212
  0
LINE
  8
_0-0_
  6
CONTINUOUS
 62
   56
 10
655.09840017903616
 20
86.274432722912877
 11
657.59840017903616
 21
84.831057016240209
  0
LINE
  8
_0-0_
  6
CONTINUOUS
 62
   56
 10
657.59840017903616
 20
84.831057016240209
 11
657.59840017903616
 21
81.944305602894872
  0
LINE
  8
_0-0_
  6
CONTINUOUS
 62
   56
 10
657.59840017903616
 20
81.944305602894872
 11
655.09840017903616
 21
80.500929896222203
  0
LINE
  8
_0-0_
  6
CONTINUOUS
 62
   56
 10
655.09840017903616
 20
80.500929896222203
 11
652.59840017903616
 21
81.944305602894872
  0
LINE
  8
_0-0_
  6
CONTINUOUS
 62
   56
 10
652.59840017903616
 20
81.944305602894872
 11
652.59840017903616
 21
84.831057016240209
  0
LINE
  8
_0-0_
  6
CONTINUOUS
 62
   56
 10
652.59840017903616
 20
84.831057016240209
 11
655.09840017903616
 21
86.274432722912877
  0
LINE
  8
_0-1_
  6
CENTER1
 62
  152
 10
661.5544821742883
 20
83.38768130956754
 11
648.18376049716107
 21
83.38768130956754
  0
LINE
  8
_0-1_
  6
CENTER1
 62
  152
 10
648.18376049716107
 20
63.387681309566631
 11
661.5544821742883
 21
63.387681309566631
  0
LINE
  8
_0-1_
  6
CENTER1
 62
  152
 10
631.57001575197273
 20
64.38768130956754
 11
617.92392077937848
 21
64.38768130956754
  0
LINE
  8
_0-1_
  6
CENTER1
 62
  152
 10
623.86795280073648
 20
56.135241006376361
 11
623.86795280073648
 21
72.674947733908027
  0
LINE
  8
_0-1_
  6
CENTER1
 62
  152
 10
623.59840017903616
 20
78.635241006376361
 11
623.59840017903616
 21
95.174947733908027
  0
LINE
  8
_0-0_
  6
CONTINUOUS
 62
    7
 10
616.09840017903616
 20
97.13490444837629
 11
616.09840017903616
 21
104.64045817075788
  0
LINE
  8
_0-0_
  6
CONTINUOUS
 62
    7
 10
616.09840017903616
 20
104.64045817075788
 11
609.59840017903616
 21
108.39323503194868
  0
LINE
  8
_0-0_
  6
CONTINUOUS
 62
    7
 10
609.59840017903616
 20
108.39323503194868
 11
603.09840017903616
 21
104.64045817075788
  0
LINE
  8
_0-0_
  6
CONTINUOUS
 62
    7
 10
603.09840017903616
 20
104.64045817075788
 11
603.09840017903616
 21
100.69044648419771
  0
LINE
  8
_0-1_
  6
CENTER1
 62
  152
 10
601.67654553362763
 20
100.88768130956709
 11
617.30046313027242
 21
100.88768130956709
  0
LINE
  8
_0-0_
  6
CONTINUOUS
 62
    7
 10
616.09840017903616
 20
97.13490444837629
 11
611.03721048887974
 21
94.212825131558418
  0
LINE
  8
_0-1_
  6
CENTER1
 62
  152
 10
609.59840017903616
 20
90.614279329200542
 11
609.59840017903616
 21
109.17494773390803
  0
LINE
  8
_0-0_
  6
CONTINUOUS
 62
    7
 10
615.59840017903616
 20
111.88768130956709
 11
558.59840017903616
 21
111.88768130956709
  0
LINE
  8
_0-0_
  6
CONTINUOUS
 62
    7
 10
558.09840017903616
 20
104.64045817075788
 11
558.09840017903616
 21
97.13490444837629
  0
LINE
  8
_0-0_
  6
CONTINUOUS
 62
    7
 10
558.09840017903616
 20
97.13490444837629
 11
563.15958986919259
 21
94.212825131558418
  0
LINE
  8
_0-1_
  6
CENTER1
 62
  152
 10
564.59840017903616
 20
90.614279329200542
 11
564.59840017903616
 21
109.17494773390803
  0
LINE
  8
_0-0_
  6
CONTINUOUS
 62
    7
 10
564.59840017903616
 20
108.39323503194868
 11
558.09840017903616
 21
104.64045817075788
  0
LINE
  8
_0-1_
  6
CENTER1
 62
  152
 10
556.67654553362763
 20
100.88768130956709
 11
572.30046313027242
 21
100.88768130956709
  0
LINE
  8
_0-0_
  6
CONTINUOUS
 62
    7
 10
571.09840017903616
 20
100.69044648419771
 11
571.09840017903616
 21
104.64045817075788
  0
LINE
  8
_0-0_
  6
CONTINUOUS
 62
    7
 10
571.09840017903616
 20
104.64045817075788
 11
564.59840017903616
 21
108.39323503194868
  0
LINE
  8
_0-0_
  6
CONTINUOUS
 62
    7
 10
553.59840017903616
 20
106.88768130956709
 11
553.59840017903616
 21
21.887681309567085
  0
LINE
  8
_0-0_
  6
CONTINUOUS
 62
    7
 10
560.59840017903616
 20
23.887681309567085
 11
563.79840017903689
 21
23.887681309567085
  0
LINE
  8
_0-0_
  6
CONTINUOUS
 62
    7
 10
563.79840017903689
 20
23.887681309567085
 11
563.79840017903689
 21
54.511953276740712
  0
LINE
  8
_0-0_
  6
CONTINUOUS
 62
    7
 10
560.59840017903616
 20
54.628928227811627
 11
560.59840017903616
 21
23.887681309567085
  0
LINE
  8
_0-0_
  6
CONTINUOUS
 62
    7
 10
560.09840017903616
 20
24.725403649398629
 11
560.09840017903616
 21
30.021656078921239
  0
LINE
  8
_0-0_
  6
CONTINUOUS
 62
    7
 10
559.84784467903637
 20
29.587681309566904
 11
560.59840017903616
 21
30.887681309567085
  0
LINE
  8
_0-0_
  6
CONTINUOUS
 62
    7
 10
559.84784467903637
 20
29.587681309566904
 11
554.99329317903675
 21
29.587681309566904
  0
LINE
  8
_0-0_
  6
CONTINUOUS
 62
    7
 10
554.99329317903675
 20
29.587681309566904
 11
554.09840017903616
 21
31.137681309567085
  0
LINE
  8
_0-0_
  6
CONTINUOUS
 62
    7
 10
554.09840017903616
 20
31.137681309567085
 11
553.34840017903616
 21
31.137681309567085
  0
LINE
  8
_0-0_
  6
CONTINUOUS
 62
    7
 10
552.59840017903616
 20
31.887681309567085
 11
552.59840017903616
 21
46.887681309567085
  0
LINE
  8
_0-0_
  6
CONTINUOUS
 62
    7
 10
553.34840017903616
 20
47.637681309567085
 11
554.09840017903616
 21
47.637681309567085
  0
LINE
  8
_0-0_
  6
CONTINUOUS
 62
    7
 10
554.09840017903616
 20
47.637681309567085
 11
554.99329317903675
 21
49.187681309567267
  0
LINE
  8
_0-0_
  6
CONTINUOUS
 62
    7
 10
554.99329317903675
 20
49.187681309567267
 11
559.84784467903637
 21
49.187681309567267
  0
LINE
  8
_0-0_
  6
CONTINUOUS
 62
    7
 10
559.84784467903637
 20
49.187681309567267
 11
560.59840017903616
 21
47.887681309567085
  0
LINE
  8
_0-0_
  6
CONTINUOUS
 62
    7
 10
559.84784467903637
 20
44.287681309566722
 11
554.99329317903675
 21
44.287681309566722
  0
LINE
  8
_0-0_
  6
CONTINUOUS
 62
    7
 10
552.59840017903616
 20
44.387681309567085
 11
549.29840094197561
 21
44.387681309567085
  0
LINE
  8
_0-0_
  6
CONTINUOUS
 62
    7
 10
549.29840094197561
 20
44.387681309567085
 11
549.29840094197561
 21
34.387681309567085
  0
LINE
  8
_0-0_
  6
CONTINUOUS
 62
    7
 10
549.29840094197561
 20
34.387681309567085
 11
552.59840017903616
 21
34.387681309567085
  0
LINE
  8
_0-0_
  6
CONTINUOUS
 62
    7
 10
552.59840017903616
 20
35.087681118832222
 11
548.59840017903616
 21
35.087681118832222
  0
LINE
  8
_0-0_
  6
CONTINUOUS
 62
    7
 10
548.59840017903616
 20
35.087681118832222
 11
548.59840017903616
 21
43.687681500301949
  0
LINE
  8
_0-0_
  6
CONTINUOUS
 62
    7
 10
548.59840017903616
 20
43.687681500301949
 11
549.29840094197561
 21
44.387681309567085
  0
LINE
  8
_0-0_
  6
CONTINUOUS
 62
    7
 10
548.59840017903616
 20
43.687681500301949
 11
552.59840017903616
 21
43.687681500301949
  0
LINE
  8
_0-1_
  6
CENTER1
 62
  152
 10
554.23466871205846
 20
41.88768130956754
 11
542.67654553362854
 21
41.88768130956754
  0
LINE
  8
_0-0_
  6
CONTINUOUS
 62
    7
 10
548.59840017903616
 20
35.087681118832222
 11
549.29840094197561
 21
34.387681309567085
  0
LINE
  8
_0-1_
  6
CENTER1
 62
  152
 10
550.59840017903616
 20
33.635241006376361
 11
550.59840017903616
 21
50.174947733908027
  0
LINE
  8
_0-1_
  6
CENTER1
 62
  152
 10
550.32884755733585
 20
56.135241006376361
 11
550.32884755733585
 21
72.674947733908027
  0
LINE
  8
_0-1_
  6
CENTER1
 62
  152
 10
550.59840017903616
 20
78.635241006376361
 11
550.59840017903616
 21
95.174947733908027
  0
LINE
  8
_0-1_
  6
CENTER1
 62
  152
 10
558.27981985850556
 20
86.88768130956754
 11
542.67654553362854
 21
86.88768130956754
  0
LINE
  8
_0-1_
  6
CENTER1
 62
  152
 10
542.40699291192823
 20
64.38768130956754
 11
556.27287957869476
 21
64.38768130956754
  0
LINE
  8
_0-0_
  6
CONTINUOUS
 62
    7
 10
565.49840017903671
 20
58.887681309567085
 11
565.49840017903671
 21
19.887681309567085
  0
LINE
  8
_0-0_
  6
CONTINUOUS
 62
    7
 10
565.49840017903671
 20
19.887681309567085
 11
567.09840017903616
 21
18.387681309567085
  0
LINE
  8
_0-0_
  6
CONTINUOUS
 62
    7
 10
567.09840017903616
 20
16.887681309567085
 11
558.59840017903616
 21
16.887681309567085
  0
LINE
  8
_0-1_
  6
CENTER1
 62
  152
 10
564.59840017903616
 20
19.635241006376361
 11
564.59840017903616
 21
35.531745037023427
  0
LINE
  8
_0-0_
  6
CONTINUOUS
 62
    7
 10
559.84784467903637
 20
34.48768130956654
 11
554.99329317903675
 21
34.48768130956654
  0
LINE
  8
ADD_LINE
  6
DOT
 62
  152
 10
561.30550696022283
 20
38.680574528380419
 11
560.59840017903616
 21
39.387681309567085
  0
LINE
  8
ADD_LINE
  6
DOT
 62
  152
 10
560.59840017903616
 20
39.387681309567085
 11
561.30550696022283
 21
40.094788090753752
  0
LINE
  8
_0-1_
  6
CENTER1
 62
  152
 10
568.17825501397738
 20
41.88768130956754
 11
605.69611240745826
 21
41.88768130956754
  0
LINE
  8
_0-1_
  6
CENTER1
 62
  152
 10
618.31138009845972
 20
41.88768130956754
 11
631.30046313027242
 21
41.88768130956754
  0
LINE
  8
_0-1_
  6
CENTER1
 62
  152
 10
623.59840017903616
 20
33.635241006376361
 11
623.59840017903616
 21
50.174947733908027
  0
LINE
  8
_0-0_
  6
CONTINUOUS
 62
    7
 10
608.69840017903653
 20
58.887681309567085
 11
607.09840017903616
 21
60.387681309567085
  0
LINE
  8
_0-1_
  6
CENTER1
 62
  152
 10
587.09840017903616
 20
64.409674229567315
 11
587.09840017903616
 21
19.365688384676048
  0
LINE
  8
_0-0_
  6
CONTINUOUS
 62
    7
 10
604.09840017903616
 20
6.8876813095670855
 11
570.09840017903616
 21
6.8876813095670855
  0
LINE
  8
_0-0_
  6
CONTINUOUS
 62
    7
 10
565.49840017903671
 20
29.387681309567085
 11
563.79840017903689
 21
29.387681309567085
  0
LINE
  8
_0-0_
  6
CONTINUOUS
 62
    7
 10
563.79840017903689
 20
49.387681309567085
 11
565.49840017903671
 21
49.387681309567085
  0
LINE
  8
_0-0_
  6
CONTINUOUS
 62
    7
 10
565.49840017903671
 20
58.887681309567085
 11
567.09840017903616
 21
60.387681309567085
  0
LINE
  8
_0-0_
  6
CONTINUOUS
 62
    7
 10
608.69840017903653
 20
29.387681309567085
 11
610.39840017903634
 21
29.387681309567085
  0
LINE
  8
_0-0_
  6
CONTINUOUS
 62
    7
 10
613.59840017903616
 20
30.887681309567085
 11
614.59840017903616
 21
30.887681309567085
  0
LINE
  8
_0-0_
  6
CONTINUOUS
 62
    7
 10
620.59840017903616
 20
21.88768130956754
 11
620.59840017903616
 21
106.88768130956709
  0
LINE
  8
_0-1_
  6
CENTER1
 62
  152
 10
615.91698049956676
 20
86.88768130956754
 11
631.30046313027242
 21
86.88768130956754
  0
LINE
  8
_0-1_
  6
CENTER1
 62
  152
 10
606.09840017903616
 20
125.47304162769257
 11
606.09840017903616
 21
138.84376330481956
  0
LINE
  8
_0-0_
  6
CONTINUOUS
 62
   56
 10
606.09840017903616
 20
135.27443272291231
 11
608.59840017903616
 21
133.83105701623964
  0
LINE
  8
_0-0_
  6
CONTINUOUS
 62
   56
 10
608.59840017903616
 20
133.83105701623964
 11
608.59840017903616
 21
130.9443056028943
  0
LINE
  8
_0-0_
  6
CONTINUOUS
 62
   56
 10
608.59840017903616
 20
130.9443056028943
 11
606.09840017903616
 21
129.50092989622163
  0
LINE
  8
_0-0_
  6
CONTINUOUS
 62
   56
 10
606.09840017903616
 20
129.50092989622163
 11
603.59840017903616
 21
130.9443056028943
  0
LINE
  8
_0-0_
  6
CONTINUOUS
 62
   56
 10
603.59840017903616
 20
130.9443056028943
 11
603.59840017903616
 21
133.83105701623964
  0
LINE
  8
_0-0_
  6
CONTINUOUS
 62
   56
 10
603.59840017903616
 20
133.83105701623964
 11
606.09840017903616
 21
135.27443272291231
  0
LINE
  8
_0-1_
  6
CENTER1
 62
  152
 10
612.70061726235826
 20
132.38768130956697
 11
535.10364714152684
 21
132.38768130956697
  0
LINE
  8
_0-0_
  6
CONTINUOUS
 62
   56
 10
543.59840017903616
 20
133.83105701623964
 11
546.09840017903616
 21
135.27443272291231
  0
LINE
  8
_0-0_
  6
CONTINUOUS
 62
   56
 10
546.09840017903616
 20
135.27443272291231
 11
548.59840017903616
 21
133.83105701623964
  0
LINE
  8
_0-0_
  6
CONTINUOUS
 62
   56
 10
548.59840017903616
 20
133.83105701623964
 11
548.59840017903616
 21
130.9443056028943
  0
LINE
  8
_0-0_
  6
CONTINUOUS
 62
   56
 10
548.59840017903616
 20
130.9443056028943
 11
546.09840017903616
 21
129.50092989622163
  0
LINE
  8
_0-0_
  6
CONTINUOUS
 62
   56
 10
546.09840017903616
 20
129.50092989622163
 11
543.59840017903616
 21
130.9443056028943
  0
LINE
  8
_0-0_
  6
CONTINUOUS
 62
   56
 10
543.59840017903616
 20
130.9443056028943
 11
543.59840017903616
 21
133.83105701623964
  0
LINE
  8
_0-1_
  6
CENTER1
 62
  152
 10
546.09840017903616
 20
138.84376330481956
 11
546.09840017903616
 21
125.47304162769257
  0
LINE
  8
_0-1_
  6
CENTER1
 62
  152
 10
586.09840017903616
 20
125.47304162769257
 11
586.09840017903616
 21
138.84376330481956
  0
LINE
  8
_0-1_
  6
CENTER1
 62
  152
 10
673.41204816720483
 20
110.38768130956754
 11
704.78475218903668
 21
110.38768130956754
  0
LINE
  8
_0-0_
  6
CONTINUOUS
 62
    7
 10
704.25150647889177
 20
331.45313174689727
 11
676.57144274821212
 21
331.45313174689727
  0
LINE
  8
_0-0_
  6
CONTINUOUS
 62
    7
 10
675.57281321345772
 20
330.50546770314031
 11
675.09840017903525
 21
321.45312774689683
  0
LINE
  8
_0-0_
  6
CONTINUOUS
 62
    7
 10
675.09840017903525
 20
319.14313260419385
 11
675.09840017903525
 21
303.45313174689636
  0
LINE
  8
_0-0_
  6
CONTINUOUS
 62
    7
 10
707.62175995080952
 20
321.46683240483344
 11
707.24739508315497
 21
328.61013961562639
  0
LINE
  8
_0-1_
  6
DASHED2
 62
  152
 10
662.76800476897961
 20
309.05779965938291
 11
663.06721859037816
 21
303.34845983441119
  0
LINE
  8
_0-1_
  6
PHANTOM1
 62
  152
 10
635.09840017903616
 20
361.45312774689705
 11
527.1180178513016
 21
361.45312774689705
  0
LINE
  8
_0-1_
  6
PHANTOM1
 62
  152
 10
820.44115678746903
 20
361.45312774689683
 11
954.94971788350426
 21
361.45312774689683
  0
LINE
  8
_0-1_
  6
PHANTOM1
 62
  152
 10
956.09860126647732
 20
365.74081890412384
 11
942.76601160758742
 21
315.98291690067879
  0
LINE
  8
_0-1_
  6
PHANTOM1
 62
  152
 10
944.23175018625943
 20
321.45312774689683
 11
820.44115678746903
 21
321.45312774689683
  0
LINE
  8
_0-1_
  6
PHANTOM1
 62
  152
 10
820.44115678746903
 20
321.45312774689683
 11
820.44115678746903
 21
424.29617790649269
  0
LINE
  8
_0-1_
  6
PHANTOM1
 62
  152
 10
825.94565708019104
 20
425.7711043146644
 11
774.74878987421107
 21
412.05294509181863
  0
LINE
  8
_0-1_
  6
PHANTOM1
 62
  152
 10
780.44115678746903
 20
413.5782102092478
 11
780.44115678746903
 21
321.45312774689683
  0
LINE
  8
_0-0_
  6
CONTINUOUS
 62
    7
 10
780.44115678832418
 20
321.45312774689683
 11
781.38998222827445
 21
303.34845983441119
  0
LINE
  8
_0-0_
  6
CONTINUOUS
 62
    7
 10
783.38724129778416
 20
301.45313174689727
 11
865.44115678832418
 21
301.45313174689727
  0
LINE
  8
_0-0_
  6
CONTINUOUS
 62
    7
 10
865.44115678832418
 20
301.45313174689727
 11
914.29938349575036
 21
308.11751332816038
  0
LINE
  8
_0-1_
  6
DASHED2
 62
  152
 10
915.46742825577962
 20
310.95312774689683
 11
793.88511499134142
 21
310.95312774689683
  0
LINE
  8
_0-1_
  6
DASHED2
 62
  152
 10
791.88785592183262
 20
309.05779965938291
 11
791.58864210043316
 21
303.34845983441119
  0
LINE
  8
_0-0_
  6
CONTINUOUS
 62
    7
 10
834.94115678832407
 20
290.95312774689791
 11
839.48208215562295
 21
286.95312774689683
  0
LINE
  8
_0-0_
  6
CONTINUOUS
 62
    7
 10
840.94115678832418
 20
296.95312774689683
 11
895.94115678832418
 21
296.95312774689683
  0
LINE
  8
_0-0_
  6
CONTINUOUS
 62
    7
 10
897.44115678832418
 20
298.95312774679678
 11
897.44115678832418
 21
300.73090552459689
  0
LINE
  8
_0-0_
  6
CONTINUOUS
 62
    7
 10
897.44115678832418
 20
300.73090552459689
 11
839.44115678832418
 21
300.73090552459689
  0
LINE
  8
_0-0_
  6
CONTINUOUS
 62
    7
 10
839.44115678832418
 20
300.73090552459689
 11
839.44115678832418
 21
298.95312774679678
  0
LINE
  8
_0-0_
  6
CONTINUOUS
 62
    7
 10
839.44115678832418
 20
298.95312774679678
 11
897.44115678832418
 21
298.95312774679678
  0
LINE
  8
_0-0_
  6
CONTINUOUS
 62
    7
 10
897.44115678832418
 20
300.73090552459706
 11
897.21510997008272
 21
301.49532229456969
  0
LINE
  8
_0-0_
  6
CONTINUOUS
 62
    7
 10
897.21510997008272
 20
301.49532229456969
 11
897.14182933740221
 21
302.28301707222067
  0
LINE
  8
_0-0_
  6
CONTINUOUS
 62
    7
 10
897.14182933740221
 20
302.28301707222067
 11
897.1493607208065
 21
302.50868330239706
  0
LINE
  8
_0-0_
  6
CONTINUOUS
 62
    7
 10
897.14936072082378
 20
302.508683302397
 11
873.17966584143392
 21
302.508683302397
  0
LINE
  8
_0-0_
  6
CONTINUOUS
 62
    7
 10
865.44115678832418
 20
302.0987496425987
 11
865.44115678832418
 21
320.99600164963249
  0
LINE
  8
_0-1_
  6
CENTER1
 62
  152
 10
868.44115678832418
 20
316.19464107944623
 11
868.44115678832418
 21
243.29787633593605
  0
LINE
  8
_0-0_
  6
CONTINUOUS
 62
    7
 10
880.43785452548923
 20
242.50285416332736
 11
887.54204407393422
 21
279.60251069409605
  0
LINE
  8
_0-1_
  6
CENTER1
 62
  152
 10
893.44115678832418
 20
281.95312774689683
 11
893.44115678832418
 21
216.95312774689683
  0
LINE
  8
_0-1_
  6
CENTER1
 62
  152
 10
860.94115678832418
 20
249.45312774689683
 11
925.94115678832418
 21
249.45312774689683
  0
LINE
  8
_0-0_
  6
CONTINUOUS
 62
    7
 10
901.94115678832418
 20
284.95312774689683
 11
895.67806939917568
 21
283.90918736547792
  0
LINE
  8
_0-0_
  6
CONTINUOUS
 62
    7
 10
901.94115678832418
 20
284.95312774689683
 11
901.94115678832418
 21
290.95312774689683
  0
LINE
  8
_0-0_
  6
CONTINUOUS
 62
    7
 10
897.14936072082355
 20
302.50868330239689
 11
897.02928152654363
 21
302.83376423656694
  0
LINE
  8
_0-0_
  6
CONTINUOUS
 62
    7
 10
897.02928152654363
 20
302.83376423656694
 11
896.51839082721153
 21
303.81872006989965
  0
LINE
  8
_0-0_
  6
CONTINUOUS
 62
    7
 10
896.51839082721153
 20
303.81872006989965
 11
895.82284644683682
 21
304.70985422078286
  0
LINE
  8
_0-0_
  6
CONTINUOUS
 62
    7
 10
895.82284644683682
 20
304.70985422078286
 11
894.96378214945457
 21
305.48009002897766
  0
LINE
  8
_0-0_
  6
CONTINUOUS
 62
    7
 10
916.88981923432652
 20
310.93298051798138
 11
917.4135814930612
 21
320.9269597687753
  0
LINE
  8
_0-0_
  6
CONTINUOUS
 62
    7
 10
916.91426672568355
 20
321.45312774689683
 11
780.94115678832418
 21
321.45312774689683
  0
LINE
  8
_0-0_
  6
CONTINUOUS
 62
    7
 10
803.96674375390262
 20
322.40079179065378
 11
804.29216188420537
 21
328.61013961562639
  0
LINE
  8
_0-0_
  6
CONTINUOUS
 62
    7
 10
807.28805048846857
 20
331.45313174689727
 11
837.59426308817979
 21
331.45313174689727
  0
LINE
  8
_0-0_
  6
CONTINUOUS
 62
    7
 10
840.59015169244299
 20
328.61013961562639
 11
840.91556982274574
 21
322.40079179065378
  0
LINE
  8
_0-0_
  6
CONTINUOUS
 62
    7
 10
839.44115678832418
 20
300.73090552459706
 11
839.6588360797482
 21
301.45313174689727
  0
CIRCLE
  8
_0-0_
  6
CONTINUOUS
 62
    7
 10
314.79758157903626
 20
63.387681309566631
 40
3.2500000000000009
  0
CIRCLE
  8
_0-0_
  6
CONTINUOUS
 62
    7
 10
383.79758157903626
 20
132.38768130956697
 40
3.2500000000000004
  0
ARC
  8
_0-0_
  6
CONTINUOUS
 62
    7
 10
413.55494089191717
 20
18.387681309566631
 40
3.0000000000000009
 50
270
 51
314.99999999999977
  0
ARC
  8
_0-0_
  6
CONTINUOUS
 62
    7
 10
428.79758157903626
 20
33.630321996686632
 40
3.0000000000000009
 50
315
 51
0
  0
ARC
  8
_0-0_
  6
CONTINUOUS
 62
    7
 10
428.79758157903626
 20
149.38768130956743
 40
3.0000000000000009
 50
0
 51
90
  0
ARC
  8
_0-0_
  6
CONTINUOUS
 62
    7
 10
297.79758157903626
 20
18.387681309566631
 40
3.0000000000000009
 50
180
 51
270
  0
ARC
  8
_0-0_
  6
CONTINUOUS
 62
    7
 10
431.79758157903626
 20
132.56503475422033
 40
3.0000000000000009
 50
353.2334729076797
 51
0
  0
ARC
  8
_0-0_
  6
CONTINUOUS
 62
    7
 10
382.79758157903626
 20
64.387681309567085
 40
24
 50
334.15806723683113
 51
205.84193276316762
  0
ARC
  8
_0-0_
  6
CONTINUOUS
 62
    7
 10
365.79758157903626
 20
9.8876813095670855
 40
3
 50
180
 51
270
  0
ARC
  8
_0-0_
  6
CONTINUOUS
 62
    7
 10
399.79758157903626
 20
9.8876813095670855
 40
3
 50
270
 51
0
  0
ARC
  8
_0-0_
  6
CONTINUOUS
 62
    7
 10
411.29758157903626
 20
106.88768130956709
 40
5
 50
0
 51
90
  0
ARC
  8
_0-0_
  6
CONTINUOUS
 62
    7
 10
411.29758157903626
 20
21.887681309567085
 40
5
 50
270
 51
0
  0
ARC
  8
_0-0_
  6
CONTINUOUS
 62
    7
 10
354.29758157903626
 20
106.88768130956709
 40
5
 50
90
 51
180
  0
ARC
  8
_0-0_
  6
CONTINUOUS
 62
    7
 10
354.29758157903626
 20
21.88768130956754
 40
5
 50
180
 51
270
  0
ARC
  8
_0-0_
  6
CONTINUOUS
 62
    7
 10
416.54758157903626
 20
31.887681309567085
 40
0.75
 50
270
 51
0
  0
ARC
  8
_0-0_
  6
CONTINUOUS
 62
    7
 10
410.81921807903683
 20
31.602327309566533
 40
5
 50
354.66785499999975
 51
35.244780000000013
  0
ARC
  8
_0-0_
  6
CONTINUOUS
 62
    7
 10
405.82281957903643
 20
38.677666309566519
 40
10
 50
335.22862399999991
 51
4.0715109999995889
  0
ARC
  8
_0-0_
  6
CONTINUOUS
 62
    7
 10
410.81921807903683
 20
47.173035309566728
 40
5
 50
324.75521999999961
 51
5.3321449999998736
  0
ARC
  8
_0-0_
  6
CONTINUOUS
 62
    7
 10
416.54758157903626
 20
46.887681309567085
 40
0.75
 50
0
 51
90
  0
ARC
  8
_0-0_
  6
CONTINUOUS
 62
    7
 10
405.82281957903643
 20
40.097696309566743
 40
10
 50
355.92848900000001
 51
24.771375999999677
  0
ARC
  8
_0-0_
  6
CONTINUOUS
 62
    7
 10
419.24913407903597
 20
38.404522809566913
 40
10
 50
185.64220432140786
 51
203.05933400000001
  0
ARC
  8
_0-0_
  6
CONTINUOUS
 62
    7
 10
419.24913407903597
 20
40.370839809567258
 40
10
 50
156.94066600000005
 51
174.35779567859214
  0
ARC
  8
_0-0_
  6
CONTINUOUS
 62
    7
 10
414.22462707903588
 20
47.036668309566664
 40
5
 50
189.79959553824938
 51
213.35311700000037
  0
ARC
  8
_0-0_
  6
CONTINUOUS
 62
    7
 10
414.22462707903588
 20
31.738694309566597
 40
5
 50
146.64688299999955
 51
170.20040446175079
  0
ARC
  8
_0-0_
  6
CONTINUOUS
 62
    7
 10
362.32883157718544
 20
39.387681309567085
 40
11.031249998148837
 50
129.59775270452442
 51
230.40224730257353
  0
ARC
  8
_0-0_
  6
CONTINUOUS
 62
    7
 10
399.79758157903626
 20
68.887681309567085
 40
3
 50
0
 51
90
  0
ARC
  8
_0-0_
  6
CONTINUOUS
 62
    7
 10
365.79758157903626
 20
68.887681309567085
 40
3
 50
90
 51
180
  0
ARC
  8
_0-0_
  6
CONTINUOUS
 62
    7
 10
360.29758157903626
 20
27.88768130956754
 40
5.5
 50
215.09680122758473
 51
223.34175822721895
  0
ARC
  8
_0-0_
  6
CONTINUOUS
 62
    7
 10
360.29758157903626
 20
27.88768130956754
 40
5.5
 50
226.65824177278128
 51
279.41802721995526
  0
ARC
  8
_0-0_
  6
CONTINUOUS
 62
    7
 10
405.29758157903626
 20
27.887681309567085
 40
5.5
 50
260.58197278004229
 51
313.34175822721875
  0
ARC
  8
_0-0_
  6
CONTINUOUS
 62
    7
 10
405.29758157903626
 20
27.887681309567085
 40
5.5
 50
316.65824177277773
 51
324.90319877241524
  0
ARC
  8
_0-0_
  6
CONTINUOUS
 62
    7
 10
408.09758157903553
 20
54.511953276740712
 40
2
 50
158.72039557282559
 51
180
  0
ARC
  8
_0-0_
  6
CONTINUOUS
 62
    7
 10
411.29758157903626
 20
54.628928227811627
 40
2
 50
165.25643716352923
 51
179.99999999999997
  0
ARC
  8
_0-0_
  6
CONTINUOUS
 62
    7
 10
354.29758157903626
 20
54.628928227811627
 40
2
 50
0
 51
14.743562836469456
  0
ARC
  8
_0-0_
  6
CONTINUOUS
 62
    7
 10
357.49758157903608
 20
54.511953276740712
 40
2
 50
0
 51
21.279604427172014
  0
ARC
  8
_0-0_
  6
CONTINUOUS
 62
    7
 10
382.79758157903626
 20
72.318104865668317
 40
29
 50
323.91560358208682
 51
216.08439641791327
  0
ARC
  8
_0-0_
  6
CONTINUOUS
 62
    7
 10
382.79758157903626
 20
72.977633563095822
 40
32
 50
326.11752481942341
 51
213.88247518057665
  0
ARC
  8
_0-0_
  6
CONTINUOUS
 62
    7
 10
382.79758157903626
 20
64.387681309567085
 40
12
 50
38.682187453489483
 51
141.31781254651054
  0
ARC
  8
_0-0_
  6
CONTINUOUS
 62
    7
 10
382.79758157903626
 20
64.387681309567085
 40
21
 50
347.67230522904612
 51
192.3276947709534
  0
ARC
  8
_0-0_
  6
CONTINUOUS
 62
    7
 10
382.79758157903626
 20
101.15723393126785
 40
4.25
 50
62.183052208199804
 51
117.8169477918002
  0
ARC
  8
_0-0_
  6
CONTINUOUS
 62
    7
 10
419.29758157903626
 20
86.88768130956754
 40
4.2500000000000009
 50
225.09912784402729
 51
134.90087215597271
  0
ARC
  8
_0-0_
  6
CONTINUOUS
 62
    7
 10
346.29758157903626
 20
86.88768130956754
 40
4.2500000000000009
 50
45.099127844027414
 51
314.90087215597259
  0
ARC
  8
_0-0_
  6
CONTINUOUS
 62
    7
 10
346.02802895733595
 20
64.38768130956754
 40
4.25
 50
39.70834612844326
 51
320.29165387155678
  0
ARC
  8
_0-0_
  6
CONTINUOUS
 62
    7
 10
346.29758157903626
 20
41.88768130956754
 40
4.2500000000000009
 50
45.099127844027301
 51
314.90087215597271
  0
ARC
  8
_0-0_
  6
CONTINUOUS
 62
    7
 10
419.29758157903626
 20
41.88768130956754
 40
4.2500000000000009
 50
298.07248693585296
 51
118.07248693585296
  0
ARC
  8
_0-0_
  6
CONTINUOUS
 62
    7
 10
419.56713420073658
 20
64.38768130956754
 40
4.25
 50
219.70834612844322
 51
140.29165387155689
  0
ARC
  8
_0-0_
  6
CONTINUOUS
 62
    7
 10
301.79758157903626
 20
18.387681309566631
 40
3.0000000000000009
 50
270
 51
0
  0
ARC
  8
_0-0_
  6
CONTINUOUS
 62
    7
 10
334.04022226615535
 20
139.38768130956743
 40
3.0000000000000009
 50
90.000000000000057
 51
135.00000000000006
  0
ARC
  8
_0-0_
  6
CONTINUOUS
 62
    7
 10
428.79758157903626
 20
145.38768130956743
 40
3.0000000000000009
 50
270
 51
0
  0
CIRCLE
  8
_0-0_
  6
CONTINUOUS
 62
    7
 10
360.29758157903626
 20
100.88768130956709
 40
3.4600000381469727
  0
CIRCLE
  8
_0-0_
  6
CONTINUOUS
 62
    7
 10
405.29758157903626
 20
100.88768130956709
 40
3.4600000381469727
  0
ARC
  8
_0-0_
  6
CONTINUOUS
 62
    7
 10
360.29758157903626
 20
100.88768130956709
 40
6.25
 50
356.80050995849547
 51
260.94832150137637
  0
ARC
  8
_0-0_
  6
CONTINUOUS
 62
    7
 10
360.29758157903626
 20
100.88768130956709
 40
4
 50
323.72438217427384
 51
294.02444928559902
  0
ARC
  8
_0-0_
  6
CONTINUOUS
 62
    7
 10
405.29758157903626
 20
100.88768130956709
 40
6.25
 50
279.05167849862158
 51
183.19949004150453
  0
ARC
  8
_0-0_
  6
CONTINUOUS
 62
    7
 10
405.29758157903626
 20
100.88768130956709
 40
4
 50
245.97555071439754
 51
216.27561782572616
  0
ARC
  8
_0-0_
  6
CONTINUOUS
 62
    7
 10
556.34104086615525
 20
18.387681309566631
 40
3.0000000000000009
 50
225.00000000000023
 51
270
  0
CIRCLE
  8
_0-0_
  6
CONTINUOUS
 62
    7
 10
655.09840017903616
 20
63.387681309566631
 40
3.2500000000000009
  0
CIRCLE
  8
_0-0_
  6
CONTINUOUS
 62
    7
 10
586.09840017903616
 20
132.38768130956697
 40
3.2500000000000004
  0
ARC
  8
_0-0_
  6
CONTINUOUS
 62
    7
 10
541.09840017903616
 20
33.630321996686632
 40
3.0000000000000009
 50
180
 51
225
  0
ARC
  8
_0-0_
  6
CONTINUOUS
 62
    7
 10
541.09840017903616
 20
149.38768130956743
 40
3.0000000000000009
 50
90
 51
180
  0
ARC
  8
_0-0_
  6
CONTINUOUS
 62
    7
 10
672.09840017903616
 20
18.387681309566631
 40
3.0000000000000009
 50
270
 51
0
  0
ARC
  8
_0-0_
  6
CONTINUOUS
 62
    7
 10
538.09840017903616
 20
132.56503475422033
 40
3.0000000000000009
 50
180.00000000000006
 51
186.76652709232036
  0
ARC
  8
_0-0_
  6
CONTINUOUS
 62
    7
 10
587.09840017903616
 20
64.387681309567085
 40
24
 50
334.15806723683238
 51
205.84193276316887
  0
ARC
  8
_0-0_
  6
CONTINUOUS
 62
    7
 10
604.09840017903616
 20
9.8876813095670855
 40
3
 50
270
 51
0
  0
ARC
  8
_0-0_
  6
CONTINUOUS
 62
    7
 10
570.09840017903616
 20
9.8876813095670855
 40
3
 50
180
 51
270
  0
ARC
  8
_0-0_
  6
CONTINUOUS
 62
    7
 10
558.59840017903616
 20
106.88768130956709
 40
5
 50
90
 51
180
  0
ARC
  8
_0-0_
  6
CONTINUOUS
 62
    7
 10
558.59840017903616
 20
21.887681309567085
 40
5
 50
180
 51
270
  0
ARC
  8
_0-0_
  6
CONTINUOUS
 62
    7
 10
615.59840017903616
 20
106.88768130956709
 40
5
 50
0
 51
90
  0
ARC
  8
_0-0_
  6
CONTINUOUS
 62
    7
 10
615.59840017903616
 20
21.88768130956754
 40
5
 50
270
 51
0
  0
ARC
  8
_0-0_
  6
CONTINUOUS
 62
    7
 10
553.34840017903616
 20
31.887681309567085
 40
0.75
 50
180
 51
270
  0
ARC
  8
_0-0_
  6
CONTINUOUS
 62
    7
 10
559.07676367903559
 20
31.602327309566533
 40
5
 50
144.75521999999998
 51
185.33214500000022
  0
ARC
  8
_0-0_
  6
CONTINUOUS
 62
    7
 10
564.07316217903599
 20
38.677666309566519
 40
10
 50
175.92848900000041
 51
204.77137600000009
  0
ARC
  8
_0-0_
  6
CONTINUOUS
 62
    7
 10
559.07676367903559
 20
47.173035309566728
 40
5
 50
174.66785500000012
 51
215.24478000000036
  0
ARC
  8
_0-0_
  6
CONTINUOUS
 62
    7
 10
553.34840017903616
 20
46.887681309567085
 40
0.75
 50
90
 51
180
  0
ARC
  8
_0-0_
  6
CONTINUOUS
 62
    7
 10
564.07316217903599
 20
40.097696309566743
 40
10
 50
155.22862400000031
 51
184.07151099999999
  0
ARC
  8
_0-0_
  6
CONTINUOUS
 62
    7
 10
550.64684767903645
 20
38.404522809566913
 40
10
 50
336.94066600000002
 51
354.35779567859214
  0
ARC
  8
_0-0_
  6
CONTINUOUS
 62
    7
 10
550.64684767903645
 20
40.370839809567258
 40
10
 50
5.642204321407867
 51
23.059333999999957
  0
ARC
  8
_0-0_
  6
CONTINUOUS
 62
    7
 10
555.67135467903654
 20
47.036668309566664
 40
5
 50
326.64688299999972
 51
350.20040446175074
  0
ARC
  8
_0-0_
  6
CONTINUOUS
 62
    7
 10
555.67135467903654
 20
31.738694309566597
 40
5
 50
9.7995955382492159
 51
33.353117000000452
  0
ARC
  8
_0-0_
  6
CONTINUOUS
 62
    7
 10
607.56715018088698
 20
39.387681309567085
 40
11.031249998148837
 50
309.59775269742647
 51
50.402247295475554
  0
ARC
  8
_0-0_
  6
CONTINUOUS
 62
    7
 10
570.09840017903616
 20
68.887681309567085
 40
3
 50
90
 51
180
  0
ARC
  8
_0-0_
  6
CONTINUOUS
 62
    7
 10
604.09840017903616
 20
68.887681309567085
 40
3
 50
0
 51
90
  0
ARC
  8
_0-0_
  6
CONTINUOUS
 62
    7
 10
609.59840017903616
 20
27.88768130956754
 40
5.5
 50
316.65824177278108
 51
324.90319877241529
  0
ARC
  8
_0-0_
  6
CONTINUOUS
 62
    7
 10
609.59840017903616
 20
27.88768130956754
 40
5.5
 50
260.58197278004468
 51
313.34175822721875
  0
ARC
  8
_0-0_
  6
CONTINUOUS
 62
    7
 10
564.59840017903616
 20
27.887681309567085
 40
5.5
 50
226.65824177278128
 51
279.41802721995771
  0
ARC
  8
_0-0_
  6
CONTINUOUS
 62
    7
 10
564.59840017903616
 20
27.887681309567085
 40
5.5
 50
215.09680122758473
 51
223.34175822722224
  0
ARC
  8
_0-0_
  6
CONTINUOUS
 62
    7
 10
561.79840017903689
 20
54.511953276740712
 40
2
 50
0
 51
21.279604427174405
  0
ARC
  8
_0-0_
  6
CONTINUOUS
 62
    7
 10
558.59840017903616
 20
54.628928227811627
 40
2
 50
0.0000000000000381
 51
14.743562836470787
  0
ARC
  8
_0-0_
  6
CONTINUOUS
 62
    7
 10
615.59840017903616
 20
54.628928227811627
 40
2
 50
165.25643716353051
 51
179.99999999999997
  0
ARC
  8
_0-0_
  6
CONTINUOUS
 62
    7
 10
612.39840017903634
 20
54.511953276740712
 40
2
 50
158.72039557282798
 51
180
  0
ARC
  8
_0-0_
  6
CONTINUOUS
 62
    7
 10
587.09840017903616
 20
72.318104865668317
 40
29
 50
323.91560358208676
 51
216.08439641791321
  0
ARC
  8
_0-0_
  6
CONTINUOUS
 62
    7
 10
587.09840017903616
 20
72.977633563095822
 40
32
 50
326.11752481942335
 51
213.88247518057659
  0
ARC
  8
_0-0_
  6
CONTINUOUS
 62
    7
 10
587.09840017903616
 20
64.387681309567085
 40
12
 50
38.682187453489483
 51
141.31781254651054
  0
ARC
  8
_0-0_
  6
CONTINUOUS
 62
    7
 10
587.09840017903616
 20
64.387681309567085
 40
21
 50
347.67230522904657
 51
192.32769477095388
  0
ARC
  8
_0-0_
  6
CONTINUOUS
 62
    7
 10
587.09840017903616
 20
101.15723393126785
 40
4.25
 50
62.183052208199804
 51
117.8169477918002
  0
ARC
  8
_0-0_
  6
CONTINUOUS
 62
    7
 10
550.59840017903616
 20
86.88768130956754
 40
4.2500000000000009
 50
45.099127844027286
 51
314.90087215597271
  0
ARC
  8
_0-0_
  6
CONTINUOUS
 62
    7
 10
623.59840017903616
 20
86.88768130956754
 40
4.2500000000000009
 50
225.09912784402741
 51
134.90087215597259
  0
ARC
  8
_0-0_
  6
CONTINUOUS
 62
    7
 10
623.86795280073648
 20
64.38768130956754
 40
4.25
 50
219.70834612844322
 51
140.29165387155675
  0
ARC
  8
_0-0_
  6
CONTINUOUS
 62
    7
 10
623.59840017903616
 20
41.88768130956754
 40
4.2500000000000009
 50
225.09912784402727
 51
134.90087215597268
  0
ARC
  8
_0-0_
  6
CONTINUOUS
 62
    7
 10
550.59840017903616
 20
41.88768130956754
 40
4.2500000000000009
 50
61.927513064147035
 51
241.92751306414704
  0
ARC
  8
_0-0_
  6
CONTINUOUS
 62
    7
 10
550.32884755733585
 20
64.38768130956754
 40
4.25
 50
39.708346128443111
 51
320.29165387155678
  0
ARC
  8
_0-0_
  6
CONTINUOUS
 62
    7
 10
668.09840017903616
 20
18.387681309566631
 40
3.0000000000000009
 50
180
 51
270
  0
ARC
  8
_0-0_
  6
CONTINUOUS
 62
    7
 10
635.85575949191707
 20
139.38768130956743
 40
3.0000000000000009
 50
44.999999999999936
 51
89.999999999999929
  0
ARC
  8
_0-0_
  6
CONTINUOUS
 62
    7
 10
541.09840017903616
 20
145.38768130956743
 40
3.0000000000000009
 50
180
 51
270
  0
CIRCLE
  8
_0-0_
  6
CONTINUOUS
 62
    7
 10
609.59840017903616
 20
100.88768130956709
 40
3.4600000381469727
  0
CIRCLE
  8
_0-0_
  6
CONTINUOUS
 62
    7
 10
564.59840017903616
 20
100.88768130956709
 40
3.4600000381469727
  0
ARC
  8
_0-0_
  6
CONTINUOUS
 62
    7
 10
609.59840017903616
 20
100.88768130956709
 40
6.25
 50
279.05167849862363
 51
183.19949004150453
  0
ARC
  8
_0-0_
  6
CONTINUOUS
 62
    7
 10
609.59840017903616
 20
100.88768130956709
 40
4
 50
245.97555071440101
 51
216.27561782572613
  0
ARC
  8
_0-0_
  6
CONTINUOUS
 62
    7
 10
564.59840017903616
 20
100.88768130956709
 40
6.25
 50
356.80050995849547
 51
260.94832150137842
  0
ARC
  8
_0-0_
  6
CONTINUOUS
 62
    7
 10
564.59840017903616
 20
100.88768130956709
 40
4
 50
323.72438217427396
 51
294.02444928560243
  0
TEXT
  8
_0-0_
 62
    7
 10
362.23960740114586
 20
159.34613606783938
 40
10
 41
1
 50
0
  1
L
  0
TEXT
  8
_0-0_
 62
    7
 10
602.55071113257929
 20
160.86950281098632
 40
10
 41
1
 50
0
  1
R
  0
ARC
  8
_0-0_
  6
CONTINUOUS
 62
    7
 10
76.454824969748188
 20
249.45312774689683
 40
32.499999999999986
 50
87.698542921362574
 51
358.81215746833811
  0
ARC
  8
_0-0_
  6
CONTINUOUS
 62
    7
 10
76.454824969748188
 20
249.45312774689683
 40
15
 50
122.51361463000015
 51
280.14554443389676
  0
ARC
  8
_0-0_
  6
CONTINUOUS
 62
    7
 10
73.231433404441304
 20
277.9908379948829
 40
6
 50
344.13883118963372
 51
80.536854608056856
  0
ARC
  8
_0-0_
  6
CONTINUOUS
 62
    7
 10
54.954824971644484
 20
283.1836776991513
 40
24.999999999999943
 50
302.51361463000001
 51
344.13883118963389
  0
ARC
  8
_0-0_
  6
CONTINUOUS
 62
    7
 10
73.954824969748188
 20
290.95312774689683
 40
6
 50
90
 51
180
  0
ARC
  8
_0-0_
  6
CONTINUOUS
 62
    7
 10
67.954824969748188
 20
296.95312774689683
 40
63.254533465779254
 50
280.14554443389653
 51
350.90386635813945
  0
ARC
  8
_0-0_
  6
CONTINUOUS
 62
    7
 10
126.45482496974824
 20
298.95312774679678
 40
1.9999999998999982
 50
270
 51
0
  0
ARC
  8
_0-0_
  6
CONTINUOUS
 62
    7
 10
76.454824969748188
 20
298.95312774679678
 40
1.9999999998999982
 50
180
 51
270
  0
CIRCLE
  8
_0-0_
  6
CONTINUOUS
 62
    7
 10
76.454824969748188
 20
249.45312774689683
 40
8.5
  0
ARC
  8
_0-0_
  6
CONTINUOUS
 62
    7
 10
56.002051128009953
 20
311.0899883867105
 40
3
 50
183.00000000000011
 51
262.23265101441376
  0
ARC
  8
_0-0_
  6
CONTINUOUS
 62
    7
 10
52.98171503238882
 20
320.95312774689683
 40
0.5
 50
89.999999999999972
 51
183.00000000000006
  0
ARC
  8
_0-0_
  6
CONTINUOUS
 62
    7
 10
186.50874046028827
 20
303.45313174689727
 40
2
 50
270
 51
356.99999999999989
  0
ARC
  8
_0-0_
  6
CONTINUOUS
 62
    7
 10
132.30171866989264
 20
328.45313174689727
 40
3
 50
89.999999999999972
 51
177.00000000000028
  0
ARC
  8
_0-0_
  6
CONTINUOUS
 62
    7
 10
162.60793126960385
 20
328.45313174689727
 40
3
 50
2.9999999999996856
 51
90
  0
ARC
  8
_0-0_
  6
CONTINUOUS
 62
    7
 10
127.98178240057138
 20
322.45312774689683
 40
1
 50
270
 51
357.00000000000006
  0
ARC
  8
_0-0_
  6
CONTINUOUS
 62
    7
 10
166.9278675389242
 20
322.45312774689683
 40
1
 50
183
 51
270
  0
ARC
  8
_0-0_
  6
CONTINUOUS
 62
    7
 10
188.95482496974824
 20
320.95312774689683
 40
0.5
 50
0
 51
90
  0
ARC
  8
_0-0_
  6
CONTINUOUS
 62
    7
 10
76.454824969748188
 20
249.45312774689683
 40
26.499999999999986
 50
84.846905317308256
 51
347.84722568943033
  0
ARC
  8
_0-0_
  6
CONTINUOUS
 62
    7
 10
76.454824969748188
 20
249.45312774689683
 40
24.999999999999986
 50
85.643716984156185
 51
344.41035184164332
  0
ARC
  8
_0-0_
  6
CONTINUOUS
 62
    7
 10
76.454824969748188
 20
249.45312774689683
 40
20.999999999999986
 50
89.956682792545706
 51
332.72158301459029
  0
ARC
  8
_0-0_
  6
CONTINUOUS
 62
    7
 10
407.29758157903626
 20
273.91722936203496
 40
2
 50
0
 51
29.999999999999915
  0
ARC
  8
_0-0_
  6
CONTINUOUS
 62
    7
 10
404.09758157903644
 20
273.91722936203496
 40
2
 50
0
 51
30.000000000001442
  0
ARC
  8
_0-0_
  6
CONTINUOUS
 62
    7
 10
406.09758157903644
 20
278.45312774689728
 40
2
 50
180
 51
210.00000000000082
  0
ARC
  8
_0-0_
  6
CONTINUOUS
 62
    7
 10
408.09758157903644
 20
280.53158871597998
 40
2
 50
180
 51
209.99999999999986
  0
ARC
  8
_0-0_
  6
CONTINUOUS
 62
    7
 10
359.49758157903608
 20
278.45312774689728
 40
2
 50
329.99999999999994
 51
0
  0
ARC
  8
_0-0_
  6
CONTINUOUS
 62
    7
 10
361.49758157903608
 20
273.91722936203496
 40
2
 50
150.00000000000009
 51
180
  0
ARC
  8
_0-0_
  6
CONTINUOUS
 62
    7
 10
358.29758157903626
 20
273.91722936203496
 40
2
 50
149.99999999999977
 51
180
  0
ARC
  8
_0-0_
  6
CONTINUOUS
 62
    7
 10
361.49758157903608
 20
280.39577312279334
 40
2
 50
103.69273104115079
 51
180
  0
ARC
  8
_0-0_
  6
CONTINUOUS
 62
    7
 10
382.79758157903626
 20
192.9714610858905
 40
91.981666661191412
 50
75.326452380014757
 51
103.69273104114845
  0
ARC
  8
_0-0_
  6
CONTINUOUS
 62
    7
 10
406.29758157903626
 20
246.62795103748886
 40
10
 50
323.16371269154922
 51
0.0000000000000318
  0
ARC
  8
_0-0_
  6
CONTINUOUS
 62
    7
 10
410.29758157903626
 20
290.95312774689728
 40
6
 50
0
 51
90
  0
ARC
  8
_0-0_
  6
CONTINUOUS
 62
    7
 10
355.29758157903626
 20
290.95312774689728
 40
6
 50
90
 51
180
  0
ARC
  8
_0-0_
  6
CONTINUOUS
 62
    7
 10
407.79758157903626
 20
298.95312774679724
 40
1.9999999998999982
 50
270
 51
0
  0
ARC
  8
_0-0_
  6
CONTINUOUS
 62
    7
 10
357.79758157903626
 20
298.95312774679724
 40
1.9999999998999982
 50
180
 51
270
  0
ARC
  8
_0-0_
  6
CONTINUOUS
 62
    7
 10
349.04758157903626
 20
256.95312774689728
 40
0.75
 50
90
 51
180
  0
ARC
  8
_0-0_
  6
CONTINUOUS
 62
    7
 10
354.77594507903569
 20
257.23848174689783
 40
5
 50
174.66785499999978
 51
215.24477999999988
  0
ARC
  8
_0-0_
  6
CONTINUOUS
 62
    7
 10
359.77234357903609
 20
250.16314274689785
 40
10
 50
155.22862399999991
 51
184.07151099999959
  0
ARC
  8
_0-0_
  6
CONTINUOUS
 62
    7
 10
354.77594507903569
 20
241.66777374689764
 40
5
 50
144.75521999999964
 51
185.33214499999974
  0
ARC
  8
_0-0_
  6
CONTINUOUS
 62
    7
 10
349.04758157903626
 20
241.95312774689728
 40
0.75
 50
180
 51
270
  0
ARC
  8
_0-0_
  6
CONTINUOUS
 62
    7
 10
359.77234357903609
 20
248.74311274689762
 40
10
 50
175.92848900000004
 51
204.77137599999966
  0
ARC
  8
_0-0_
  6
CONTINUOUS
 62
    7
 10
346.34602907903655
 20
250.43628624689745
 40
10
 50
5.6422043214078608
 51
23.059334000000003
  0
ARC
  8
_0-0_
  6
CONTINUOUS
 62
    7
 10
346.34602907903655
 20
248.46996924689711
 40
10
 50
336.94066600000002
 51
354.35779567859214
  0
ARC
  8
_0-0_
  6
CONTINUOUS
 62
    7
 10
351.37053607903664
 20
241.8041407468977
 40
5
 50
9.7995955382493722
 51
33.353117000000431
  0
ARC
  8
_0-0_
  6
CONTINUOUS
 62
    7
 10
351.37053607903664
 20
257.10211474689777
 40
5
 50
326.64688299999955
 51
350.20040446175079
  0
ARC
  8
_0-0_
  6
CONTINUOUS
 62
    7
 10
403.26633158088708
 20
249.45312774689728
 40
11.031249998148837
 50
309.59775270452445
 51
50.402247302573535
  0
ARC
  8
_0-0_
  6
CONTINUOUS
 62
    7
 10
365.79758157903626
 20
219.95312774689728
 40
3
 50
180
 51
270
  0
ARC
  8
_0-0_
  6
CONTINUOUS
 62
    7
 10
399.79758157903626
 20
219.95312774689728
 40
3
 50
270
 51
0
  0
ARC
  8
_0-0_
  6
CONTINUOUS
 62
    7
 10
399.79758157903626
 20
278.95312774689728
 40
3
 50
0
 51
90
  0
ARC
  8
_0-0_
  6
CONTINUOUS
 62
    7
 10
365.79758157903626
 20
278.95312774689728
 40
3
 50
90
 51
180
  0
ARC
  8
_0-0_
  6
CONTINUOUS
 62
    7
 10
431.29758157903626
 20
320.95312774689683
 40
0.5
 50
0
 51
90
  0
ARC
  8
_0-0_
  6
CONTINUOUS
 62
    7
 10
429.79758157903626
 20
303.45313174689727
 40
2
 50
270
 51
0
  0
ARC
  8
_0-0_
  6
CONTINUOUS
 62
    7
 10
262.27631626564681
 20
320.95312774689683
 40
0.5
 50
89.999999999999972
 51
182.9999999999998
  0
ARC
  8
_0-0_
  6
CONTINUOUS
 62
    7
 10
293.3245390098603
 20
330.45313174689727
 40
1
 50
3.0000000000000546
 51
90
  0
ARC
  8
_0-0_
  6
CONTINUOUS
 62
    7
 10
264.69551071246616
 20
303.45313174689636
 40
2
 50
182.99999999999991
 51
270
  0
ARC
  8
_0-0_
  6
CONTINUOUS
 62
    7
 10
265.64447527918065
 20
328.45313174689727
 40
3.0000000000000009
 50
89.999999999999972
 51
177.00000000000009
  0
ARC
  8
_0-0_
  6
CONTINUOUS
 62
    7
 10
893.44115678832418
 20
249.45312774689683
 40
32.499999999999986
 50
181.18784253166186
 51
92.301457078637455
  0
ARC
  8
_0-0_
  6
CONTINUOUS
 62
    7
 10
893.44115678832418
 20
249.45312774689683
 40
15
 50
259.85445556610318
 51
57.486385369999823
  0
ARC
  8
_0-0_
  6
CONTINUOUS
 62
    7
 10
896.66454835363106
 20
277.9908379948829
 40
6
 50
99.463145391943158
 51
195.86116881036628
  0
ARC
  8
_0-0_
  6
CONTINUOUS
 62
    7
 10
914.94115678642788
 20
283.1836776991513
 40
24.999999999999943
 50
195.86116881036611
 51
237.48638536999999
  0
ARC
  8
_0-0_
  6
CONTINUOUS
 62
    7
 10
895.94115678832418
 20
290.95312774689683
 40
6
 50
0
 51
90
  0
ARC
  8
_0-0_
  6
CONTINUOUS
 62
    7
 10
901.94115678832418
 20
296.95312774689683
 40
63.254533465779254
 50
189.09613364186055
 51
259.85445556610347
  0
ARC
  8
_0-0_
  6
CONTINUOUS
 62
    7
 10
843.44115678832418
 20
298.95312774679678
 40
1.9999999998999982
 50
180
 51
270
  0
ARC
  8
_0-0_
  6
CONTINUOUS
 62
    7
 10
893.44115678832418
 20
298.95312774679678
 40
1.9999999998999982
 50
270
 51
0
  0
CIRCLE
  8
_0-0_
  6
CONTINUOUS
 62
    7
 10
893.44115678832418
 20
249.45312774689683
 40
8.5
  0
ARC
  8
_0-0_
  6
CONTINUOUS
 62
    7
 10
913.89393063006241
 20
311.0899883867105
 40
3
 50
277.76734898558624
 51
356.99999999999989
  0
ARC
  8
_0-0_
  6
CONTINUOUS
 62
    7
 10
916.91426672568355
 20
320.95312774689683
 40
0.5
 50
356.99999999999994
 51
90.000000000000043
  0
ARC
  8
_0-0_
  6
CONTINUOUS
 62
    7
 10
783.38724129778416
 20
303.45313174689727
 40
2
 50
183.00000000000011
 51
270
  0
ARC
  8
_0-0_
  6
CONTINUOUS
 62
    7
 10
837.59426308817979
 20
328.45313174689727
 40
3
 50
2.9999999999997122
 51
90.000000000000028
  0
ARC
  8
_0-0_
  6
CONTINUOUS
 62
    7
 10
807.28805048846857
 20
328.45313174689727
 40
3
 50
90
 51
177.00000000000031
  0
ARC
  8
_0-0_
  6
CONTINUOUS
 62
    7
 10
841.91419935750105
 20
322.45312774689683
 40
1
 50
182.99999999999994
 51
270
  0
ARC
  8
_0-0_
  6
CONTINUOUS
 62
    7
 10
802.96811421914822
 20
322.45312774689683
 40
1
 50
269.99999999999994
 51
357
  0
ARC
  8
_0-0_
  6
CONTINUOUS
 62
    7
 10
780.94115678832418
 20
320.95312774689683
 40
0.5
 50
90
 51
180
  0
ARC
  8
_0-0_
  6
CONTINUOUS
 62
    7
 10
893.44115678832418
 20
249.45312774689683
 40
26.499999999999986
 50
192.15277431056964
 51
95.153094682691659
  0
ARC
  8
_0-0_
  6
CONTINUOUS
 62
    7
 10
893.44115678832418
 20
249.45312774689683
 40
24.999999999999986
 50
195.58964815835668
 51
94.356283015843786
  0
ARC
  8
_0-0_
  6
CONTINUOUS
 62
    7
 10
893.44115678832418
 20
249.45312774689683
 40
20.999999999999986
 50
207.27841698540968
 51
90.04331720745428
  0
ARC
  8
_0-0_
  6
CONTINUOUS
 62
    7
 10
562.59840017903616
 20
273.91722936203496
 40
2
 50
150.00000000000009
 51
180
  0
ARC
  8
_0-0_
  6
CONTINUOUS
 62
    7
 10
565.79840017903598
 20
273.91722936203496
 40
2
 50
149.99999999999855
 51
180
  0
ARC
  8
_0-0_
  6
CONTINUOUS
 62
    7
 10
563.79840017903598
 20
278.45312774689728
 40
2
 50
329.99999999999915
 51
0.000000000000019
  0
ARC
  8
_0-0_
  6
CONTINUOUS
 62
    7
 10
561.79840017903598
 20
280.53158871597998
 40
2
 50
330.00000000000011
 51
0
  0
ARC
  8
_0-0_
  6
CONTINUOUS
 62
    7
 10
610.39840017903634
 20
278.45312774689728
 40
2
 50
180
 51
210.00000000000006
  0
ARC
  8
_0-0_
  6
CONTINUOUS
 62
    7
 10
608.39840017903634
 20
273.91722936203496
 40
2
 50
0
 51
29.999999999999915
  0
ARC
  8
_0-0_
  6
CONTINUOUS
 62
    7
 10
611.59840017903616
 20
273.91722936203496
 40
2
 50
0
 51
30.000000000000227
  0
ARC
  8
_0-0_
  6
CONTINUOUS
 62
    7
 10
608.39840017903634
 20
280.39577312279334
 40
2
 50
0
 51
76.307268958849207
  0
ARC
  8
_0-0_
  6
CONTINUOUS
 62
    7
 10
587.09840017903616
 20
192.9714610858905
 40
91.981666661191412
 50
76.307268958851552
 51
104.67354761998524
  0
ARC
  8
_0-0_
  6
CONTINUOUS
 62
    7
 10
563.59840017903616
 20
246.62795103748886
 40
10
 50
179.99999999999997
 51
216.83628730845081
  0
ARC
  8
_0-0_
  6
CONTINUOUS
 62
    7
 10
559.59840017903616
 20
290.95312774689728
 40
6
 50
90
 51
180
  0
ARC
  8
_0-0_
  6
CONTINUOUS
 62
    7
 10
614.59840017903616
 20
290.95312774689728
 40
6
 50
0
 51
90
  0
ARC
  8
_0-0_
  6
CONTINUOUS
 62
    7
 10
562.09840017903616
 20
298.95312774679724
 40
1.9999999998999982
 50
180
 51
270
  0
ARC
  8
_0-0_
  6
CONTINUOUS
 62
    7
 10
612.09840017903616
 20
298.95312774679724
 40
1.9999999998999982
 50
270
 51
0
  0
ARC
  8
_0-0_
  6
CONTINUOUS
 62
    7
 10
620.84840017903616
 20
256.95312774689728
 40
0.75
 50
0
 51
90
  0
ARC
  8
_0-0_
  6
CONTINUOUS
 62
    7
 10
615.12003667903673
 20
257.23848174689783
 40
5
 50
324.75522000000001
 51
5.3321450000002173
  0
ARC
  8
_0-0_
  6
CONTINUOUS
 62
    7
 10
610.12363817903633
 20
250.16314274689785
 40
10
 50
355.92848900000041
 51
24.771376000000082
  0
ARC
  8
_0-0_
  6
CONTINUOUS
 62
    7
 10
615.12003667903673
 20
241.66777374689764
 40
5
 50
354.66785500000015
 51
35.244780000000354
  0
ARC
  8
_0-0_
  6
CONTINUOUS
 62
    7
 10
620.84840017903616
 20
241.95312774689728
 40
0.75
 50
270
 51
0
  0
ARC
  8
_0-0_
  6
CONTINUOUS
 62
    7
 10
610.12363817903633
 20
248.74311274689762
 40
10
 50
335.22862400000025
 51
4.071510999999945
  0
ARC
  8
_0-0_
  6
CONTINUOUS
 62
    7
 10
623.54995267903587
 20
250.43628624689745
 40
10
 50
156.94066599999999
 51
174.35779567859217
  0
ARC
  8
_0-0_
  6
CONTINUOUS
 62
    7
 10
623.54995267903587
 20
248.46996924689711
 40
10
 50
185.6422043214078
 51
203.05933399999989
  0
ARC
  8
_0-0_
  6
CONTINUOUS
 62
    7
 10
618.52544567903578
 20
241.8041407468977
 40
5
 50
146.6468829999996
 51
170.20040446175065
  0
ARC
  8
_0-0_
  6
CONTINUOUS
 62
    7
 10
618.52544567903578
 20
257.10211474689777
 40
5
 50
189.79959553824918
 51
213.3531170000004
  0
ARC
  8
_0-0_
  6
CONTINUOUS
 62
    7
 10
566.62965017718534
 20
249.45312774689728
 40
11.031249998148837
 50
129.59775269742644
 51
230.40224729547555
  0
ARC
  8
_0-0_
  6
CONTINUOUS
 62
    7
 10
604.09840017903616
 20
219.95312774689728
 40
3
 50
270
 51
0
  0
ARC
  8
_0-0_
  6
CONTINUOUS
 62
    7
 10
570.09840017903616
 20
219.95312774689728
 40
3
 50
180
 51
270
  0
ARC
  8
_0-0_
  6
CONTINUOUS
 62
    7
 10
570.09840017903616
 20
278.95312774689728
 40
3
 50
90
 51
180
  0
ARC
  8
_0-0_
  6
CONTINUOUS
 62
    7
 10
604.09840017903616
 20
278.95312774689728
 40
3
 50
0
 51
90
  0
ARC
  8
_0-0_
  6
CONTINUOUS
 62
    7
 10
538.59840017903616
 20
320.95312774689683
 40
0.5
 50
90
 51
180
  0
ARC
  8
_0-0_
  6
CONTINUOUS
 62
    7
 10
540.09840017903616
 20
303.45313174689727
 40
2
 50
180
 51
270
  0
ARC
  8
_0-0_
  6
CONTINUOUS
 62
    7
 10
707.61966549242561
 20
320.95312774689683
 40
0.5
 50
357.00000000000017
 51
89.999999999999957
  0
ARC
  8
_0-0_
  6
CONTINUOUS
 62
    7
 10
676.57144274821212
 20
330.45313174689727
 40
1
 50
90
 51
176.99999999999994
  0
ARC
  8
_0-0_
  6
CONTINUOUS
 62
    7
 10
705.20047104560626
 20
303.45313174689636
 40
2
 50
270
 51
357.00000000000006
  0
ARC
  8
_0-0_
  6
CONTINUOUS
 62
    7
 10
704.25150647889177
 20
328.45313174689727
 40
3.0000000000000009
 50
2.9999999999999152
 51
90.000000000000028
  0
ARC
  8
_0-1_
  6
DASHED2
 62
  152
 10
176.010866766731
 20
308.95312774689683
 40
2
 50
3.0000000000005773
 51
90
  0
ARC
  8
_0-1_
  6
DASHED2
 62
  152
 10
54.428553502292743
 20
312.45312774689683
 40
1.5
 50
183.00000000000003
 51
270
  0
ARC
  8
_0-1_
  6
DASHED2
 62
  152
 10
180.30459872714806
 20
303.45313174689727
 40
2
 50
183.00000000000003
 51
270
  0
ARC
  8
_0-1_
  6
DASHED2
 62
  152
 10
429.79758157903626
 20
312.95312774689683
 40
2
 50
270
 51
0
  0
ARC
  8
_0-1_
  6
DASHED2
 62
  152
 10
309.12523605860252
 20
308.95312774689683
 40
2
 50
90
 51
176.99999999999937
  0
ARC
  8
_0-1_
  6
DASHED2
 62
  152
 10
793.88511499134142
 20
308.95312774689683
 40
2
 50
90
 51
176.99999999999943
  0
ARC
  8
_0-1_
  6
DASHED2
 62
  152
 10
915.46742825577962
 20
312.45312774689683
 40
1.5
 50
270
 51
357
  0
ARC
  8
_0-1_
  6
DASHED2
 62
  152
 10
789.59138303092436
 20
303.45313174689727
 40
2
 50
270
 51
357
  0
ARC
  8
_0-1_
  6
DASHED2
 62
  152
 10
540.09840017903616
 20
312.95312774689683
 40
2
 50
180
 51
270
  0
ARC
  8
_0-1_
  6
DASHED2
 62
  152
 10
660.7707456994699
 20
308.95312774689683
 40
2
 50
3.0000000000006275
 51
90
  0
ARC
  8
_0-0_
  6
CONTINUOUS
 62
    7
 10
128.95482496974824
 20
290.95312774689683
 40
6
 50
0
 51
90
  0
ARC
  8
_0-0_
  6
CONTINUOUS
 62
    7
 10
840.94115678832418
 20
290.95312774689683
 40
6
 50
90
 51
180
  0
CIRCLE
  8
_0-8_
  6
CONTINUOUS
 62
    7
 10
280.79758157903626
 20
110.38768130956754
 40
10
  0
CIRCLE
  8
_0-8_
  6
CONTINUOUS
 62
    7
 10
280.79758157903626
 20
110.38768130956754
 40
5
  0
CIRCLE
  8
_0-8_
  6
CONTINUOUS
 62
    7
 10
280.79758157903626
 20
110.38768130956754
 40
23.050000000000001
  0
CIRCLE
  8
_0-8_
  6
CONTINUOUS
 62
    7
 10
280.79758157903626
 20
110.38768130956754
 40
25
  0
CIRCLE
  8
_0-8_
  6
CONTINUOUS
 62
    7
 10
689.09840017903616
 20
110.38768130956754
 40
10
  0
CIRCLE
  8
_0-8_
  6
CONTINUOUS
 62
    7
 10
689.09840017903616
 20
110.38768130956754
 40
5
  0
CIRCLE
  8
_0-8_
  6
CONTINUOUS
 62
    7
 10
689.09840017903616
 20
110.38768130956754
 40
23.050000000000001
  0
CIRCLE
  8
_0-8_
  6
CONTINUOUS
 62
    7
 10
689.09840017903616
 20
110.38768130956754
 40
25
  0
CIRCLE
  8
_0-0_
  6
CONTINUOUS
 62
   56
 10
314.79758157903626
 20
23.38768130956754
 40
5
  0
CIRCLE
  8
_0-0_
  6
CONTINUOUS
 62
   56
 10
314.79758157903626
 20
23.38768130956754
 40
6.4400000569999998
  0
CIRCLE
  8
_0-0_
  6
CONTINUOUS
 62
   56
 10
314.79758157903626
 20
83.38768130956754
 40
5
  0
CIRCLE
  8
_0-0_
  6
CONTINUOUS
 62
   56
 10
314.79758157903626
 20
83.38768130956754
 40
6.4400000569999998
  0
CIRCLE
  8
_0-0_
  6
CONTINUOUS
 62
   56
 10
363.79758157903626
 20
132.38768130956697
 40
5
  0
CIRCLE
  8
_0-0_
  6
CONTINUOUS
 62
   56
 10
363.79758157903626
 20
132.38768130956697
 40
6.4400000569999998
  0
CIRCLE
  8
_0-0_
  6
CONTINUOUS
 62
   56
 10
423.79758157903626
 20
132.38768130956697
 40
5
  0
CIRCLE
  8
_0-0_
  6
CONTINUOUS
 62
   56
 10
423.79758157903626
 20
132.38768130956697
 40
6.4400000569999998
  0
CIRCLE
  8
_0-0_
  6
CONTINUOUS
 62
   56
 10
546.09840017903616
 20
132.38768130956697
 40
5
  0
CIRCLE
  8
_0-0_
  6
CONTINUOUS
 62
   56
 10
546.09840017903616
 20
132.38768130956697
 40
6.4400000569999998
  0
CIRCLE
  8
_0-0_
  6
CONTINUOUS
 62
   56
 10
606.09840017903616
 20
132.38768130956697
 40
5
  0
CIRCLE
  8
_0-0_
  6
CONTINUOUS
 62
   56
 10
606.09840017903616
 20
132.38768130956697
 40
6.4400000569999998
  0
CIRCLE
  8
_0-0_
  6
CONTINUOUS
 62
   56
 10
655.09840017903616
 20
83.38768130956754
 40
5
  0
CIRCLE
  8
_0-0_
  6
CONTINUOUS
 62
   56
 10
655.09840017903616
 20
83.38768130956754
 40
6.4400000569999998
  0
CIRCLE
  8
_0-0_
  6
CONTINUOUS
 62
   56
 10
655.09840017903616
 20
23.38768130956754
 40
5
  0
CIRCLE
  8
_0-0_
  6
CONTINUOUS
 62
   56
 10
655.09840017903616
 20
23.38768130956754
 40
6.4400000569999998
  0
TEXT
  8
_0-f_
 62
    7
 10
0.4785749933747638
 20
0.4296399505471981
 40
4.2999999999999998
 41
0.744186046511628
 50
0
  1
ASFFB_M16
  0
LINE
  8
_0-8_
  6
CONTINUOUS
 62
    7
 10
147.45482496974824
 20
201.45312774689683
 11
1014.1594088988757
 21
201.45312774689683
  0
LINE
  8
_0-8_
  6
CONTINUOUS
 62
  152
 10
172.45482496974824
 20
215.25312774689706
 11
122.45482496974824
 21
215.25312774689706
  0
LINE
  8
_0-8_
  6
CONTINUOUS
 62
    7
 10
122.20482496974847
 20
207.45312774689705
 11
122.20482496974847
 21
204.45312774689694
  0
LINE
  8
_0-8_
  6
CONTINUOUS
 62
    7
 10
122.20482496974847
 20
204.45312774689694
 11
172.70482496974802
 21
204.45312774689694
  0
LINE
  8
_0-8_
  6
CONTINUOUS
 62
    7
 10
172.70482496974802
 20
204.45312774689694
 11
172.70482496974802
 21
207.45312774689705
  0
LINE
  8
_0-8_
  6
CONTINUOUS
 62
    7
 10
172.70482496974802
 20
207.45312774689705
 11
122.20482496974847
 21
207.45312774689705
  0
LINE
  8
_0-8_
  6
CONTINUOUS
 62
    7
 10
124.1548249697484
 20
204.45312774689694
 11
124.1548249697484
 21
201.45312774689683
  0
LINE
  8
_0-8_
  6
CONTINUOUS
 62
    7
 10
124.1548249697484
 20
201.45312774689683
 11
170.75482496974865
 21
201.45312774689683
  0
LINE
  8
_0-8_
  6
CONTINUOUS
 62
    7
 10
170.75482496974865
 20
201.45312774689683
 11
170.75482496974865
 21
204.45312774689694
  0
LINE
  8
_0-8_
  6
CONTINUOUS
 62
    7
 10
134.75311904757683
 20
228.45312774689683
 11
160.15653089191966
 21
228.45312774689683
  0
LINE
  8
_0-8_
  6
CONTINUOUS
 62
    7
 10
141.10397200866254
 20
228.45312774689683
 11
141.10397200866254
 21
220.65312774689693
  0
LINE
  8
_0-8_
  6
CONTINUOUS
 62
    7
 10
134.75311904757683
 20
220.65312774689693
 11
134.75311904757683
 21
228.45312774689683
  0
LINE
  8
_0-8_
  6
CONTINUOUS
 62
    7
 10
160.15653089191966
 20
228.45312774689683
 11
160.15653089191966
 21
220.65312774689693
  0
LINE
  8
_0-8_
  6
CONTINUOUS
 62
    7
 10
153.80567792866253
 20
220.65312774689693
 11
153.80567792866253
 21
228.45312774689683
  0
LINE
  8
_0-8_
  6
CONTINUOUS
 62
    7
 10
165.45482496974836
 20
218.65312774689704
 11
165.45482496974836
 21
218.25312774689684
  0
LINE
  8
_0-8_
  6
CONTINUOUS
 62
    7
 10
165.45482496974836
 20
218.65312774689704
 11
129.45482496974813
 21
218.65312774689704
  0
LINE
  8
_0-8_
  6
CONTINUOUS
 62
    7
 10
129.45482496974813
 20
218.65312774689704
 11
129.45482496974813
 21
218.25312774689684
  0
LINE
  8
_0-8_
  6
CONTINUOUS
 62
    7
 10
125.45482496974836
 20
218.25312774689684
 11
169.45482496945311
 21
218.25312774689684
  0
LINE
  8
_0-8_
  6
CONTINUOUS
 62
    7
 10
122.45482496974824
 20
215.25312774689706
 11
122.45482496974824
 21
207.45312774689705
  0
LINE
  8
_0-8_
  6
CONTINUOUS
 62
    7
 10
172.45482496974824
 20
207.45312774689705
 11
172.45482496974824
 21
215.25312774689706
  0
ARC
  8
_0-8_
  6
CONTINUOUS
 62
    7
 10
125.45482496974836
 20
215.25312774689706
 40
2.9999999999999858
 50
89.999999999999829
 51
180.0000000000002
  0
ARC
  8
_0-8_
  6
CONTINUOUS
 62
    7
 10
169.45482496974813
 20
215.25312774689706
 40
2.9999999999999933
 50
359.99999999999977
 51
90.000000000000199
  0
LINE
  8
_0-8_
  6
CONTINUOUS
 62
    7
 10
134.7531190475774
 20
220.65312774689693
 11
134.80136091096136
 21
220.30583139156312
  0
LINE
  8
_0-8_
  6
CONTINUOUS
 62
    7
 10
134.80136091096136
 20
220.30583139156312
 11
134.94462069650598
 21
219.96908746024565
  0
LINE
  8
_0-8_
  6
CONTINUOUS
 62
    7
 10
134.94462069650598
 20
219.96908746024565
 11
135.17854552812031
 21
219.65312774689698
  0
LINE
  8
_0-8_
  6
CONTINUOUS
 62
    7
 10
135.17854552812031
 20
219.65312774689698
 11
135.49602771816745
 21
219.36755252752391
  0
LINE
  8
_0-8_
  6
CONTINUOUS
 62
    7
 10
135.49602771816745
 20
219.36755252752391
 11
135.88742073095665
 21
219.12103886065904
  0
LINE
  8
_0-8_
  6
CONTINUOUS
 62
    7
 10
135.88742073095665
 20
219.12103886065904
 11
136.34083228784863
 21
218.92107693932815
  0
LINE
  8
_0-8_
  6
CONTINUOUS
 62
    7
 10
136.34083228784863
 20
218.92107693932815
 11
136.84248570812468
 21
218.77374250532523
  0
LINE
  8
_0-8_
  6
CONTINUOUS
 62
    7
 10
136.84248570812468
 20
218.77374250532523
 11
137.37713850645849
 21
218.68351224087263
  0
LINE
  8
_0-8_
  6
CONTINUOUS
 62
    7
 10
137.37713850645849
 20
218.68351224087263
 11
137.92854552811997
 21
218.65312774689704
  0
LINE
  8
_0-8_
  6
CONTINUOUS
 62
    7
 10
137.92854552811997
 20
218.65312774689704
 11
138.47995254978144
 21
218.68351224087263
  0
LINE
  8
_0-8_
  6
CONTINUOUS
 62
    7
 10
138.47995254978144
 20
218.68351224087263
 11
139.01460534811525
 21
218.77374250532523
  0
LINE
  8
_0-8_
  6
CONTINUOUS
 62
    7
 10
139.01460534811525
 20
218.77374250532523
 11
139.5162587683912
 21
218.92107693932815
  0
LINE
  8
_0-8_
  6
CONTINUOUS
 62
    7
 10
139.5162587683912
 20
218.92107693932815
 11
139.96967032528329
 21
219.12103886065904
  0
LINE
  8
_0-8_
  6
CONTINUOUS
 62
    7
 10
139.96967032528329
 20
219.12103886065904
 11
140.36106333807248
 21
219.36755252752391
  0
LINE
  8
_0-8_
  6
CONTINUOUS
 62
    7
 10
140.36106333807248
 20
219.36755252752391
 11
140.67854552811963
 21
219.65312774689698
  0
LINE
  8
_0-8_
  6
CONTINUOUS
 62
    7
 10
140.67854552811963
 20
219.65312774689698
 11
140.91247035973396
 21
219.96908746024565
  0
LINE
  8
_0-8_
  6
CONTINUOUS
 62
    7
 10
140.91247035973396
 20
219.96908746024565
 11
141.05573014527857
 21
220.30583139156312
  0
LINE
  8
_0-8_
  6
CONTINUOUS
 62
    7
 10
141.05573014527857
 20
220.30583139156312
 11
141.10397200866254
 21
220.65312774689693
  0
LINE
  8
_0-8_
  6
CONTINUOUS
 62
    7
 10
141.10397200866254
 20
220.65312774689693
 11
141.10397200866254
 21
220.65312789052575
  0
LINE
  8
_0-8_
  6
CONTINUOUS
 62
    7
 10
141.10397200866254
 20
220.65312789052575
 11
141.20045565621609
 21
220.30583153300989
  0
LINE
  8
_0-8_
  6
CONTINUOUS
 62
    7
 10
141.20045565621609
 20
220.30583153300989
 11
141.48697515046473
 21
219.96908759521256
  0
LINE
  8
_0-8_
  6
CONTINUOUS
 62
    7
 10
141.48697515046473
 20
219.96908759521256
 11
141.95482474156159
 21
219.65312787128317
  0
LINE
  8
_0-8_
  6
CONTINUOUS
 62
    7
 10
141.95482474156159
 20
219.65312787128317
 11
142.58978905642454
 21
219.36755263754998
  0
LINE
  8
_0-8_
  6
CONTINUOUS
 62
    7
 10
142.58978905642454
 20
219.36755263754998
 11
143.37257502565382
 21
219.12103895298191
  0
LINE
  8
_0-8_
  6
CONTINUOUS
 62
    7
 10
143.37257502565382
 20
219.12103895298191
 11
144.27939809368326
 21
218.92107701114259
  0
LINE
  8
_0-8_
  6
CONTINUOUS
 62
    7
 10
144.27939809368326
 20
218.92107701114259
 11
145.28270490046549
 21
218.77374255444914
  0
LINE
  8
_0-8_
  6
CONTINUOUS
 62
    7
 10
145.28270490046549
 20
218.77374255444914
 11
146.35201047637401
 21
218.68351226581353
  0
LINE
  8
_0-8_
  6
CONTINUOUS
 62
    7
 10
146.35201047637401
 20
218.68351226581353
 11
147.45482451257971
 21
218.65312774689704
  0
LINE
  8
_0-8_
  6
CONTINUOUS
 62
    7
 10
147.45482451257971
 20
218.65312774689704
 11
148.55763856264326
 21
218.68351221593173
  0
LINE
  8
_0-8_
  6
CONTINUOUS
 62
    7
 10
148.55763856264326
 20
218.68351221593173
 11
149.62694417970437
 21
218.77374245620126
  0
LINE
  8
_0-8_
  6
CONTINUOUS
 62
    7
 10
149.62694417970437
 20
218.77374245620126
 11
150.63025105368325
 21
218.92107686751376
  0
LINE
  8
_0-8_
  6
CONTINUOUS
 62
    7
 10
150.63025105368325
 20
218.92107686751376
 11
151.53707421291193
 21
219.12103876833623
  0
LINE
  8
_0-8_
  6
CONTINUOUS
 62
    7
 10
151.53707421291193
 20
219.12103876833623
 11
152.31986029457192
 21
219.36755241749785
  0
LINE
  8
_0-8_
  6
CONTINUOUS
 62
    7
 10
152.31986029457192
 20
219.36755241749785
 11
152.95482473968076
 21
219.65312762251079
  0
LINE
  8
_0-8_
  6
CONTINUOUS
 62
    7
 10
152.95482473968076
 20
219.65312762251079
 11
153.42267447488138
 21
219.96908732527868
  0
LINE
  8
_0-8_
  6
CONTINUOUS
 62
    7
 10
153.42267447488138
 20
219.96908732527868
 11
153.70919412271309
 21
220.30583125011628
  0
LINE
  8
_0-8_
  6
CONTINUOUS
 62
    7
 10
153.70919412271309
 20
220.30583125011628
 11
153.80567792866253
 21
220.6531276032681
  0
LINE
  8
_0-8_
  6
CONTINUOUS
 62
    7
 10
153.80567792866253
 20
220.6531276032681
 11
153.80567792866253
 21
220.65312774689693
  0
LINE
  8
_0-8_
  6
CONTINUOUS
 62
    7
 10
153.80567793083395
 20
220.65312789052575
 11
153.85391975461897
 21
220.30583153300989
  0
LINE
  8
_0-8_
  6
CONTINUOUS
 62
    7
 10
153.85391975461897
 20
220.30583153300989
 11
153.99717950176779
 21
219.96908759521256
  0
LINE
  8
_0-8_
  6
CONTINUOUS
 62
    7
 10
153.99717950176779
 20
219.96908759521256
 11
154.23110429735613
 21
219.65312787128317
  0
LINE
  8
_0-8_
  6
CONTINUOUS
 62
    7
 10
154.23110429735613
 20
219.65312787128317
 11
154.54858645484188
 21
219.36755263754998
  0
LINE
  8
_0-8_
  6
CONTINUOUS
 62
    7
 10
154.54858645484188
 20
219.36755263754998
 11
154.93997943952337
 21
219.12103895298191
  0
LINE
  8
_0-8_
  6
CONTINUOUS
 62
    7
 10
154.93997943952337
 20
219.12103895298191
 11
155.39339097361557
 21
218.92107701114259
  0
LINE
  8
_0-8_
  6
CONTINUOUS
 62
    7
 10
155.39339097361557
 20
218.92107701114259
 11
155.89504437709246
 21
218.77374255444914
  0
LINE
  8
_0-8_
  6
CONTINUOUS
 62
    7
 10
155.89504437709246
 20
218.77374255444914
 11
156.42969716513807
 21
218.68351226581353
  0
LINE
  8
_0-8_
  6
CONTINUOUS
 62
    7
 10
156.42969716513807
 20
218.68351226581353
 11
156.98110418333516
 21
218.65312774689704
  0
LINE
  8
_0-8_
  6
CONTINUOUS
 62
    7
 10
156.98110418333516
 20
218.65312774689704
 11
157.53251120846113
 21
218.68351221593173
  0
LINE
  8
_0-8_
  6
CONTINUOUS
 62
    7
 10
157.53251120846113
 20
218.68351221593173
 11
158.06716401708303
 21
218.77374245620126
  0
LINE
  8
_0-8_
  6
CONTINUOUS
 62
    7
 10
158.06716401708303
 20
218.77374245620126
 11
158.56881745415814
 21
218.92107686751376
  0
LINE
  8
_0-8_
  6
CONTINUOUS
 62
    7
 10
158.56881745415814
 20
218.92107686751376
 11
159.02222903385001
 21
219.12103876833623
  0
LINE
  8
_0-8_
  6
CONTINUOUS
 62
    7
 10
159.02222903385001
 20
219.12103876833623
 11
159.4136220747468
 21
219.36755241749785
  0
LINE
  8
_0-8_
  6
CONTINUOUS
 62
    7
 10
159.4136220747468
 20
219.36755241749785
 11
159.73110429735544
 21
219.65312762251079
  0
LINE
  8
_0-8_
  6
CONTINUOUS
 62
    7
 10
159.73110429735544
 20
219.65312762251079
 11
159.96502916499577
 21
219.96908732527868
  0
LINE
  8
_0-8_
  6
CONTINUOUS
 62
    7
 10
159.96502916499577
 20
219.96908732527868
 11
160.10828898893618
 21
220.30583125011628
  0
LINE
  8
_0-8_
  6
CONTINUOUS
 62
    7
 10
160.10828898893618
 20
220.30583125011628
 11
160.15653089191909
 21
220.6531276032681
  0
LINE
  8
_0-8_
  6
CONTINUOUS
 62
    7
 10
160.15653089191909
 20
220.6531276032681
 11
160.15653089191909
 21
220.65312774689693
  0
LINE
  8
_0-8_
  6
CONTINUOUS
 62
    7
 10
134.17576877838707
 20
299.45313174689738
 11
134.17576877838707
 21
294.75313174689711
  0
LINE
  8
_0-8_
  6
CONTINUOUS
 62
    7
 10
137.49553282622736
 20
292.75313174689722
 11
157.41411711326913
 21
292.75313174689722
  0
LINE
  8
_0-8_
  6
CONTINUOUS
 62
    7
 10
154.09435306542883
 20
294.75313174689711
 11
154.09435306542883
 21
299.45313174689738
  0
LINE
  8
_0-8_
  6
CONTINUOUS
 62
    7
 10
157.41411711326913
 20
301.45313174689727
 11
137.49553282622736
 21
301.45313174689727
  0
LINE
  8
_0-8_
  6
CONTINUOUS
 62
    7
 10
140.81529687406766
 20
299.45313174689738
 11
140.81529687406766
 21
294.75313174689711
  0
LINE
  8
_0-8_
  6
CONTINUOUS
 62
    7
 10
160.73388116110942
 20
294.75313174689711
 11
160.73388116110942
 21
299.45313174689738
  0
LINE
  8
_0-8_
  6
CONTINUOUS
 62
    7
 10
134.17576877838707
 20
294.75313174689711
 11
134.22620345374304
 21
294.4058353915633
  0
LINE
  8
_0-8_
  6
CONTINUOUS
 62
    7
 10
134.22620345374304
 20
294.4058353915633
 11
134.37597504772151
 21
294.06909146024577
  0
LINE
  8
_0-8_
  6
CONTINUOUS
 62
    7
 10
134.37597504772151
 20
294.06909146024577
 11
134.62053282622736
 21
293.75313174689717
  0
LINE
  8
_0-8_
  6
CONTINUOUS
 62
    7
 10
134.62053282622736
 20
293.75313174689717
 11
134.95244602491317
 21
293.4675565275241
  0
LINE
  8
_0-8_
  6
CONTINUOUS
 62
    7
 10
134.95244602491317
 20
293.4675565275241
 11
135.36162962919281
 21
293.22104286065928
  0
LINE
  8
_0-8_
  6
CONTINUOUS
 62
    7
 10
135.36162962919281
 20
293.22104286065928
 11
135.83565080230716
 21
293.02108093932833
  0
LINE
  8
_0-8_
  6
CONTINUOUS
 62
    7
 10
135.83565080230716
 20
293.02108093932833
 11
136.3601066507776
 21
292.87374650532541
  0
LINE
  8
_0-8_
  6
CONTINUOUS
 62
    7
 10
136.3601066507776
 20
292.87374650532541
 11
136.9190618490357
 21
292.78351624087281
  0
LINE
  8
_0-8_
  6
CONTINUOUS
 62
    7
 10
136.9190618490357
 20
292.78351624087281
 11
137.49553282622736
 21
292.75313174689722
  0
LINE
  8
_0-8_
  6
CONTINUOUS
 62
    7
 10
137.49553282622736
 20
292.75313174689722
 11
138.07200380341902
 21
292.78351624087281
  0
LINE
  8
_0-8_
  6
CONTINUOUS
 62
    7
 10
138.07200380341902
 20
292.78351624087281
 11
138.63095900167713
 21
292.87374650532541
  0
LINE
  8
_0-8_
  6
CONTINUOUS
 62
    7
 10
138.63095900167713
 20
292.87374650532541
 11
139.15541485014745
 21
293.02108093932833
  0
LINE
  8
_0-8_
  6
CONTINUOUS
 62
    7
 10
139.15541485014745
 20
293.02108093932833
 11
139.62943602326192
 21
293.22104286065928
  0
LINE
  8
_0-8_
  6
CONTINUOUS
 62
    7
 10
139.62943602326192
 20
293.22104286065928
 11
140.03861962754155
 21
293.4675565275241
  0
LINE
  8
_0-8_
  6
CONTINUOUS
 62
    7
 10
140.03861962754155
 20
293.4675565275241
 11
140.37053282622736
 21
293.75313174689717
  0
LINE
  8
_0-8_
  6
CONTINUOUS
 62
    7
 10
140.37053282622736
 20
293.75313174689717
 11
140.61509060473321
 21
294.06909146024577
  0
LINE
  8
_0-8_
  6
CONTINUOUS
 62
    7
 10
140.61509060473321
 20
294.06909146024577
 11
140.76486219871168
 21
294.4058353915633
  0
LINE
  8
_0-8_
  6
CONTINUOUS
 62
    7
 10
140.76486219871168
 20
294.4058353915633
 11
140.81529687406766
 21
294.75313168265239
  0
LINE
  8
_0-8_
  6
CONTINUOUS
 62
    7
 10
140.81529687406766
 20
294.75313174689711
 11
140.9161662247796
 21
294.4058353915633
  0
LINE
  8
_0-8_
  6
CONTINUOUS
 62
    7
 10
140.9161662247796
 20
294.4058353915633
 11
141.21570941273643
 21
294.06909146024577
  0
LINE
  8
_0-8_
  6
CONTINUOUS
 62
    7
 10
141.21570941273643
 20
294.06909146024577
 11
141.70482496974836
 21
293.75313174689717
  0
LINE
  8
_0-8_
  6
CONTINUOUS
 62
    7
 10
141.70482496974836
 20
293.75313174689717
 11
142.36865136711975
 21
293.4675565275241
  0
LINE
  8
_0-8_
  6
CONTINUOUS
 62
    7
 10
142.36865136711975
 20
293.4675565275241
 11
143.18701857567913
 21
293.22104286065928
  0
LINE
  8
_0-8_
  6
CONTINUOUS
 62
    7
 10
143.18701857567913
 20
293.22104286065928
 11
144.13506092190795
 21
293.02108093932833
  0
LINE
  8
_0-8_
  6
CONTINUOUS
 62
    7
 10
144.13506092190795
 20
293.02108093932833
 11
145.18397261884871
 21
292.87374650532541
  0
LINE
  8
_0-8_
  6
CONTINUOUS
 62
    7
 10
145.18397261884871
 20
292.87374650532541
 11
146.30188301536492
 21
292.78351624087281
  0
LINE
  8
_0-8_
  6
CONTINUOUS
 62
    7
 10
146.30188301536492
 20
292.78351624087281
 11
147.45482496974824
 21
292.75313174689722
  0
LINE
  8
_0-8_
  6
CONTINUOUS
 62
    7
 10
147.45482496974824
 20
292.75313174689722
 11
148.60776692413157
 21
292.78351624087281
  0
LINE
  8
_0-8_
  6
CONTINUOUS
 62
    7
 10
148.60776692413157
 20
292.78351624087281
 11
149.72567732064778
 21
292.87374650532541
  0
LINE
  8
_0-8_
  6
CONTINUOUS
 62
    7
 10
149.72567732064778
 20
292.87374650532541
 11
150.77458901758854
 21
293.02108093932833
  0
LINE
  8
_0-8_
  6
CONTINUOUS
 62
    7
 10
150.77458901758854
 20
293.02108093932833
 11
151.72263136381736
 21
293.22104286065928
  0
LINE
  8
_0-8_
  6
CONTINUOUS
 62
    7
 10
151.72263136381736
 20
293.22104286065928
 11
152.54099857237674
 21
293.4675565275241
  0
LINE
  8
_0-8_
  6
CONTINUOUS
 62
    7
 10
152.54099857237674
 20
293.4675565275241
 11
153.20482496974813
 21
293.75313174689717
  0
LINE
  8
_0-8_
  6
CONTINUOUS
 62
    7
 10
153.20482496974813
 20
293.75313174689717
 11
153.69394052676006
 21
294.06909146024577
  0
LINE
  8
_0-8_
  6
CONTINUOUS
 62
    7
 10
153.69394052676006
 20
294.06909146024577
 11
153.99348371471689
 21
294.4058353915633
  0
LINE
  8
_0-8_
  6
CONTINUOUS
 62
    7
 10
153.99348371471689
 20
294.4058353915633
 11
154.09435306542883
 21
294.75313174689711
  0
LINE
  8
_0-8_
  6
CONTINUOUS
 62
    7
 10
154.09435306542883
 20
294.75313168265239
 11
154.14478775930246
 21
294.40583532829459
  0
LINE
  8
_0-8_
  6
CONTINUOUS
 62
    7
 10
154.14478775930246
 20
294.40583532829459
 11
154.29455937123583
 21
294.06909139987556
  0
LINE
  8
_0-8_
  6
CONTINUOUS
 62
    7
 10
154.29455937123583
 20
294.06909139987556
 11
154.53911716658848
 21
293.75313169125963
  0
LINE
  8
_0-8_
  6
CONTINUOUS
 62
    7
 10
154.53911716658848
 20
293.75313169125963
 11
154.87103038050094
 21
293.4675564783098
  0
LINE
  8
_0-8_
  6
CONTINUOUS
 62
    7
 10
154.87103038050094
 20
293.4675564783098
 11
155.28021399792448
 21
293.22104281936356
  0
LINE
  8
_0-8_
  6
CONTINUOUS
 62
    7
 10
155.28021399792448
 20
293.22104281936356
 11
155.75423518170072
 21
293.02108090720594
  0
LINE
  8
_0-8_
  6
CONTINUOUS
 62
    7
 10
155.75423518170072
 20
293.02108090720594
 11
156.27869103802692
 21
292.87374648335242
  0
LINE
  8
_0-8_
  6
CONTINUOUS
 62
    7
 10
156.27869103802692
 20
292.87374648335242
 11
156.83764624109602
 21
292.78351622971684
  0
LINE
  8
_0-8_
  6
CONTINUOUS
 62
    7
 10
156.83764624109602
 20
292.78351622971684
 11
157.41411721990772
 21
292.75313174689722
  0
LINE
  8
_0-8_
  6
CONTINUOUS
 62
    7
 10
157.41411721990772
 20
292.75313174689722
 11
157.99058819547935
 21
292.78351625202879
  0
LINE
  8
_0-8_
  6
CONTINUOUS
 62
    7
 10
157.99058819547935
 20
292.78351625202879
 11
158.54954338892645
 21
292.87374652729841
  0
LINE
  8
_0-8_
  6
CONTINUOUS
 62
    7
 10
158.54954338892645
 20
292.87374652729841
 11
159.07399922954102
 21
293.02108097145071
  0
LINE
  8
_0-8_
  6
CONTINUOUS
 62
    7
 10
159.07399922954102
 20
293.02108097145071
 11
159.54802039199359
 21
293.22104290195495
  0
LINE
  8
_0-8_
  6
CONTINUOUS
 62
    7
 10
159.54802039199359
 20
293.22104290195495
 11
159.95720398312932
 21
293.46755657673839
  0
LINE
  8
_0-8_
  6
CONTINUOUS
 62
    7
 10
159.95720398312932
 20
293.46755657673839
 11
160.28911716658837
 21
293.75313180253471
  0
LINE
  8
_0-8_
  6
CONTINUOUS
 62
    7
 10
160.28911716658837
 20
293.75313180253471
 11
160.53367492824754
 21
294.0690915206161
  0
LINE
  8
_0-8_
  6
CONTINUOUS
 62
    7
 10
160.53367492824754
 20
294.0690915206161
 11
160.68344650427099
 21
294.40583545483196
  0
LINE
  8
_0-8_
  6
CONTINUOUS
 62
    7
 10
160.68344650427099
 20
294.40583545483196
 11
160.73388116110942
 21
294.75313174689711
  0
LINE
  8
_0-8_
  6
CONTINUOUS
 62
    7
 10
154.09435306542883
 20
299.45313174689738
 11
153.99348371471689
 21
299.80042810223119
  0
LINE
  8
_0-8_
  6
CONTINUOUS
 62
    7
 10
153.99348371471689
 20
299.80042810223119
 11
153.69394052676006
 21
300.13717203354872
  0
LINE
  8
_0-8_
  6
CONTINUOUS
 62
    7
 10
153.69394052676006
 20
300.13717203354872
 11
153.20482496974813
 21
300.45313174689733
  0
LINE
  8
_0-8_
  6
CONTINUOUS
 62
    7
 10
153.20482496974813
 20
300.45313174689733
 11
152.54099857237674
 21
300.7387069662704
  0
LINE
  8
_0-8_
  6
CONTINUOUS
 62
    7
 10
152.54099857237674
 20
300.7387069662704
 11
151.72263136381736
 21
300.98522063313521
  0
LINE
  8
_0-8_
  6
CONTINUOUS
 62
    7
 10
151.72263136381736
 20
300.98522063313521
 11
150.77458901758854
 21
301.18518255446617
  0
LINE
  8
_0-8_
  6
CONTINUOUS
 62
    7
 10
150.77458901758854
 20
301.18518255446617
 11
149.72567732064778
 21
301.33251698846908
  0
LINE
  8
_0-8_
  6
CONTINUOUS
 62
    7
 10
149.72567732064778
 20
301.33251698846908
 11
148.60776692413157
 21
301.42274725292168
  0
LINE
  8
_0-8_
  6
CONTINUOUS
 62
    7
 10
148.60776692413157
 20
301.42274725292168
 11
147.45482496974824
 21
301.45313174689727
  0
LINE
  8
_0-8_
  6
CONTINUOUS
 62
    7
 10
147.45482496974824
 20
301.45313174689727
 11
146.30188301536492
 21
301.42274725292168
  0
LINE
  8
_0-8_
  6
CONTINUOUS
 62
    7
 10
146.30188301536492
 20
301.42274725292168
 11
145.18397261884871
 21
301.33251698846908
  0
LINE
  8
_0-8_
  6
CONTINUOUS
 62
    7
 10
145.18397261884871
 20
301.33251698846908
 11
144.13506092190795
 21
301.18518255446617
  0
LINE
  8
_0-8_
  6
CONTINUOUS
 62
    7
 10
144.13506092190795
 20
301.18518255446617
 11
143.18701857567913
 21
300.98522063313521
  0
LINE
  8
_0-8_
  6
CONTINUOUS
 62
    7
 10
143.18701857567913
 20
300.98522063313521
 11
142.36865136711975
 21
300.7387069662704
  0
LINE
  8
_0-8_
  6
CONTINUOUS
 62
    7
 10
142.36865136711975
 20
300.7387069662704
 11
141.70482496974836
 21
300.45313174689733
  0
LINE
  8
_0-8_
  6
CONTINUOUS
 62
    7
 10
141.70482496974836
 20
300.45313174689733
 11
141.21570941273643
 21
300.13717203354872
  0
LINE
  8
_0-8_
  6
CONTINUOUS
 62
    7
 10
141.21570941273643
 20
300.13717203354872
 11
140.9161662247796
 21
299.80042810223119
  0
LINE
  8
_0-8_
  6
CONTINUOUS
 62
    7
 10
140.9161662247796
 20
299.80042810223119
 11
140.81529687406766
 21
299.45313174689738
  0
LINE
  8
_0-8_
  6
CONTINUOUS
 62
    7
 10
160.73388116110942
 20
299.45313174689738
 11
160.68344648575345
 21
299.80042810223119
  0
LINE
  8
_0-8_
  6
CONTINUOUS
 62
    7
 10
160.68344648575345
 20
299.80042810223119
 11
160.53367489177498
 21
300.13717203354872
  0
LINE
  8
_0-8_
  6
CONTINUOUS
 62
    7
 10
160.53367489177498
 20
300.13717203354872
 11
160.28911711326913
 21
300.45313174689733
  0
LINE
  8
_0-8_
  6
CONTINUOUS
 62
    7
 10
160.28911711326913
 20
300.45313174689733
 11
159.95720391458332
 21
300.7387069662704
  0
LINE
  8
_0-8_
  6
CONTINUOUS
 62
    7
 10
159.95720391458332
 20
300.7387069662704
 11
159.54802031030368
 21
300.98522063313521
  0
LINE
  8
_0-8_
  6
CONTINUOUS
 62
    7
 10
159.54802031030368
 20
300.98522063313521
 11
159.07399913718933
 21
301.18518255446617
  0
LINE
  8
_0-8_
  6
CONTINUOUS
 62
    7
 10
159.07399913718933
 20
301.18518255446617
 11
158.54954328871889
 21
301.33251698846908
  0
LINE
  8
_0-8_
  6
CONTINUOUS
 62
    7
 10
158.54954328871889
 20
301.33251698846908
 11
157.99058809046079
 21
301.42274725292168
  0
LINE
  8
_0-8_
  6
CONTINUOUS
 62
    7
 10
157.99058809046079
 20
301.42274725292168
 11
157.41411711326913
 21
301.45313174689727
  0
LINE
  8
_0-8_
  6
CONTINUOUS
 62
    7
 10
157.41411711326913
 20
301.45313174689727
 11
156.83764613607747
 21
301.42274725292168
  0
LINE
  8
_0-8_
  6
CONTINUOUS
 62
    7
 10
156.83764613607747
 20
301.42274725292168
 11
156.27869093781936
 21
301.33251698846908
  0
LINE
  8
_0-8_
  6
CONTINUOUS
 62
    7
 10
156.27869093781936
 20
301.33251698846908
 11
155.75423508934904
 21
301.18518255446617
  0
LINE
  8
_0-8_
  6
CONTINUOUS
 62
    7
 10
155.75423508934904
 20
301.18518255446617
 11
155.28021391623457
 21
300.98522063313521
  0
LINE
  8
_0-8_
  6
CONTINUOUS
 62
    7
 10
155.28021391623457
 20
300.98522063313521
 11
154.87103031195494
 21
300.7387069662704
  0
LINE
  8
_0-8_
  6
CONTINUOUS
 62
    7
 10
154.87103031195494
 20
300.7387069662704
 11
154.53911711326913
 21
300.45313174689733
  0
LINE
  8
_0-8_
  6
CONTINUOUS
 62
    7
 10
154.53911711326913
 20
300.45313174689733
 11
154.29455933476328
 21
300.13717203354872
  0
LINE
  8
_0-8_
  6
CONTINUOUS
 62
    7
 10
154.29455933476328
 20
300.13717203354872
 11
154.14478774078481
 21
299.80042810223119
  0
LINE
  8
_0-8_
  6
CONTINUOUS
 62
    7
 10
154.14478774078481
 20
299.80042810223119
 11
154.09435306542883
 21
299.4531318111421
  0
LINE
  8
_0-8_
  6
CONTINUOUS
 62
    7
 10
140.81529687406766
 20
299.4531318111421
 11
140.76486218019403
 21
299.80042816549991
  0
LINE
  8
_0-8_
  6
CONTINUOUS
 62
    7
 10
140.76486218019403
 20
299.80042816549991
 11
140.61509056826065
 21
300.13717209391893
  0
LINE
  8
_0-8_
  6
CONTINUOUS
 62
    7
 10
140.61509056826065
 20
300.13717209391893
 11
140.37053277290801
 21
300.45313180253487
  0
LINE
  8
_0-8_
  6
CONTINUOUS
 62
    7
 10
140.37053277290801
 20
300.45313180253487
 11
140.03861955899555
 21
300.73870701548469
  0
LINE
  8
_0-8_
  6
CONTINUOUS
 62
    7
 10
140.03861955899555
 20
300.73870701548469
 11
139.62943594157201
 21
300.98522067443093
  0
LINE
  8
_0-8_
  6
CONTINUOUS
 62
    7
 10
139.62943594157201
 20
300.98522067443093
 11
139.15541475779577
 21
301.18518258658855
  0
LINE
  8
_0-8_
  6
CONTINUOUS
 62
    7
 10
139.15541475779577
 20
301.18518258658855
 11
138.63095890146957
 21
301.33251701044207
  0
LINE
  8
_0-8_
  6
CONTINUOUS
 62
    7
 10
138.63095890146957
 20
301.33251701044207
 11
138.07200369840047
 21
301.42274726407766
  0
LINE
  8
_0-8_
  6
CONTINUOUS
 62
    7
 10
138.07200369840047
 20
301.42274726407766
 11
137.49553271958877
 21
301.45313174689727
  0
LINE
  8
_0-8_
  6
CONTINUOUS
 62
    7
 10
137.49553271958877
 20
301.45313174689727
 11
136.91906174401714
 21
301.42274724176571
  0
LINE
  8
_0-8_
  6
CONTINUOUS
 62
    7
 10
136.91906174401714
 20
301.42274724176571
 11
136.36010655057004
 21
301.33251696649609
  0
LINE
  8
_0-8_
  6
CONTINUOUS
 62
    7
 10
136.36010655057004
 20
301.33251696649609
 11
135.83565070995547
 21
301.18518252234378
  0
LINE
  8
_0-8_
  6
CONTINUOUS
 62
    7
 10
135.83565070995547
 20
301.18518252234378
 11
135.3616295475029
 21
300.98522059183955
  0
LINE
  8
_0-8_
  6
CONTINUOUS
 62
    7
 10
135.3616295475029
 20
300.98522059183955
 11
134.95244595636717
 21
300.73870691705611
  0
LINE
  8
_0-8_
  6
CONTINUOUS
 62
    7
 10
134.95244595636717
 20
300.73870691705611
 11
134.62053277290812
 21
300.45313169125978
  0
LINE
  8
_0-8_
  6
CONTINUOUS
 62
    7
 10
134.62053277290812
 20
300.45313169125978
 11
134.37597501124895
 21
300.1371719731784
  0
LINE
  8
_0-8_
  6
CONTINUOUS
 62
    7
 10
134.37597501124895
 20
300.1371719731784
 11
134.2262034352255
 21
299.80042803896254
  0
LINE
  8
_0-8_
  6
CONTINUOUS
 62
    7
 10
134.2262034352255
 20
299.80042803896254
 11
134.17576877838707
 21
299.45313174689738
  0
LINE
  8
_0-8_
  6
CONTINUOUS
 62
    7
 10
155.45482493496644
 20
292.75313174689722
 11
155.45482493496644
 21
228.45312774689683
  0
LINE
  8
_0-8_
  6
CONTINUOUS
 62
    7
 10
154.55482487436649
 20
228.45312774689683
 11
154.55482487436649
 21
292.75313174689722
  0
LINE
  8
_0-8_
  6
CONTINUOUS
 62
    7
 10
140.35482506506622
 20
292.75313174689722
 11
140.35482506506622
 21
228.45312774689683
  0
LINE
  8
_0-8_
  6
CONTINUOUS
 62
    7
 10
139.45482493496621
 20
228.45312774689683
 11
139.45482493496621
 21
292.75313174689722
  0
LINE
  8
_0-9_
  6
PHANTOM1
 62
  152
 10
122.45482496974824
 20
268.45312774689637
 11
122.45482496974824
 21
271.45312774689705
  0
LINE
  8
_0-9_
  6
PHANTOM1
 62
  152
 10
124.40482496974806
 20
265.45312774689683
 11
124.40482496974806
 21
268.45312774689637
  0
LINE
  8
_0-9_
  6
PHANTOM1
 62
  152
 10
122.70482496974802
 20
271.45312774689705
 11
122.70482496974802
 21
278.95312774689705
  0
ARC
  8
_0-9_
  6
PHANTOM1
 62
  152
 10
125.70482496974824
 20
278.95312774689705
 40
2.9999999999999858
 50
89.999999999999829
 51
180.0000000000002
  0
LINE
  8
_0-9_
  6
PHANTOM1
 62
  152
 10
170.50482496974888
 20
265.45312774689683
 11
124.40482496974806
 21
265.45312774689683
  0
ARC
  8
_0-9_
  6
PHANTOM1
 62
  152
 10
169.20482496974824
 20
278.95312774689705
 40
2.9999999999999933
 50
359.99999999999977
 51
90.000000000000199
  0
LINE
  8
_0-9_
  6
PHANTOM1
 62
  152
 10
172.20482496974847
 20
278.95312774689705
 11
172.20482496974847
 21
271.45312774689705
  0
LINE
  8
_0-9_
  6
PHANTOM1
 62
  152
 10
172.45482496974824
 20
271.45312774689705
 11
172.45482496974824
 21
268.45312774689637
  0
LINE
  8
_0-9_
  6
PHANTOM1
 62
  152
 10
170.50482496974888
 20
268.45312774689637
 11
170.50482496974888
 21
265.45312774689683
  0
LINE
  8
_0-9_
  6
PHANTOM1
 62
  152
 10
122.45482496974824
 20
271.45312774689705
 11
122.70482496974802
 21
271.45312774689705
  0
LINE
  8
_0-9_
  6
PHANTOM1
 62
  152
 10
172.20482496974847
 20
271.45312774689705
 11
172.45482496974824
 21
271.45312774689705
  0
LINE
  8
_0-9_
  6
PHANTOM1
 62
  152
 10
172.45482496974824
 20
268.45312774689637
 11
170.50482496974888
 21
268.45312774689637
  0
LINE
  8
_0-9_
  6
PHANTOM1
 62
  152
 10
124.40482496974806
 20
268.45312774689637
 11
122.45482496974824
 21
268.45312774689637
  0
LINE
  8
_0-9_
  6
PHANTOM1
 62
  152
 10
165.45482496974824
 20
281.9531277468966
 11
169.20482496974824
 21
281.9531277468966
  0
LINE
  8
_0-9_
  6
PHANTOM1
 62
  152
 10
134.75311904757683
 20
291.45312774689637
 11
134.75311904757683
 21
284.35312774689669
  0
LINE
  8
_0-9_
  6
PHANTOM1
 62
  152
 10
165.45482496974824
 20
281.9531277468966
 11
165.45482496974824
 21
282.35312774689692
  0
LINE
  8
_0-9_
  6
PHANTOM1
 62
  152
 10
129.70482496974779
 20
282.35312774689692
 11
129.70482496974779
 21
281.9531277468966
  0
LINE
  8
_0-9_
  6
PHANTOM1
 62
  152
 10
125.70482496974824
 20
281.9531277468966
 11
129.70482496974779
 21
281.9531277468966
  0
LINE
  8
_0-9_
  6
PHANTOM1
 62
  152
 10
156.98110441137652
 20
282.3531277468968
 11
156.98110441137652
 21
282.3531277468968
  0
LINE
  8
_0-9_
  6
PHANTOM1
 62
  152
 10
156.98110441137652
 20
282.3531277468968
 11
157.53251143303805
 21
282.38351224087239
  0
LINE
  8
_0-9_
  6
PHANTOM1
 62
  152
 10
157.53251143303805
 20
282.38351224087239
 11
158.06716423137181
 21
282.47374250532499
  0
LINE
  8
_0-9_
  6
PHANTOM1
 62
  152
 10
158.06716423137181
 20
282.47374250532499
 11
158.56881765164781
 21
282.62107693932791
  0
LINE
  8
_0-9_
  6
PHANTOM1
 62
  152
 10
158.56881765164781
 20
282.62107693932791
 11
159.02222920853981
 21
282.8210388606588
  0
LINE
  8
_0-9_
  6
PHANTOM1
 62
  152
 10
159.02222920853981
 20
282.8210388606588
 11
159.41362222132901
 21
283.06755252752367
  0
LINE
  8
_0-9_
  6
PHANTOM1
 62
  152
 10
159.41362222132901
 20
283.06755252752367
 11
159.73110441137621
 21
283.35312774689675
  0
LINE
  8
_0-9_
  6
PHANTOM1
 62
  152
 10
159.73110441137621
 20
283.35312774689675
 11
159.96502924299054
 21
283.66908746024541
  0
LINE
  8
_0-9_
  6
PHANTOM1
 62
  152
 10
159.96502924299054
 20
283.66908746024541
 11
160.10828902853513
 21
284.00583139156282
  0
LINE
  8
_0-9_
  6
PHANTOM1
 62
  152
 10
160.10828902853513
 20
284.00583139156282
 11
160.15653089191909
 21
284.35312774689669
  0
LINE
  8
_0-9_
  6
PHANTOM1
 62
  152
 10
165.45482496974824
 20
282.35312774689692
 11
156.98110441137652
 21
282.35312774689692
  0
LINE
  8
_0-9_
  6
PHANTOM1
 62
  152
 10
129.70482496974779
 20
282.35312774689692
 11
137.92854552811997
 21
282.35312774689692
  0
LINE
  8
_0-9_
  6
PHANTOM1
 62
  152
 10
134.7531190475774
 20
284.35312774689669
 11
134.7531190475774
 21
284.35312774689669
  0
LINE
  8
_0-9_
  6
PHANTOM1
 62
  152
 10
134.7531190475774
 20
284.35312774689669
 11
134.80136091096136
 21
284.00583139156282
  0
LINE
  8
_0-9_
  6
PHANTOM1
 62
  152
 10
134.80136091096136
 20
284.00583139156282
 11
134.94462069650595
 21
283.66908746024541
  0
LINE
  8
_0-9_
  6
PHANTOM1
 62
  152
 10
134.94462069650595
 20
283.66908746024541
 11
135.17854552812028
 21
283.35312774689675
  0
LINE
  8
_0-9_
  6
PHANTOM1
 62
  152
 10
135.17854552812028
 20
283.35312774689675
 11
135.49602771816748
 21
283.06755252752367
  0
LINE
  8
_0-9_
  6
PHANTOM1
 62
  152
 10
135.49602771816748
 20
283.06755252752367
 11
135.88742073095668
 21
282.8210388606588
  0
LINE
  8
_0-9_
  6
PHANTOM1
 62
  152
 10
135.88742073095668
 20
282.8210388606588
 11
136.34083228784868
 21
282.62107693932791
  0
LINE
  8
_0-9_
  6
PHANTOM1
 62
  152
 10
136.34083228784868
 20
282.62107693932791
 11
136.84248570812468
 21
282.47374250532499
  0
LINE
  8
_0-9_
  6
PHANTOM1
 62
  152
 10
136.84248570812468
 20
282.47374250532499
 11
137.37713850645844
 21
282.38351224087239
  0
LINE
  8
_0-9_
  6
PHANTOM1
 62
  152
 10
137.37713850645844
 20
282.38351224087239
 11
137.92854552811997
 21
282.3531277468968
  0
LINE
  8
_0-9_
  6
PHANTOM1
 62
  152
 10
160.15653089191966
 20
284.35312774689669
 11
160.15653089191966
 21
291.45312774689637
  0
LINE
  8
_0-8_
  6
CONTINUOUS
 62
  152
 10
305.79758157903626
 20
215.25312774689706
 11
255.79758157903626
 21
215.25312774689706
  0
LINE
  8
_0-8_
  6
CONTINUOUS
 62
    7
 10
255.54758157903649
 20
207.45312774689705
 11
255.54758157903649
 21
204.45312774689694
  0
LINE
  8
_0-8_
  6
CONTINUOUS
 62
    7
 10
255.54758157903649
 20
204.45312774689694
 11
306.04758157903603
 21
204.45312774689694
  0
LINE
  8
_0-8_
  6
CONTINUOUS
 62
    7
 10
306.04758157903603
 20
204.45312774689694
 11
306.04758157903603
 21
207.45312774689705
  0
LINE
  8
_0-8_
  6
CONTINUOUS
 62
    7
 10
306.04758157903603
 20
207.45312774689705
 11
255.54758157903649
 21
207.45312774689705
  0
LINE
  8
_0-8_
  6
CONTINUOUS
 62
    7
 10
257.49758157903642
 20
204.45312774689694
 11
257.49758157903642
 21
201.45312774689683
  0
LINE
  8
_0-8_
  6
CONTINUOUS
 62
    7
 10
257.49758157903642
 20
201.45312774689683
 11
304.09758157903667
 21
201.45312774689683
  0
LINE
  8
_0-8_
  6
CONTINUOUS
 62
    7
 10
304.09758157903667
 20
201.45312774689683
 11
304.09758157903667
 21
204.45312774689694
  0
LINE
  8
_0-8_
  6
CONTINUOUS
 62
    7
 10
268.09587565686485
 20
228.45312774689683
 11
293.49928750120768
 21
228.45312774689683
  0
LINE
  8
_0-8_
  6
CONTINUOUS
 62
    7
 10
274.44672861795055
 20
228.45312774689683
 11
274.44672861795055
 21
220.65312774689693
  0
LINE
  8
_0-8_
  6
CONTINUOUS
 62
    7
 10
268.09587565686485
 20
220.65312774689693
 11
268.09587565686485
 21
228.45312774689683
  0
LINE
  8
_0-8_
  6
CONTINUOUS
 62
    7
 10
293.49928750120768
 20
228.45312774689683
 11
293.49928750120768
 21
220.65312774689693
  0
LINE
  8
_0-8_
  6
CONTINUOUS
 62
    7
 10
287.14843453795055
 20
220.65312774689693
 11
287.14843453795055
 21
228.45312774689683
  0
LINE
  8
_0-8_
  6
CONTINUOUS
 62
    7
 10
298.79758157903638
 20
218.65312774689704
 11
298.79758157903638
 21
218.25312774689684
  0
LINE
  8
_0-8_
  6
CONTINUOUS
 62
    7
 10
298.79758157903638
 20
218.65312774689704
 11
262.79758157903615
 21
218.65312774689704
  0
LINE
  8
_0-8_
  6
CONTINUOUS
 62
    7
 10
262.79758157903615
 20
218.65312774689704
 11
262.79758157903615
 21
218.25312774689684
  0
LINE
  8
_0-8_
  6
CONTINUOUS
 62
    7
 10
258.79758157903638
 20
218.25312774689684
 11
302.79758157874113
 21
218.25312774689684
  0
LINE
  8
_0-8_
  6
CONTINUOUS
 62
    7
 10
255.79758157903626
 20
215.25312774689706
 11
255.79758157903626
 21
207.45312774689705
  0
LINE
  8
_0-8_
  6
CONTINUOUS
 62
    7
 10
305.79758157903626
 20
207.45312774689705
 11
305.79758157903626
 21
215.25312774689706
  0
ARC
  8
_0-8_
  6
CONTINUOUS
 62
    7
 10
258.79758157903638
 20
215.25312774689706
 40
2.9999999999999858
 50
89.999999999999829
 51
180.0000000000002
  0
ARC
  8
_0-8_
  6
CONTINUOUS
 62
    7
 10
302.79758157903615
 20
215.25312774689706
 40
2.9999999999999933
 50
359.99999999999977
 51
90.000000000000199
  0
LINE
  8
_0-8_
  6
CONTINUOUS
 62
    7
 10
268.09587565686542
 20
220.65312774689693
 11
268.14411752024938
 21
220.30583139156312
  0
LINE
  8
_0-8_
  6
CONTINUOUS
 62
    7
 10
268.14411752024938
 20
220.30583139156312
 11
268.287377305794
 21
219.96908746024565
  0
LINE
  8
_0-8_
  6
CONTINUOUS
 62
    7
 10
268.287377305794
 20
219.96908746024565
 11
268.52130213740833
 21
219.65312774689698
  0
LINE
  8
_0-8_
  6
CONTINUOUS
 62
    7
 10
268.52130213740833
 20
219.65312774689698
 11
268.83878432745547
 21
219.36755252752391
  0
LINE
  8
_0-8_
  6
CONTINUOUS
 62
    7
 10
268.83878432745547
 20
219.36755252752391
 11
269.23017734024467
 21
219.12103886065904
  0
LINE
  8
_0-8_
  6
CONTINUOUS
 62
    7
 10
269.23017734024467
 20
219.12103886065904
 11
269.68358889713664
 21
218.92107693932815
  0
LINE
  8
_0-8_
  6
CONTINUOUS
 62
    7
 10
269.68358889713664
 20
218.92107693932815
 11
270.1852423174127
 21
218.77374250532523
  0
LINE
  8
_0-8_
  6
CONTINUOUS
 62
    7
 10
270.1852423174127
 20
218.77374250532523
 11
270.71989511574651
 21
218.68351224087263
  0
LINE
  8
_0-8_
  6
CONTINUOUS
 62
    7
 10
270.71989511574651
 20
218.68351224087263
 11
271.27130213740799
 21
218.65312774689704
  0
LINE
  8
_0-8_
  6
CONTINUOUS
 62
    7
 10
271.27130213740799
 20
218.65312774689704
 11
271.82270915906946
 21
218.68351224087263
  0
LINE
  8
_0-8_
  6
CONTINUOUS
 62
    7
 10
271.82270915906946
 20
218.68351224087263
 11
272.35736195740327
 21
218.77374250532523
  0
LINE
  8
_0-8_
  6
CONTINUOUS
 62
    7
 10
272.35736195740327
 20
218.77374250532523
 11
272.85901537767921
 21
218.92107693932815
  0
LINE
  8
_0-8_
  6
CONTINUOUS
 62
    7
 10
272.85901537767921
 20
218.92107693932815
 11
273.31242693457131
 21
219.12103886065904
  0
LINE
  8
_0-8_
  6
CONTINUOUS
 62
    7
 10
273.31242693457131
 20
219.12103886065904
 11
273.7038199473605
 21
219.36755252752391
  0
LINE
  8
_0-8_
  6
CONTINUOUS
 62
    7
 10
273.7038199473605
 20
219.36755252752391
 11
274.02130213740764
 21
219.65312774689698
  0
LINE
  8
_0-8_
  6
CONTINUOUS
 62
    7
 10
274.02130213740764
 20
219.65312774689698
 11
274.25522696902198
 21
219.96908746024565
  0
LINE
  8
_0-8_
  6
CONTINUOUS
 62
    7
 10
274.25522696902198
 20
219.96908746024565
 11
274.39848675456659
 21
220.30583139156312
  0
LINE
  8
_0-8_
  6
CONTINUOUS
 62
    7
 10
274.39848675456659
 20
220.30583139156312
 11
274.44672861795055
 21
220.65312774689693
  0
LINE
  8
_0-8_
  6
CONTINUOUS
 62
    7
 10
274.44672861795055
 20
220.65312774689693
 11
274.44672861795055
 21
220.65312789052575
  0
LINE
  8
_0-8_
  6
CONTINUOUS
 62
    7
 10
274.44672861795055
 20
220.65312789052575
 11
274.54321226550411
 21
220.30583153300989
  0
LINE
  8
_0-8_
  6
CONTINUOUS
 62
    7
 10
274.54321226550411
 20
220.30583153300989
 11
274.82973175975275
 21
219.96908759521256
  0
LINE
  8
_0-8_
  6
CONTINUOUS
 62
    7
 10
274.82973175975275
 20
219.96908759521256
 11
275.29758135084961
 21
219.65312787128317
  0
LINE
  8
_0-8_
  6
CONTINUOUS
 62
    7
 10
275.29758135084961
 20
219.65312787128317
 11
275.93254566571255
 21
219.36755263754998
  0
LINE
  8
_0-8_
  6
CONTINUOUS
 62
    7
 10
275.93254566571255
 20
219.36755263754998
 11
276.71533163494183
 21
219.12103895298191
  0
LINE
  8
_0-8_
  6
CONTINUOUS
 62
    7
 10
276.71533163494183
 20
219.12103895298191
 11
277.62215470297127
 21
218.92107701114259
  0
LINE
  8
_0-8_
  6
CONTINUOUS
 62
    7
 10
277.62215470297127
 20
218.92107701114259
 11
278.62546150975351
 21
218.77374255444914
  0
LINE
  8
_0-8_
  6
CONTINUOUS
 62
    7
 10
278.62546150975351
 20
218.77374255444914
 11
279.69476708566202
 21
218.68351226581353
  0
LINE
  8
_0-8_
  6
CONTINUOUS
 62
    7
 10
279.69476708566202
 20
218.68351226581353
 11
280.79758112186772
 21
218.65312774689704
  0
LINE
  8
_0-8_
  6
CONTINUOUS
 62
    7
 10
280.79758112186772
 20
218.65312774689704
 11
281.90039517193128
 21
218.68351221593173
  0
LINE
  8
_0-8_
  6
CONTINUOUS
 62
    7
 10
281.90039517193128
 20
218.68351221593173
 11
282.96970078899238
 21
218.77374245620126
  0
LINE
  8
_0-8_
  6
CONTINUOUS
 62
    7
 10
282.96970078899238
 20
218.77374245620126
 11
283.97300766297127
 21
218.92107686751376
  0
LINE
  8
_0-8_
  6
CONTINUOUS
 62
    7
 10
283.97300766297127
 20
218.92107686751376
 11
284.87983082219995
 21
219.12103876833623
  0
LINE
  8
_0-8_
  6
CONTINUOUS
 62
    7
 10
284.87983082219995
 20
219.12103876833623
 11
285.66261690385994
 21
219.36755241749785
  0
LINE
  8
_0-8_
  6
CONTINUOUS
 62
    7
 10
285.66261690385994
 20
219.36755241749785
 11
286.29758134896878
 21
219.65312762251079
  0
LINE
  8
_0-8_
  6
CONTINUOUS
 62
    7
 10
286.29758134896878
 20
219.65312762251079
 11
286.76543108416939
 21
219.96908732527868
  0
LINE
  8
_0-8_
  6
CONTINUOUS
 62
    7
 10
286.76543108416939
 20
219.96908732527868
 11
287.0519507320011
 21
220.30583125011628
  0
LINE
  8
_0-8_
  6
CONTINUOUS
 62
    7
 10
287.0519507320011
 20
220.30583125011628
 11
287.14843453795055
 21
220.6531276032681
  0
LINE
  8
_0-8_
  6
CONTINUOUS
 62
    7
 10
287.14843453795055
 20
220.6531276032681
 11
287.14843453795055
 21
220.65312774689693
  0
LINE
  8
_0-8_
  6
CONTINUOUS
 62
    7
 10
287.14843454012197
 20
220.65312789052575
 11
287.19667636390699
 21
220.30583153300989
  0
LINE
  8
_0-8_
  6
CONTINUOUS
 62
    7
 10
287.19667636390699
 20
220.30583153300989
 11
287.33993611105581
 21
219.96908759521256
  0
LINE
  8
_0-8_
  6
CONTINUOUS
 62
    7
 10
287.33993611105581
 20
219.96908759521256
 11
287.57386090664414
 21
219.65312787128317
  0
LINE
  8
_0-8_
  6
CONTINUOUS
 62
    7
 10
287.57386090664414
 20
219.65312787128317
 11
287.8913430641299
 21
219.36755263754998
  0
LINE
  8
_0-8_
  6
CONTINUOUS
 62
    7
 10
287.8913430641299
 20
219.36755263754998
 11
288.28273604881139
 21
219.12103895298191
  0
LINE
  8
_0-8_
  6
CONTINUOUS
 62
    7
 10
288.28273604881139
 20
219.12103895298191
 11
288.73614758290358
 21
218.92107701114259
  0
LINE
  8
_0-8_
  6
CONTINUOUS
 62
    7
 10
288.73614758290358
 20
218.92107701114259
 11
289.23780098638048
 21
218.77374255444914
  0
LINE
  8
_0-8_
  6
CONTINUOUS
 62
    7
 10
289.23780098638048
 20
218.77374255444914
 11
289.77245377442608
 21
218.68351226581353
  0
LINE
  8
_0-8_
  6
CONTINUOUS
 62
    7
 10
289.77245377442608
 20
218.68351226581353
 11
290.32386079262318
 21
218.65312774689704
  0
LINE
  8
_0-8_
  6
CONTINUOUS
 62
    7
 10
290.32386079262318
 20
218.65312774689704
 11
290.87526781774915
 21
218.68351221593173
  0
LINE
  8
_0-8_
  6
CONTINUOUS
 62
    7
 10
290.87526781774915
 20
218.68351221593173
 11
291.40992062637105
 21
218.77374245620126
  0
LINE
  8
_0-8_
  6
CONTINUOUS
 62
    7
 10
291.40992062637105
 20
218.77374245620126
 11
291.91157406344615
 21
218.92107686751376
  0
LINE
  8
_0-8_
  6
CONTINUOUS
 62
    7
 10
291.91157406344615
 20
218.92107686751376
 11
292.36498564313803
 21
219.12103876833623
  0
LINE
  8
_0-8_
  6
CONTINUOUS
 62
    7
 10
292.36498564313803
 20
219.12103876833623
 11
292.75637868403481
 21
219.36755241749785
  0
LINE
  8
_0-8_
  6
CONTINUOUS
 62
    7
 10
292.75637868403481
 20
219.36755241749785
 11
293.07386090664346
 21
219.65312762251079
  0
LINE
  8
_0-8_
  6
CONTINUOUS
 62
    7
 10
293.07386090664346
 20
219.65312762251079
 11
293.30778577428379
 21
219.96908732527868
  0
LINE
  8
_0-8_
  6
CONTINUOUS
 62
    7
 10
293.30778577428379
 20
219.96908732527868
 11
293.4510455982242
 21
220.30583125011628
  0
LINE
  8
_0-8_
  6
CONTINUOUS
 62
    7
 10
293.4510455982242
 20
220.30583125011628
 11
293.49928750120711
 21
220.6531276032681
  0
LINE
  8
_0-8_
  6
CONTINUOUS
 62
    7
 10
293.49928750120711
 20
220.6531276032681
 11
293.49928750120711
 21
220.65312774689693
  0
LINE
  8
_0-8_
  6
CONTINUOUS
 62
    7
 10
267.51852538767508
 20
299.45313174689738
 11
267.51852538767508
 21
294.75313174689711
  0
LINE
  8
_0-8_
  6
CONTINUOUS
 62
    7
 10
270.83828943551538
 20
292.75313174689722
 11
290.75687372255715
 21
292.75313174689722
  0
LINE
  8
_0-8_
  6
CONTINUOUS
 62
    7
 10
287.43710967471685
 20
294.75313174689711
 11
287.43710967471685
 21
299.45313174689738
  0
LINE
  8
_0-8_
  6
CONTINUOUS
 62
    7
 10
290.75687372255715
 20
301.45313174689727
 11
270.83828943551538
 21
301.45313174689727
  0
LINE
  8
_0-8_
  6
CONTINUOUS
 62
    7
 10
274.15805348335567
 20
299.45313174689738
 11
274.15805348335567
 21
294.75313174689711
  0
LINE
  8
_0-8_
  6
CONTINUOUS
 62
    7
 10
294.07663777039744
 20
294.75313174689711
 11
294.07663777039744
 21
299.45313174689738
  0
LINE
  8
_0-8_
  6
CONTINUOUS
 62
    7
 10
267.51852538767508
 20
294.75313174689711
 11
267.56896006303106
 21
294.4058353915633
  0
LINE
  8
_0-8_
  6
CONTINUOUS
 62
    7
 10
267.56896006303106
 20
294.4058353915633
 11
267.71873165700953
 21
294.06909146024577
  0
LINE
  8
_0-8_
  6
CONTINUOUS
 62
    7
 10
267.71873165700953
 20
294.06909146024577
 11
267.96328943551538
 21
293.75313174689717
  0
LINE
  8
_0-8_
  6
CONTINUOUS
 62
    7
 10
267.96328943551538
 20
293.75313174689717
 11
268.29520263420119
 21
293.4675565275241
  0
LINE
  8
_0-8_
  6
CONTINUOUS
 62
    7
 10
268.29520263420119
 20
293.4675565275241
 11
268.70438623848082
 21
293.22104286065928
  0
LINE
  8
_0-8_
  6
CONTINUOUS
 62
    7
 10
268.70438623848082
 20
293.22104286065928
 11
269.17840741159517
 21
293.02108093932833
  0
LINE
  8
_0-8_
  6
CONTINUOUS
 62
    7
 10
269.17840741159517
 20
293.02108093932833
 11
269.70286326006561
 21
292.87374650532541
  0
LINE
  8
_0-8_
  6
CONTINUOUS
 62
    7
 10
269.70286326006561
 20
292.87374650532541
 11
270.26181845832372
 21
292.78351624087281
  0
LINE
  8
_0-8_
  6
CONTINUOUS
 62
    7
 10
270.26181845832372
 20
292.78351624087281
 11
270.83828943551538
 21
292.75313174689722
  0
LINE
  8
_0-8_
  6
CONTINUOUS
 62
    7
 10
270.83828943551538
 20
292.75313174689722
 11
271.41476041270704
 21
292.78351624087281
  0
LINE
  8
_0-8_
  6
CONTINUOUS
 62
    7
 10
271.41476041270704
 20
292.78351624087281
 11
271.97371561096514
 21
292.87374650532541
  0
LINE
  8
_0-8_
  6
CONTINUOUS
 62
    7
 10
271.97371561096514
 20
292.87374650532541
 11
272.49817145943547
 21
293.02108093932833
  0
LINE
  8
_0-8_
  6
CONTINUOUS
 62
    7
 10
272.49817145943547
 20
293.02108093932833
 11
272.97219263254993
 21
293.22104286065928
  0
LINE
  8
_0-8_
  6
CONTINUOUS
 62
    7
 10
272.97219263254993
 20
293.22104286065928
 11
273.38137623682957
 21
293.4675565275241
  0
LINE
  8
_0-8_
  6
CONTINUOUS
 62
    7
 10
273.38137623682957
 20
293.4675565275241
 11
273.71328943551538
 21
293.75313174689717
  0
LINE
  8
_0-8_
  6
CONTINUOUS
 62
    7
 10
273.71328943551538
 20
293.75313174689717
 11
273.95784721402123
 21
294.06909146024577
  0
LINE
  8
_0-8_
  6
CONTINUOUS
 62
    7
 10
273.95784721402123
 20
294.06909146024577
 11
274.1076188079997
 21
294.4058353915633
  0
LINE
  8
_0-8_
  6
CONTINUOUS
 62
    7
 10
274.1076188079997
 20
294.4058353915633
 11
274.15805348335567
 21
294.75313168265239
  0
LINE
  8
_0-8_
  6
CONTINUOUS
 62
    7
 10
274.15805348335567
 20
294.75313174689711
 11
274.25892283406762
 21
294.4058353915633
  0
LINE
  8
_0-8_
  6
CONTINUOUS
 62
    7
 10
274.25892283406762
 20
294.4058353915633
 11
274.55846602202445
 21
294.06909146024577
  0
LINE
  8
_0-8_
  6
CONTINUOUS
 62
    7
 10
274.55846602202445
 20
294.06909146024577
 11
275.04758157903638
 21
293.75313174689717
  0
LINE
  8
_0-8_
  6
CONTINUOUS
 62
    7
 10
275.04758157903638
 20
293.75313174689717
 11
275.71140797640777
 21
293.4675565275241
  0
LINE
  8
_0-8_
  6
CONTINUOUS
 62
    7
 10
275.71140797640777
 20
293.4675565275241
 11
276.52977518496715
 21
293.22104286065928
  0
LINE
  8
_0-8_
  6
CONTINUOUS
 62
    7
 10
276.52977518496715
 20
293.22104286065928
 11
277.47781753119597
 21
293.02108093932833
  0
LINE
  8
_0-8_
  6
CONTINUOUS
 62
    7
 10
277.47781753119597
 20
293.02108093932833
 11
278.52672922813673
 21
292.87374650532541
  0
LINE
  8
_0-8_
  6
CONTINUOUS
 62
    7
 10
278.52672922813673
 20
292.87374650532541
 11
279.64463962465294
 21
292.78351624087281
  0
LINE
  8
_0-8_
  6
CONTINUOUS
 62
    7
 10
279.64463962465294
 20
292.78351624087281
 11
280.79758157903626
 21
292.75313174689722
  0
LINE
  8
_0-8_
  6
CONTINUOUS
 62
    7
 10
280.79758157903626
 20
292.75313174689722
 11
281.95052353341958
 21
292.78351624087281
  0
LINE
  8
_0-8_
  6
CONTINUOUS
 62
    7
 10
281.95052353341958
 20
292.78351624087281
 11
283.06843392993579
 21
292.87374650532541
  0
LINE
  8
_0-8_
  6
CONTINUOUS
 62
    7
 10
283.06843392993579
 20
292.87374650532541
 11
284.11734562687656
 21
293.02108093932833
  0
LINE
  8
_0-8_
  6
CONTINUOUS
 62
    7
 10
284.11734562687656
 20
293.02108093932833
 11
285.06538797310537
 21
293.22104286065928
  0
LINE
  8
_0-8_
  6
CONTINUOUS
 62
    7
 10
285.06538797310537
 20
293.22104286065928
 11
285.88375518166475
 21
293.4675565275241
  0
LINE
  8
_0-8_
  6
CONTINUOUS
 62
    7
 10
285.88375518166475
 20
293.4675565275241
 11
286.54758157903615
 21
293.75313174689717
  0
LINE
  8
_0-8_
  6
CONTINUOUS
 62
    7
 10
286.54758157903615
 20
293.75313174689717
 11
287.03669713604808
 21
294.06909146024577
  0
LINE
  8
_0-8_
  6
CONTINUOUS
 62
    7
 10
287.03669713604808
 20
294.06909146024577
 11
287.3362403240049
 21
294.4058353915633
  0
LINE
  8
_0-8_
  6
CONTINUOUS
 62
    7
 10
287.3362403240049
 20
294.4058353915633
 11
287.43710967471685
 21
294.75313174689711
  0
LINE
  8
_0-8_
  6
CONTINUOUS
 62
    7
 10
287.43710967471685
 20
294.75313168265239
 11
287.48754436859048
 21
294.40583532829459
  0
LINE
  8
_0-8_
  6
CONTINUOUS
 62
    7
 10
287.48754436859048
 20
294.40583532829459
 11
287.63731598052385
 21
294.06909139987556
  0
LINE
  8
_0-8_
  6
CONTINUOUS
 62
    7
 10
287.63731598052385
 20
294.06909139987556
 11
287.8818737758765
 21
293.75313169125963
  0
LINE
  8
_0-8_
  6
CONTINUOUS
 62
    7
 10
287.8818737758765
 20
293.75313169125963
 11
288.21378698978896
 21
293.4675564783098
  0
LINE
  8
_0-8_
  6
CONTINUOUS
 62
    7
 10
288.21378698978896
 20
293.4675564783098
 11
288.62297060721249
 21
293.22104281936356
  0
LINE
  8
_0-8_
  6
CONTINUOUS
 62
    7
 10
288.62297060721249
 20
293.22104281936356
 11
289.09699179098874
 21
293.02108090720594
  0
LINE
  8
_0-8_
  6
CONTINUOUS
 62
    7
 10
289.09699179098874
 20
293.02108090720594
 11
289.62144764731494
 21
292.87374648335242
  0
LINE
  8
_0-8_
  6
CONTINUOUS
 62
    7
 10
289.62144764731494
 20
292.87374648335242
 11
290.18040285038404
 21
292.78351622971684
  0
LINE
  8
_0-8_
  6
CONTINUOUS
 62
    7
 10
290.18040285038404
 20
292.78351622971684
 11
290.75687382919574
 21
292.75313174689722
  0
LINE
  8
_0-8_
  6
CONTINUOUS
 62
    7
 10
290.75687382919574
 20
292.75313174689722
 11
291.33334480476736
 21
292.78351625202879
  0
LINE
  8
_0-8_
  6
CONTINUOUS
 62
    7
 10
291.33334480476736
 20
292.78351625202879
 11
291.89229999821447
 21
292.87374652729841
  0
LINE
  8
_0-8_
  6
CONTINUOUS
 62
    7
 10
291.89229999821447
 20
292.87374652729841
 11
292.41675583882903
 21
293.02108097145071
  0
LINE
  8
_0-8_
  6
CONTINUOUS
 62
    7
 10
292.41675583882903
 20
293.02108097145071
 11
292.89077700128161
 21
293.22104290195495
  0
LINE
  8
_0-8_
  6
CONTINUOUS
 62
    7
 10
292.89077700128161
 20
293.22104290195495
 11
293.29996059241734
 21
293.46755657673839
  0
LINE
  8
_0-8_
  6
CONTINUOUS
 62
    7
 10
293.29996059241734
 20
293.46755657673839
 11
293.63187377587639
 21
293.75313180253471
  0
LINE
  8
_0-8_
  6
CONTINUOUS
 62
    7
 10
293.63187377587639
 20
293.75313180253471
 11
293.87643153753555
 21
294.0690915206161
  0
LINE
  8
_0-8_
  6
CONTINUOUS
 62
    7
 10
293.87643153753555
 20
294.0690915206161
 11
294.02620311355901
 21
294.40583545483196
  0
LINE
  8
_0-8_
  6
CONTINUOUS
 62
    7
 10
294.02620311355901
 20
294.40583545483196
 11
294.07663777039744
 21
294.75313174689711
  0
LINE
  8
_0-8_
  6
CONTINUOUS
 62
    7
 10
287.43710967471685
 20
299.45313174689738
 11
287.3362403240049
 21
299.80042810223119
  0
LINE
  8
_0-8_
  6
CONTINUOUS
 62
    7
 10
287.3362403240049
 20
299.80042810223119
 11
287.03669713604808
 21
300.13717203354872
  0
LINE
  8
_0-8_
  6
CONTINUOUS
 62
    7
 10
287.03669713604808
 20
300.13717203354872
 11
286.54758157903615
 21
300.45313174689733
  0
LINE
  8
_0-8_
  6
CONTINUOUS
 62
    7
 10
286.54758157903615
 20
300.45313174689733
 11
285.88375518166475
 21
300.7387069662704
  0
LINE
  8
_0-8_
  6
CONTINUOUS
 62
    7
 10
285.88375518166475
 20
300.7387069662704
 11
285.06538797310537
 21
300.98522063313521
  0
LINE
  8
_0-8_
  6
CONTINUOUS
 62
    7
 10
285.06538797310537
 20
300.98522063313521
 11
284.11734562687656
 21
301.18518255446617
  0
LINE
  8
_0-8_
  6
CONTINUOUS
 62
    7
 10
284.11734562687656
 20
301.18518255446617
 11
283.06843392993579
 21
301.33251698846908
  0
LINE
  8
_0-8_
  6
CONTINUOUS
 62
    7
 10
283.06843392993579
 20
301.33251698846908
 11
281.95052353341958
 21
301.42274725292168
  0
LINE
  8
_0-8_
  6
CONTINUOUS
 62
    7
 10
281.95052353341958
 20
301.42274725292168
 11
280.79758157903626
 21
301.45313174689727
  0
LINE
  8
_0-8_
  6
CONTINUOUS
 62
    7
 10
280.79758157903626
 20
301.45313174689727
 11
279.64463962465294
 21
301.42274725292168
  0
LINE
  8
_0-8_
  6
CONTINUOUS
 62
    7
 10
279.64463962465294
 20
301.42274725292168
 11
278.52672922813673
 21
301.33251698846908
  0
LINE
  8
_0-8_
  6
CONTINUOUS
 62
    7
 10
278.52672922813673
 20
301.33251698846908
 11
277.47781753119597
 21
301.18518255446617
  0
LINE
  8
_0-8_
  6
CONTINUOUS
 62
    7
 10
277.47781753119597
 20
301.18518255446617
 11
276.52977518496715
 21
300.98522063313521
  0
LINE
  8
_0-8_
  6
CONTINUOUS
 62
    7
 10
276.52977518496715
 20
300.98522063313521
 11
275.71140797640777
 21
300.7387069662704
  0
LINE
  8
_0-8_
  6
CONTINUOUS
 62
    7
 10
275.71140797640777
 20
300.7387069662704
 11
275.04758157903638
 21
300.45313174689733
  0
LINE
  8
_0-8_
  6
CONTINUOUS
 62
    7
 10
275.04758157903638
 20
300.45313174689733
 11
274.55846602202445
 21
300.13717203354872
  0
LINE
  8
_0-8_
  6
CONTINUOUS
 62
    7
 10
274.55846602202445
 20
300.13717203354872
 11
274.25892283406762
 21
299.80042810223119
  0
LINE
  8
_0-8_
  6
CONTINUOUS
 62
    7
 10
274.25892283406762
 20
299.80042810223119
 11
274.15805348335567
 21
299.45313174689738
  0
LINE
  8
_0-8_
  6
CONTINUOUS
 62
    7
 10
294.07663777039744
 20
299.45313174689738
 11
294.02620309504147
 21
299.80042810223119
  0
LINE
  8
_0-8_
  6
CONTINUOUS
 62
    7
 10
294.02620309504147
 20
299.80042810223119
 11
293.876431501063
 21
300.13717203354872
  0
LINE
  8
_0-8_
  6
CONTINUOUS
 62
    7
 10
293.876431501063
 20
300.13717203354872
 11
293.63187372255715
 21
300.45313174689733
  0
LINE
  8
_0-8_
  6
CONTINUOUS
 62
    7
 10
293.63187372255715
 20
300.45313174689733
 11
293.29996052387133
 21
300.7387069662704
  0
LINE
  8
_0-8_
  6
CONTINUOUS
 62
    7
 10
293.29996052387133
 20
300.7387069662704
 11
292.8907769195917
 21
300.98522063313521
  0
LINE
  8
_0-8_
  6
CONTINUOUS
 62
    7
 10
292.8907769195917
 20
300.98522063313521
 11
292.41675574647735
 21
301.18518255446617
  0
LINE
  8
_0-8_
  6
CONTINUOUS
 62
    7
 10
292.41675574647735
 20
301.18518255446617
 11
291.89229989800691
 21
301.33251698846908
  0
LINE
  8
_0-8_
  6
CONTINUOUS
 62
    7
 10
291.89229989800691
 20
301.33251698846908
 11
291.33334469974881
 21
301.42274725292168
  0
LINE
  8
_0-8_
  6
CONTINUOUS
 62
    7
 10
291.33334469974881
 20
301.42274725292168
 11
290.75687372255715
 21
301.45313174689727
  0
LINE
  8
_0-8_
  6
CONTINUOUS
 62
    7
 10
290.75687372255715
 20
301.45313174689727
 11
290.18040274536548
 21
301.42274725292168
  0
LINE
  8
_0-8_
  6
CONTINUOUS
 62
    7
 10
290.18040274536548
 20
301.42274725292168
 11
289.62144754710738
 21
301.33251698846908
  0
LINE
  8
_0-8_
  6
CONTINUOUS
 62
    7
 10
289.62144754710738
 20
301.33251698846908
 11
289.09699169863705
 21
301.18518255446617
  0
LINE
  8
_0-8_
  6
CONTINUOUS
 62
    7
 10
289.09699169863705
 20
301.18518255446617
 11
288.62297052552259
 21
300.98522063313521
  0
LINE
  8
_0-8_
  6
CONTINUOUS
 62
    7
 10
288.62297052552259
 20
300.98522063313521
 11
288.21378692124296
 21
300.7387069662704
  0
LINE
  8
_0-8_
  6
CONTINUOUS
 62
    7
 10
288.21378692124296
 20
300.7387069662704
 11
287.88187372255715
 21
300.45313174689733
  0
LINE
  8
_0-8_
  6
CONTINUOUS
 62
    7
 10
287.88187372255715
 20
300.45313174689733
 11
287.63731594405129
 21
300.13717203354872
  0
LINE
  8
_0-8_
  6
CONTINUOUS
 62
    7
 10
287.63731594405129
 20
300.13717203354872
 11
287.48754435007282
 21
299.80042810223119
  0
LINE
  8
_0-8_
  6
CONTINUOUS
 62
    7
 10
287.48754435007282
 20
299.80042810223119
 11
287.43710967471685
 21
299.4531318111421
  0
LINE
  8
_0-8_
  6
CONTINUOUS
 62
    7
 10
274.15805348335567
 20
299.4531318111421
 11
274.10761878948205
 21
299.80042816549991
  0
LINE
  8
_0-8_
  6
CONTINUOUS
 62
    7
 10
274.10761878948205
 20
299.80042816549991
 11
273.95784717754867
 21
300.13717209391893
  0
LINE
  8
_0-8_
  6
CONTINUOUS
 62
    7
 10
273.95784717754867
 20
300.13717209391893
 11
273.71328938219602
 21
300.45313180253487
  0
LINE
  8
_0-8_
  6
CONTINUOUS
 62
    7
 10
273.71328938219602
 20
300.45313180253487
 11
273.38137616828357
 21
300.73870701548469
  0
LINE
  8
_0-8_
  6
CONTINUOUS
 62
    7
 10
273.38137616828357
 20
300.73870701548469
 11
272.97219255086003
 21
300.98522067443093
  0
LINE
  8
_0-8_
  6
CONTINUOUS
 62
    7
 10
272.97219255086003
 20
300.98522067443093
 11
272.49817136708378
 21
301.18518258658855
  0
LINE
  8
_0-8_
  6
CONTINUOUS
 62
    7
 10
272.49817136708378
 20
301.18518258658855
 11
271.97371551075759
 21
301.33251701044207
  0
LINE
  8
_0-8_
  6
CONTINUOUS
 62
    7
 10
271.97371551075759
 20
301.33251701044207
 11
271.41476030768848
 21
301.42274726407766
  0
LINE
  8
_0-8_
  6
CONTINUOUS
 62
    7
 10
271.41476030768848
 20
301.42274726407766
 11
270.83828932887678
 21
301.45313174689727
  0
LINE
  8
_0-8_
  6
CONTINUOUS
 62
    7
 10
270.83828932887678
 20
301.45313174689727
 11
270.26181835330516
 21
301.42274724176571
  0
LINE
  8
_0-8_
  6
CONTINUOUS
 62
    7
 10
270.26181835330516
 20
301.42274724176571
 11
269.70286315985805
 21
301.33251696649609
  0
LINE
  8
_0-8_
  6
CONTINUOUS
 62
    7
 10
269.70286315985805
 20
301.33251696649609
 11
269.17840731924349
 21
301.18518252234378
  0
LINE
  8
_0-8_
  6
CONTINUOUS
 62
    7
 10
269.17840731924349
 20
301.18518252234378
 11
268.70438615679092
 21
300.98522059183955
  0
LINE
  8
_0-8_
  6
CONTINUOUS
 62
    7
 10
268.70438615679092
 20
300.98522059183955
 11
268.29520256565519
 21
300.73870691705611
  0
LINE
  8
_0-8_
  6
CONTINUOUS
 62
    7
 10
268.29520256565519
 20
300.73870691705611
 11
267.96328938219614
 21
300.45313169125978
  0
LINE
  8
_0-8_
  6
CONTINUOUS
 62
    7
 10
267.96328938219614
 20
300.45313169125978
 11
267.71873162053697
 21
300.1371719731784
  0
LINE
  8
_0-8_
  6
CONTINUOUS
 62
    7
 10
267.71873162053697
 20
300.1371719731784
 11
267.56896004451352
 21
299.80042803896254
  0
LINE
  8
_0-8_
  6
CONTINUOUS
 62
    7
 10
267.56896004451352
 20
299.80042803896254
 11
267.51852538767508
 21
299.45313174689738
  0
LINE
  8
_0-8_
  6
CONTINUOUS
 62
    7
 10
288.79758154425446
 20
292.75313174689722
 11
288.79758154425446
 21
228.45312774689683
  0
LINE
  8
_0-8_
  6
CONTINUOUS
 62
    7
 10
287.89758148365451
 20
228.45312774689683
 11
287.89758148365451
 21
292.75313174689722
  0
LINE
  8
_0-8_
  6
CONTINUOUS
 62
    7
 10
273.69758167435424
 20
292.75313174689722
 11
273.69758167435424
 21
228.45312774689683
  0
LINE
  8
_0-8_
  6
CONTINUOUS
 62
    7
 10
272.79758154425423
 20
228.45312774689683
 11
272.79758154425423
 21
292.75313174689722
  0
LINE
  8
_0-9_
  6
PHANTOM1
 62
  152
 10
255.79758157903626
 20
268.45312774689637
 11
255.79758157903626
 21
271.45312774689705
  0
LINE
  8
_0-9_
  6
PHANTOM1
 62
  152
 10
257.74758157903608
 20
265.45312774689683
 11
257.74758157903608
 21
268.45312774689637
  0
LINE
  8
_0-9_
  6
PHANTOM1
 62
  152
 10
256.04758157903603
 20
271.45312774689705
 11
256.04758157903603
 21
278.95312774689705
  0
ARC
  8
_0-9_
  6
PHANTOM1
 62
  152
 10
259.04758157903626
 20
278.95312774689705
 40
2.9999999999999858
 50
89.999999999999829
 51
180.0000000000002
  0
LINE
  8
_0-9_
  6
PHANTOM1
 62
  152
 10
303.8475815790369
 20
265.45312774689683
 11
257.74758157903608
 21
265.45312774689683
  0
ARC
  8
_0-9_
  6
PHANTOM1
 62
  152
 10
302.54758157903626
 20
278.95312774689705
 40
2.9999999999999933
 50
359.99999999999977
 51
90.000000000000199
  0
LINE
  8
_0-9_
  6
PHANTOM1
 62
  152
 10
305.54758157903649
 20
278.95312774689705
 11
305.54758157903649
 21
271.45312774689705
  0
LINE
  8
_0-9_
  6
PHANTOM1
 62
  152
 10
305.79758157903626
 20
271.45312774689705
 11
305.79758157903626
 21
268.45312774689637
  0
LINE
  8
_0-9_
  6
PHANTOM1
 62
  152
 10
303.8475815790369
 20
268.45312774689637
 11
303.8475815790369
 21
265.45312774689683
  0
LINE
  8
_0-9_
  6
PHANTOM1
 62
  152
 10
255.79758157903626
 20
271.45312774689705
 11
256.04758157903603
 21
271.45312774689705
  0
LINE
  8
_0-9_
  6
PHANTOM1
 62
  152
 10
305.54758157903649
 20
271.45312774689705
 11
305.79758157903626
 21
271.45312774689705
  0
LINE
  8
_0-9_
  6
PHANTOM1
 62
  152
 10
305.79758157903626
 20
268.45312774689637
 11
303.8475815790369
 21
268.45312774689637
  0
LINE
  8
_0-9_
  6
PHANTOM1
 62
  152
 10
257.74758157903608
 20
268.45312774689637
 11
255.79758157903626
 21
268.45312774689637
  0
LINE
  8
_0-9_
  6
PHANTOM1
 62
  152
 10
298.79758157903626
 20
281.9531277468966
 11
302.54758157903626
 21
281.9531277468966
  0
LINE
  8
_0-9_
  6
PHANTOM1
 62
  152
 10
268.09587565686485
 20
291.45312774689637
 11
268.09587565686485
 21
284.35312774689669
  0
LINE
  8
_0-9_
  6
PHANTOM1
 62
  152
 10
298.79758157903626
 20
281.9531277468966
 11
298.79758157903626
 21
282.35312774689692
  0
LINE
  8
_0-9_
  6
PHANTOM1
 62
  152
 10
263.04758157903581
 20
282.35312774689692
 11
263.04758157903581
 21
281.9531277468966
  0
LINE
  8
_0-9_
  6
PHANTOM1
 62
  152
 10
259.04758157903626
 20
281.9531277468966
 11
263.04758157903581
 21
281.9531277468966
  0
LINE
  8
_0-9_
  6
PHANTOM1
 62
  152
 10
290.32386102066454
 20
282.3531277468968
 11
290.32386102066454
 21
282.3531277468968
  0
LINE
  8
_0-9_
  6
PHANTOM1
 62
  152
 10
290.32386102066454
 20
282.3531277468968
 11
290.87526804232607
 21
282.38351224087239
  0
LINE
  8
_0-9_
  6
PHANTOM1
 62
  152
 10
290.87526804232607
 20
282.38351224087239
 11
291.40992084065982
 21
282.47374250532499
  0
LINE
  8
_0-9_
  6
PHANTOM1
 62
  152
 10
291.40992084065982
 20
282.47374250532499
 11
291.91157426093582
 21
282.62107693932791
  0
LINE
  8
_0-9_
  6
PHANTOM1
 62
  152
 10
291.91157426093582
 20
282.62107693932791
 11
292.36498581782786
 21
282.8210388606588
  0
LINE
  8
_0-9_
  6
PHANTOM1
 62
  152
 10
292.36498581782786
 20
282.8210388606588
 11
292.75637883061705
 21
283.06755252752367
  0
LINE
  8
_0-9_
  6
PHANTOM1
 62
  152
 10
292.75637883061705
 20
283.06755252752367
 11
293.0738610206642
 21
283.35312774689675
  0
LINE
  8
_0-9_
  6
PHANTOM1
 62
  152
 10
293.0738610206642
 20
283.35312774689675
 11
293.30778585227858
 21
283.66908746024541
  0
LINE
  8
_0-9_
  6
PHANTOM1
 62
  152
 10
293.30778585227858
 20
283.66908746024541
 11
293.45104563782314
 21
284.00583139156282
  0
LINE
  8
_0-9_
  6
PHANTOM1
 62
  152
 10
293.45104563782314
 20
284.00583139156282
 11
293.49928750120711
 21
284.35312774689669
  0
LINE
  8
_0-9_
  6
PHANTOM1
 62
  152
 10
298.79758157903626
 20
282.35312774689692
 11
290.32386102066454
 21
282.35312774689692
  0
LINE
  8
_0-9_
  6
PHANTOM1
 62
  152
 10
263.04758157903581
 20
282.35312774689692
 11
271.27130213740799
 21
282.35312774689692
  0
LINE
  8
_0-9_
  6
PHANTOM1
 62
  152
 10
268.09587565686542
 20
284.35312774689669
 11
268.09587565686542
 21
284.35312774689669
  0
LINE
  8
_0-9_
  6
PHANTOM1
 62
  152
 10
268.09587565686542
 20
284.35312774689669
 11
268.14411752024938
 21
284.00583139156282
  0
LINE
  8
_0-9_
  6
PHANTOM1
 62
  152
 10
268.14411752024938
 20
284.00583139156282
 11
268.28737730579394
 21
283.66908746024541
  0
LINE
  8
_0-9_
  6
PHANTOM1
 62
  152
 10
268.28737730579394
 20
283.66908746024541
 11
268.52130213740833
 21
283.35312774689675
  0
LINE
  8
_0-9_
  6
PHANTOM1
 62
  152
 10
268.52130213740833
 20
283.35312774689675
 11
268.83878432745547
 21
283.06755252752367
  0
LINE
  8
_0-9_
  6
PHANTOM1
 62
  152
 10
268.83878432745547
 20
283.06755252752367
 11
269.23017734024467
 21
282.8210388606588
  0
LINE
  8
_0-9_
  6
PHANTOM1
 62
  152
 10
269.23017734024467
 20
282.8210388606588
 11
269.6835888971367
 21
282.62107693932791
  0
LINE
  8
_0-9_
  6
PHANTOM1
 62
  152
 10
269.6835888971367
 20
282.62107693932791
 11
270.1852423174127
 21
282.47374250532499
  0
LINE
  8
_0-9_
  6
PHANTOM1
 62
  152
 10
270.1852423174127
 20
282.47374250532499
 11
270.71989511574645
 21
282.38351224087239
  0
LINE
  8
_0-9_
  6
PHANTOM1
 62
  152
 10
270.71989511574645
 20
282.38351224087239
 11
271.27130213740799
 21
282.3531277468968
  0
LINE
  8
_0-9_
  6
PHANTOM1
 62
  152
 10
293.49928750120768
 20
284.35312774689669
 11
293.49928750120768
 21
291.45312774689637
  0
LINE
  8
_0-8_
  6
CONTINUOUS
 62
  152
 10
714.09840017903616
 20
215.25312774689706
 11
664.09840017903616
 21
215.25312774689706
  0
LINE
  8
_0-8_
  6
CONTINUOUS
 62
    7
 10
663.84840017903639
 20
207.45312774689705
 11
663.84840017903639
 21
204.45312774689694
  0
LINE
  8
_0-8_
  6
CONTINUOUS
 62
    7
 10
663.84840017903639
 20
204.45312774689694
 11
714.34840017903593
 21
204.45312774689694
  0
LINE
  8
_0-8_
  6
CONTINUOUS
 62
    7
 10
714.34840017903593
 20
204.45312774689694
 11
714.34840017903593
 21
207.45312774689705
  0
LINE
  8
_0-8_
  6
CONTINUOUS
 62
    7
 10
714.34840017903593
 20
207.45312774689705
 11
663.84840017903639
 21
207.45312774689705
  0
LINE
  8
_0-8_
  6
CONTINUOUS
 62
    7
 10
665.79840017903621
 20
204.45312774689694
 11
665.79840017903621
 21
201.45312774689683
  0
LINE
  8
_0-8_
  6
CONTINUOUS
 62
    7
 10
665.79840017903621
 20
201.45312774689683
 11
712.39840017903657
 21
201.45312774689683
  0
LINE
  8
_0-8_
  6
CONTINUOUS
 62
    7
 10
712.39840017903657
 20
201.45312774689683
 11
712.39840017903657
 21
204.45312774689694
  0
LINE
  8
_0-8_
  6
CONTINUOUS
 62
    7
 10
676.39669425686475
 20
228.45312774689683
 11
701.80010610120758
 21
228.45312774689683
  0
LINE
  8
_0-8_
  6
CONTINUOUS
 62
    7
 10
682.74754721795034
 20
228.45312774689683
 11
682.74754721795034
 21
220.65312774689693
  0
LINE
  8
_0-8_
  6
CONTINUOUS
 62
    7
 10
676.39669425686475
 20
220.65312774689693
 11
676.39669425686475
 21
228.45312774689683
  0
LINE
  8
_0-8_
  6
CONTINUOUS
 62
    7
 10
701.80010610120758
 20
228.45312774689683
 11
701.80010610120758
 21
220.65312774689693
  0
LINE
  8
_0-8_
  6
CONTINUOUS
 62
    7
 10
695.44925313795034
 20
220.65312774689693
 11
695.44925313795034
 21
228.45312774689683
  0
LINE
  8
_0-8_
  6
CONTINUOUS
 62
    7
 10
707.09840017903616
 20
218.65312774689704
 11
707.09840017903616
 21
218.25312774689684
  0
LINE
  8
_0-8_
  6
CONTINUOUS
 62
    7
 10
707.09840017903616
 20
218.65312774689704
 11
671.09840017903593
 21
218.65312774689704
  0
LINE
  8
_0-8_
  6
CONTINUOUS
 62
    7
 10
671.09840017903593
 20
218.65312774689704
 11
671.09840017903593
 21
218.25312774689684
  0
LINE
  8
_0-8_
  6
CONTINUOUS
 62
    7
 10
667.09840017903616
 20
218.25312774689684
 11
711.09840017874103
 21
218.25312774689684
  0
LINE
  8
_0-8_
  6
CONTINUOUS
 62
    7
 10
664.09840017903616
 20
215.25312774689706
 11
664.09840017903616
 21
207.45312774689705
  0
LINE
  8
_0-8_
  6
CONTINUOUS
 62
    7
 10
714.09840017903616
 20
207.45312774689705
 11
714.09840017903616
 21
215.25312774689706
  0
ARC
  8
_0-8_
  6
CONTINUOUS
 62
    7
 10
667.09840017903616
 20
215.25312774689706
 40
2.9999999999999858
 50
89.999999999999829
 51
180.0000000000002
  0
ARC
  8
_0-8_
  6
CONTINUOUS
 62
    7
 10
711.09840017903593
 20
215.25312774689706
 40
2.9999999999999933
 50
359.99999999999977
 51
90.000000000000199
  0
LINE
  8
_0-8_
  6
CONTINUOUS
 62
    7
 10
676.3966942568652
 20
220.65312774689693
 11
676.44493612024917
 21
220.30583139156312
  0
LINE
  8
_0-8_
  6
CONTINUOUS
 62
    7
 10
676.44493612024917
 20
220.30583139156312
 11
676.58819590579378
 21
219.96908746024565
  0
LINE
  8
_0-8_
  6
CONTINUOUS
 62
    7
 10
676.58819590579378
 20
219.96908746024565
 11
676.82212073740811
 21
219.65312774689698
  0
LINE
  8
_0-8_
  6
CONTINUOUS
 62
    7
 10
676.82212073740811
 20
219.65312774689698
 11
677.13960292745537
 21
219.36755252752391
  0
LINE
  8
_0-8_
  6
CONTINUOUS
 62
    7
 10
677.13960292745537
 20
219.36755252752391
 11
677.53099594024457
 21
219.12103886065904
  0
LINE
  8
_0-8_
  6
CONTINUOUS
 62
    7
 10
677.53099594024457
 20
219.12103886065904
 11
677.98440749713654
 21
218.92107693932815
  0
LINE
  8
_0-8_
  6
CONTINUOUS
 62
    7
 10
677.98440749713654
 20
218.92107693932815
 11
678.48606091741249
 21
218.77374250532523
  0
LINE
  8
_0-8_
  6
CONTINUOUS
 62
    7
 10
678.48606091741249
 20
218.77374250532523
 11
679.0207137157463
 21
218.68351224087263
  0
LINE
  8
_0-8_
  6
CONTINUOUS
 62
    7
 10
679.0207137157463
 20
218.68351224087263
 11
679.57212073740789
 21
218.65312774689704
  0
LINE
  8
_0-8_
  6
CONTINUOUS
 62
    7
 10
679.57212073740789
 20
218.65312774689704
 11
680.12352775906925
 21
218.68351224087263
  0
LINE
  8
_0-8_
  6
CONTINUOUS
 62
    7
 10
680.12352775906925
 20
218.68351224087263
 11
680.65818055740306
 21
218.77374250532523
  0
LINE
  8
_0-8_
  6
CONTINUOUS
 62
    7
 10
680.65818055740306
 20
218.77374250532523
 11
681.159833977679
 21
218.92107693932815
  0
LINE
  8
_0-8_
  6
CONTINUOUS
 62
    7
 10
681.159833977679
 20
218.92107693932815
 11
681.61324553457121
 21
219.12103886065904
  0
LINE
  8
_0-8_
  6
CONTINUOUS
 62
    7
 10
681.61324553457121
 20
219.12103886065904
 11
682.0046385473604
 21
219.36755252752391
  0
LINE
  8
_0-8_
  6
CONTINUOUS
 62
    7
 10
682.0046385473604
 20
219.36755252752391
 11
682.32212073740743
 21
219.65312774689698
  0
LINE
  8
_0-8_
  6
CONTINUOUS
 62
    7
 10
682.32212073740743
 20
219.65312774689698
 11
682.55604556902176
 21
219.96908746024565
  0
LINE
  8
_0-8_
  6
CONTINUOUS
 62
    7
 10
682.55604556902176
 20
219.96908746024565
 11
682.69930535456638
 21
220.30583139156312
  0
LINE
  8
_0-8_
  6
CONTINUOUS
 62
    7
 10
682.69930535456638
 20
220.30583139156312
 11
682.74754721795034
 21
220.65312774689693
  0
LINE
  8
_0-8_
  6
CONTINUOUS
 62
    7
 10
682.74754721795034
 20
220.65312774689693
 11
682.74754721795034
 21
220.65312789052575
  0
LINE
  8
_0-8_
  6
CONTINUOUS
 62
    7
 10
682.74754721795034
 20
220.65312789052575
 11
682.84403086550401
 21
220.30583153300989
  0
LINE
  8
_0-8_
  6
CONTINUOUS
 62
    7
 10
682.84403086550401
 20
220.30583153300989
 11
683.13055035975253
 21
219.96908759521256
  0
LINE
  8
_0-8_
  6
CONTINUOUS
 62
    7
 10
683.13055035975253
 20
219.96908759521256
 11
683.5983999508494
 21
219.65312787128317
  0
LINE
  8
_0-8_
  6
CONTINUOUS
 62
    7
 10
683.5983999508494
 20
219.65312787128317
 11
684.23336426571245
 21
219.36755263754998
  0
LINE
  8
_0-8_
  6
CONTINUOUS
 62
    7
 10
684.23336426571245
 20
219.36755263754998
 11
685.01615023494173
 21
219.12103895298191
  0
LINE
  8
_0-8_
  6
CONTINUOUS
 62
    7
 10
685.01615023494173
 20
219.12103895298191
 11
685.92297330297106
 21
218.92107701114259
  0
LINE
  8
_0-8_
  6
CONTINUOUS
 62
    7
 10
685.92297330297106
 20
218.92107701114259
 11
686.92628010975341
 21
218.77374255444914
  0
LINE
  8
_0-8_
  6
CONTINUOUS
 62
    7
 10
686.92628010975341
 20
218.77374255444914
 11
687.99558568566181
 21
218.68351226581353
  0
LINE
  8
_0-8_
  6
CONTINUOUS
 62
    7
 10
687.99558568566181
 20
218.68351226581353
 11
689.09839972186751
 21
218.65312774689704
  0
LINE
  8
_0-8_
  6
CONTINUOUS
 62
    7
 10
689.09839972186751
 20
218.65312774689704
 11
690.20121377193118
 21
218.68351221593173
  0
LINE
  8
_0-8_
  6
CONTINUOUS
 62
    7
 10
690.20121377193118
 20
218.68351221593173
 11
691.27051938899217
 21
218.77374245620126
  0
LINE
  8
_0-8_
  6
CONTINUOUS
 62
    7
 10
691.27051938899217
 20
218.77374245620126
 11
692.27382626297117
 21
218.92107686751376
  0
LINE
  8
_0-8_
  6
CONTINUOUS
 62
    7
 10
692.27382626297117
 20
218.92107686751376
 11
693.18064942219985
 21
219.12103876833623
  0
LINE
  8
_0-8_
  6
CONTINUOUS
 62
    7
 10
693.18064942219985
 20
219.12103876833623
 11
693.96343550385973
 21
219.36755241749785
  0
LINE
  8
_0-8_
  6
CONTINUOUS
 62
    7
 10
693.96343550385973
 20
219.36755241749785
 11
694.59839994896856
 21
219.65312762251079
  0
LINE
  8
_0-8_
  6
CONTINUOUS
 62
    7
 10
694.59839994896856
 20
219.65312762251079
 11
695.06624968416918
 21
219.96908732527868
  0
LINE
  8
_0-8_
  6
CONTINUOUS
 62
    7
 10
695.06624968416918
 20
219.96908732527868
 11
695.35276933200089
 21
220.30583125011628
  0
LINE
  8
_0-8_
  6
CONTINUOUS
 62
    7
 10
695.35276933200089
 20
220.30583125011628
 11
695.44925313795034
 21
220.6531276032681
  0
LINE
  8
_0-8_
  6
CONTINUOUS
 62
    7
 10
695.44925313795034
 20
220.6531276032681
 11
695.44925313795034
 21
220.65312774689693
  0
LINE
  8
_0-8_
  6
CONTINUOUS
 62
    7
 10
695.44925314012175
 20
220.65312789052575
 11
695.49749496390677
 21
220.30583153300989
  0
LINE
  8
_0-8_
  6
CONTINUOUS
 62
    7
 10
695.49749496390677
 20
220.30583153300989
 11
695.64075471105571
 21
219.96908759521256
  0
LINE
  8
_0-8_
  6
CONTINUOUS
 62
    7
 10
695.64075471105571
 20
219.96908759521256
 11
695.87467950664404
 21
219.65312787128317
  0
LINE
  8
_0-8_
  6
CONTINUOUS
 62
    7
 10
695.87467950664404
 20
219.65312787128317
 11
696.1921616641298
 21
219.36755263754998
  0
LINE
  8
_0-8_
  6
CONTINUOUS
 62
    7
 10
696.1921616641298
 20
219.36755263754998
 11
696.58355464881129
 21
219.12103895298191
  0
LINE
  8
_0-8_
  6
CONTINUOUS
 62
    7
 10
696.58355464881129
 20
219.12103895298191
 11
697.03696618290337
 21
218.92107701114259
  0
LINE
  8
_0-8_
  6
CONTINUOUS
 62
    7
 10
697.03696618290337
 20
218.92107701114259
 11
697.53861958638026
 21
218.77374255444914
  0
LINE
  8
_0-8_
  6
CONTINUOUS
 62
    7
 10
697.53861958638026
 20
218.77374255444914
 11
698.07327237442587
 21
218.68351226581353
  0
LINE
  8
_0-8_
  6
CONTINUOUS
 62
    7
 10
698.07327237442587
 20
218.68351226581353
 11
698.62467939262297
 21
218.65312774689704
  0
LINE
  8
_0-8_
  6
CONTINUOUS
 62
    7
 10
698.62467939262297
 20
218.65312774689704
 11
699.17608641774905
 21
218.68351221593173
  0
LINE
  8
_0-8_
  6
CONTINUOUS
 62
    7
 10
699.17608641774905
 20
218.68351221593173
 11
699.71073922637083
 21
218.77374245620126
  0
LINE
  8
_0-8_
  6
CONTINUOUS
 62
    7
 10
699.71073922637083
 20
218.77374245620126
 11
700.21239266344605
 21
218.92107686751376
  0
LINE
  8
_0-8_
  6
CONTINUOUS
 62
    7
 10
700.21239266344605
 20
218.92107686751376
 11
700.66580424313793
 21
219.12103876833623
  0
LINE
  8
_0-8_
  6
CONTINUOUS
 62
    7
 10
700.66580424313793
 20
219.12103876833623
 11
701.0571972840346
 21
219.36755241749785
  0
LINE
  8
_0-8_
  6
CONTINUOUS
 62
    7
 10
701.0571972840346
 20
219.36755241749785
 11
701.37467950664336
 21
219.65312762251079
  0
LINE
  8
_0-8_
  6
CONTINUOUS
 62
    7
 10
701.37467950664336
 20
219.65312762251079
 11
701.60860437428369
 21
219.96908732527868
  0
LINE
  8
_0-8_
  6
CONTINUOUS
 62
    7
 10
701.60860437428369
 20
219.96908732527868
 11
701.75186419822398
 21
220.30583125011628
  0
LINE
  8
_0-8_
  6
CONTINUOUS
 62
    7
 10
701.75186419822398
 20
220.30583125011628
 11
701.80010610120689
 21
220.6531276032681
  0
LINE
  8
_0-8_
  6
CONTINUOUS
 62
    7
 10
701.80010610120689
 20
220.6531276032681
 11
701.80010610120689
 21
220.65312774689693
  0
LINE
  8
_0-8_
  6
CONTINUOUS
 62
    7
 10
675.81934398767498
 20
299.45313174689738
 11
675.81934398767498
 21
294.75313174689711
  0
LINE
  8
_0-8_
  6
CONTINUOUS
 62
    7
 10
679.13910803551516
 20
292.75313174689722
 11
699.05769232255693
 21
292.75313174689722
  0
LINE
  8
_0-8_
  6
CONTINUOUS
 62
    7
 10
695.73792827471675
 20
294.75313174689711
 11
695.73792827471675
 21
299.45313174689738
  0
LINE
  8
_0-8_
  6
CONTINUOUS
 62
    7
 10
699.05769232255693
 20
301.45313174689727
 11
679.13910803551516
 21
301.45313174689727
  0
LINE
  8
_0-8_
  6
CONTINUOUS
 62
    7
 10
682.45887208335557
 20
299.45313174689738
 11
682.45887208335557
 21
294.75313174689711
  0
LINE
  8
_0-8_
  6
CONTINUOUS
 62
    7
 10
702.37745637039734
 20
294.75313174689711
 11
702.37745637039734
 21
299.45313174689738
  0
LINE
  8
_0-8_
  6
CONTINUOUS
 62
    7
 10
675.81934398767498
 20
294.75313174689711
 11
675.86977866303096
 21
294.4058353915633
  0
LINE
  8
_0-8_
  6
CONTINUOUS
 62
    7
 10
675.86977866303096
 20
294.4058353915633
 11
676.01955025700931
 21
294.06909146024577
  0
LINE
  8
_0-8_
  6
CONTINUOUS
 62
    7
 10
676.01955025700931
 20
294.06909146024577
 11
676.26410803551516
 21
293.75313174689717
  0
LINE
  8
_0-8_
  6
CONTINUOUS
 62
    7
 10
676.26410803551516
 20
293.75313174689717
 11
676.59602123420109
 21
293.4675565275241
  0
LINE
  8
_0-8_
  6
CONTINUOUS
 62
    7
 10
676.59602123420109
 20
293.4675565275241
 11
677.00520483848072
 21
293.22104286065928
  0
LINE
  8
_0-8_
  6
CONTINUOUS
 62
    7
 10
677.00520483848072
 20
293.22104286065928
 11
677.47922601159507
 21
293.02108093932833
  0
LINE
  8
_0-8_
  6
CONTINUOUS
 62
    7
 10
677.47922601159507
 20
293.02108093932833
 11
678.0036818600654
 21
292.87374650532541
  0
LINE
  8
_0-8_
  6
CONTINUOUS
 62
    7
 10
678.0036818600654
 20
292.87374650532541
 11
678.56263705832362
 21
292.78351624087281
  0
LINE
  8
_0-8_
  6
CONTINUOUS
 62
    7
 10
678.56263705832362
 20
292.78351624087281
 11
679.13910803551516
 21
292.75313174689722
  0
LINE
  8
_0-8_
  6
CONTINUOUS
 62
    7
 10
679.13910803551516
 20
292.75313174689722
 11
679.71557901270694
 21
292.78351624087281
  0
LINE
  8
_0-8_
  6
CONTINUOUS
 62
    7
 10
679.71557901270694
 20
292.78351624087281
 11
680.27453421096493
 21
292.87374650532541
  0
LINE
  8
_0-8_
  6
CONTINUOUS
 62
    7
 10
680.27453421096493
 20
292.87374650532541
 11
680.79899005943525
 21
293.02108093932833
  0
LINE
  8
_0-8_
  6
CONTINUOUS
 62
    7
 10
680.79899005943525
 20
293.02108093932833
 11
681.27301123254983
 21
293.22104286065928
  0
LINE
  8
_0-8_
  6
CONTINUOUS
 62
    7
 10
681.27301123254983
 20
293.22104286065928
 11
681.68219483682947
 21
293.4675565275241
  0
LINE
  8
_0-8_
  6
CONTINUOUS
 62
    7
 10
681.68219483682947
 20
293.4675565275241
 11
682.01410803551516
 21
293.75313174689717
  0
LINE
  8
_0-8_
  6
CONTINUOUS
 62
    7
 10
682.01410803551516
 20
293.75313174689717
 11
682.25866581402101
 21
294.06909146024577
  0
LINE
  8
_0-8_
  6
CONTINUOUS
 62
    7
 10
682.25866581402101
 20
294.06909146024577
 11
682.4084374079996
 21
294.4058353915633
  0
LINE
  8
_0-8_
  6
CONTINUOUS
 62
    7
 10
682.4084374079996
 20
294.4058353915633
 11
682.45887208335557
 21
294.75313168265239
  0
LINE
  8
_0-8_
  6
CONTINUOUS
 62
    7
 10
682.45887208335557
 20
294.75313174689711
 11
682.55974143406752
 21
294.4058353915633
  0
LINE
  8
_0-8_
  6
CONTINUOUS
 62
    7
 10
682.55974143406752
 20
294.4058353915633
 11
682.85928462202423
 21
294.06909146024577
  0
LINE
  8
_0-8_
  6
CONTINUOUS
 62
    7
 10
682.85928462202423
 20
294.06909146024577
 11
683.34840017903616
 21
293.75313174689717
  0
LINE
  8
_0-8_
  6
CONTINUOUS
 62
    7
 10
683.34840017903616
 20
293.75313174689717
 11
684.01222657640756
 21
293.4675565275241
  0
LINE
  8
_0-8_
  6
CONTINUOUS
 62
    7
 10
684.01222657640756
 20
293.4675565275241
 11
684.83059378496705
 21
293.22104286065928
  0
LINE
  8
_0-8_
  6
CONTINUOUS
 62
    7
 10
684.83059378496705
 20
293.22104286065928
 11
685.77863613119575
 21
293.02108093932833
  0
LINE
  8
_0-8_
  6
CONTINUOUS
 62
    7
 10
685.77863613119575
 20
293.02108093932833
 11
686.82754782813663
 21
292.87374650532541
  0
LINE
  8
_0-8_
  6
CONTINUOUS
 62
    7
 10
686.82754782813663
 20
292.87374650532541
 11
687.94545822465284
 21
292.78351624087281
  0
LINE
  8
_0-8_
  6
CONTINUOUS
 62
    7
 10
687.94545822465284
 20
292.78351624087281
 11
689.09840017903616
 21
292.75313174689722
  0
LINE
  8
_0-8_
  6
CONTINUOUS
 62
    7
 10
689.09840017903616
 20
292.75313174689722
 11
690.25134213341948
 21
292.78351624087281
  0
LINE
  8
_0-8_
  6
CONTINUOUS
 62
    7
 10
690.25134213341948
 20
292.78351624087281
 11
691.36925252993569
 21
292.87374650532541
  0
LINE
  8
_0-8_
  6
CONTINUOUS
 62
    7
 10
691.36925252993569
 20
292.87374650532541
 11
692.41816422687634
 21
293.02108093932833
  0
LINE
  8
_0-8_
  6
CONTINUOUS
 62
    7
 10
692.41816422687634
 20
293.02108093932833
 11
693.36620657310527
 21
293.22104286065928
  0
LINE
  8
_0-8_
  6
CONTINUOUS
 62
    7
 10
693.36620657310527
 20
293.22104286065928
 11
694.18457378166454
 21
293.4675565275241
  0
LINE
  8
_0-8_
  6
CONTINUOUS
 62
    7
 10
694.18457378166454
 20
293.4675565275241
 11
694.84840017903593
 21
293.75313174689717
  0
LINE
  8
_0-8_
  6
CONTINUOUS
 62
    7
 10
694.84840017903593
 20
293.75313174689717
 11
695.33751573604786
 21
294.06909146024577
  0
LINE
  8
_0-8_
  6
CONTINUOUS
 62
    7
 10
695.33751573604786
 20
294.06909146024577
 11
695.6370589240048
 21
294.4058353915633
  0
LINE
  8
_0-8_
  6
CONTINUOUS
 62
    7
 10
695.6370589240048
 20
294.4058353915633
 11
695.73792827471675
 21
294.75313174689711
  0
LINE
  8
_0-8_
  6
CONTINUOUS
 62
    7
 10
695.73792827471675
 20
294.75313168265239
 11
695.78836296859026
 21
294.40583532829459
  0
LINE
  8
_0-8_
  6
CONTINUOUS
 62
    7
 10
695.78836296859026
 20
294.40583532829459
 11
695.93813458052364
 21
294.06909139987556
  0
LINE
  8
_0-8_
  6
CONTINUOUS
 62
    7
 10
695.93813458052364
 20
294.06909139987556
 11
696.18269237587629
 21
293.75313169125963
  0
LINE
  8
_0-8_
  6
CONTINUOUS
 62
    7
 10
696.18269237587629
 20
293.75313169125963
 11
696.51460558978874
 21
293.4675564783098
  0
LINE
  8
_0-8_
  6
CONTINUOUS
 62
    7
 10
696.51460558978874
 20
293.4675564783098
 11
696.92378920721239
 21
293.22104281936356
  0
LINE
  8
_0-8_
  6
CONTINUOUS
 62
    7
 10
696.92378920721239
 20
293.22104281936356
 11
697.39781039098852
 21
293.02108090720594
  0
LINE
  8
_0-8_
  6
CONTINUOUS
 62
    7
 10
697.39781039098852
 20
293.02108090720594
 11
697.92226624731484
 21
292.87374648335242
  0
LINE
  8
_0-8_
  6
CONTINUOUS
 62
    7
 10
697.92226624731484
 20
292.87374648335242
 11
698.48122145038383
 21
292.78351622971684
  0
LINE
  8
_0-8_
  6
CONTINUOUS
 62
    7
 10
698.48122145038383
 20
292.78351622971684
 11
699.05769242919564
 21
292.75313174689722
  0
LINE
  8
_0-8_
  6
CONTINUOUS
 62
    7
 10
699.05769242919564
 20
292.75313174689722
 11
699.63416340476715
 21
292.78351625202879
  0
LINE
  8
_0-8_
  6
CONTINUOUS
 62
    7
 10
699.63416340476715
 20
292.78351625202879
 11
700.19311859821437
 21
292.87374652729841
  0
LINE
  8
_0-8_
  6
CONTINUOUS
 62
    7
 10
700.19311859821437
 20
292.87374652729841
 11
700.71757443882893
 21
293.02108097145071
  0
LINE
  8
_0-8_
  6
CONTINUOUS
 62
    7
 10
700.71757443882893
 20
293.02108097145071
 11
701.19159560128151
 21
293.22104290195495
  0
LINE
  8
_0-8_
  6
CONTINUOUS
 62
    7
 10
701.19159560128151
 20
293.22104290195495
 11
701.60077919241712
 21
293.46755657673839
  0
LINE
  8
_0-8_
  6
CONTINUOUS
 62
    7
 10
701.60077919241712
 20
293.46755657673839
 11
701.93269237587629
 21
293.75313180253471
  0
LINE
  8
_0-8_
  6
CONTINUOUS
 62
    7
 10
701.93269237587629
 20
293.75313180253471
 11
702.17725013753534
 21
294.0690915206161
  0
LINE
  8
_0-8_
  6
CONTINUOUS
 62
    7
 10
702.17725013753534
 20
294.0690915206161
 11
702.32702171355891
 21
294.40583545483196
  0
LINE
  8
_0-8_
  6
CONTINUOUS
 62
    7
 10
702.32702171355891
 20
294.40583545483196
 11
702.37745637039734
 21
294.75313174689711
  0
LINE
  8
_0-8_
  6
CONTINUOUS
 62
    7
 10
695.73792827471675
 20
299.45313174689738
 11
695.6370589240048
 21
299.80042810223119
  0
LINE
  8
_0-8_
  6
CONTINUOUS
 62
    7
 10
695.6370589240048
 20
299.80042810223119
 11
695.33751573604786
 21
300.13717203354872
  0
LINE
  8
_0-8_
  6
CONTINUOUS
 62
    7
 10
695.33751573604786
 20
300.13717203354872
 11
694.84840017903593
 21
300.45313174689733
  0
LINE
  8
_0-8_
  6
CONTINUOUS
 62
    7
 10
694.84840017903593
 20
300.45313174689733
 11
694.18457378166454
 21
300.7387069662704
  0
LINE
  8
_0-8_
  6
CONTINUOUS
 62
    7
 10
694.18457378166454
 20
300.7387069662704
 11
693.36620657310527
 21
300.98522063313521
  0
LINE
  8
_0-8_
  6
CONTINUOUS
 62
    7
 10
693.36620657310527
 20
300.98522063313521
 11
692.41816422687634
 21
301.18518255446617
  0
LINE
  8
_0-8_
  6
CONTINUOUS
 62
    7
 10
692.41816422687634
 20
301.18518255446617
 11
691.36925252993569
 21
301.33251698846908
  0
LINE
  8
_0-8_
  6
CONTINUOUS
 62
    7
 10
691.36925252993569
 20
301.33251698846908
 11
690.25134213341948
 21
301.42274725292168
  0
LINE
  8
_0-8_
  6
CONTINUOUS
 62
    7
 10
690.25134213341948
 20
301.42274725292168
 11
689.09840017903616
 21
301.45313174689727
  0
LINE
  8
_0-8_
  6
CONTINUOUS
 62
    7
 10
689.09840017903616
 20
301.45313174689727
 11
687.94545822465284
 21
301.42274725292168
  0
LINE
  8
_0-8_
  6
CONTINUOUS
 62
    7
 10
687.94545822465284
 20
301.42274725292168
 11
686.82754782813663
 21
301.33251698846908
  0
LINE
  8
_0-8_
  6
CONTINUOUS
 62
    7
 10
686.82754782813663
 20
301.33251698846908
 11
685.77863613119575
 21
301.18518255446617
  0
LINE
  8
_0-8_
  6
CONTINUOUS
 62
    7
 10
685.77863613119575
 20
301.18518255446617
 11
684.83059378496705
 21
300.98522063313521
  0
LINE
  8
_0-8_
  6
CONTINUOUS
 62
    7
 10
684.83059378496705
 20
300.98522063313521
 11
684.01222657640756
 21
300.7387069662704
  0
LINE
  8
_0-8_
  6
CONTINUOUS
 62
    7
 10
684.01222657640756
 20
300.7387069662704
 11
683.34840017903616
 21
300.45313174689733
  0
LINE
  8
_0-8_
  6
CONTINUOUS
 62
    7
 10
683.34840017903616
 20
300.45313174689733
 11
682.85928462202423
 21
300.13717203354872
  0
LINE
  8
_0-8_
  6
CONTINUOUS
 62
    7
 10
682.85928462202423
 20
300.13717203354872
 11
682.55974143406752
 21
299.80042810223119
  0
LINE
  8
_0-8_
  6
CONTINUOUS
 62
    7
 10
682.55974143406752
 20
299.80042810223119
 11
682.45887208335557
 21
299.45313174689738
  0
LINE
  8
_0-8_
  6
CONTINUOUS
 62
    7
 10
702.37745637039734
 20
299.45313174689738
 11
702.32702169504137
 21
299.80042810223119
  0
LINE
  8
_0-8_
  6
CONTINUOUS
 62
    7
 10
702.32702169504137
 20
299.80042810223119
 11
702.17725010106278
 21
300.13717203354872
  0
LINE
  8
_0-8_
  6
CONTINUOUS
 62
    7
 10
702.17725010106278
 20
300.13717203354872
 11
701.93269232255693
 21
300.45313174689733
  0
LINE
  8
_0-8_
  6
CONTINUOUS
 62
    7
 10
701.93269232255693
 20
300.45313174689733
 11
701.60077912387123
 21
300.7387069662704
  0
LINE
  8
_0-8_
  6
CONTINUOUS
 62
    7
 10
701.60077912387123
 20
300.7387069662704
 11
701.1915955195916
 21
300.98522063313521
  0
LINE
  8
_0-8_
  6
CONTINUOUS
 62
    7
 10
701.1915955195916
 20
300.98522063313521
 11
700.71757434647725
 21
301.18518255446617
  0
LINE
  8
_0-8_
  6
CONTINUOUS
 62
    7
 10
700.71757434647725
 20
301.18518255446617
 11
700.1931184980067
 21
301.33251698846908
  0
LINE
  8
_0-8_
  6
CONTINUOUS
 62
    7
 10
700.1931184980067
 20
301.33251698846908
 11
699.63416329974871
 21
301.42274725292168
  0
LINE
  8
_0-8_
  6
CONTINUOUS
 62
    7
 10
699.63416329974871
 20
301.42274725292168
 11
699.05769232255693
 21
301.45313174689727
  0
LINE
  8
_0-8_
  6
CONTINUOUS
 62
    7
 10
699.05769232255693
 20
301.45313174689727
 11
698.48122134536538
 21
301.42274725292168
  0
LINE
  8
_0-8_
  6
CONTINUOUS
 62
    7
 10
698.48122134536538
 20
301.42274725292168
 11
697.92226614710717
 21
301.33251698846908
  0
LINE
  8
_0-8_
  6
CONTINUOUS
 62
    7
 10
697.92226614710717
 20
301.33251698846908
 11
697.39781029863684
 21
301.18518255446617
  0
LINE
  8
_0-8_
  6
CONTINUOUS
 62
    7
 10
697.39781029863684
 20
301.18518255446617
 11
696.92378912552249
 21
300.98522063313521
  0
LINE
  8
_0-8_
  6
CONTINUOUS
 62
    7
 10
696.92378912552249
 20
300.98522063313521
 11
696.51460552124286
 21
300.7387069662704
  0
LINE
  8
_0-8_
  6
CONTINUOUS
 62
    7
 10
696.51460552124286
 20
300.7387069662704
 11
696.18269232255693
 21
300.45313174689733
  0
LINE
  8
_0-8_
  6
CONTINUOUS
 62
    7
 10
696.18269232255693
 20
300.45313174689733
 11
695.93813454405108
 21
300.13717203354872
  0
LINE
  8
_0-8_
  6
CONTINUOUS
 62
    7
 10
695.93813454405108
 20
300.13717203354872
 11
695.78836295007272
 21
299.80042810223119
  0
LINE
  8
_0-8_
  6
CONTINUOUS
 62
    7
 10
695.78836295007272
 20
299.80042810223119
 11
695.73792827471675
 21
299.4531318111421
  0
LINE
  8
_0-8_
  6
CONTINUOUS
 62
    7
 10
682.45887208335557
 20
299.4531318111421
 11
682.40843738948183
 21
299.80042816549991
  0
LINE
  8
_0-8_
  6
CONTINUOUS
 62
    7
 10
682.40843738948183
 20
299.80042816549991
 11
682.25866577754846
 21
300.13717209391893
  0
LINE
  8
_0-8_
  6
CONTINUOUS
 62
    7
 10
682.25866577754846
 20
300.13717209391893
 11
682.01410798219581
 21
300.45313180253487
  0
LINE
  8
_0-8_
  6
CONTINUOUS
 62
    7
 10
682.01410798219581
 20
300.45313180253487
 11
681.68219476828335
 21
300.73870701548469
  0
LINE
  8
_0-8_
  6
CONTINUOUS
 62
    7
 10
681.68219476828335
 20
300.73870701548469
 11
681.27301115085993
 21
300.98522067443093
  0
LINE
  8
_0-8_
  6
CONTINUOUS
 62
    7
 10
681.27301115085993
 20
300.98522067443093
 11
680.79898996708357
 21
301.18518258658855
  0
LINE
  8
_0-8_
  6
CONTINUOUS
 62
    7
 10
680.79898996708357
 20
301.18518258658855
 11
680.27453411075749
 21
301.33251701044207
  0
LINE
  8
_0-8_
  6
CONTINUOUS
 62
    7
 10
680.27453411075749
 20
301.33251701044207
 11
679.71557890768827
 21
301.42274726407766
  0
LINE
  8
_0-8_
  6
CONTINUOUS
 62
    7
 10
679.71557890768827
 20
301.42274726407766
 11
679.13910792887668
 21
301.45313174689727
  0
LINE
  8
_0-8_
  6
CONTINUOUS
 62
    7
 10
679.13910792887668
 20
301.45313174689727
 11
678.56263695330495
 21
301.42274724176571
  0
LINE
  8
_0-8_
  6
CONTINUOUS
 62
    7
 10
678.56263695330495
 20
301.42274724176571
 11
678.00368175985795
 21
301.33251696649609
  0
LINE
  8
_0-8_
  6
CONTINUOUS
 62
    7
 10
678.00368175985795
 20
301.33251696649609
 11
677.47922591924339
 21
301.18518252234378
  0
LINE
  8
_0-8_
  6
CONTINUOUS
 62
    7
 10
677.47922591924339
 20
301.18518252234378
 11
677.00520475679082
 21
300.98522059183955
  0
LINE
  8
_0-8_
  6
CONTINUOUS
 62
    7
 10
677.00520475679082
 20
300.98522059183955
 11
676.59602116565497
 21
300.73870691705611
  0
LINE
  8
_0-8_
  6
CONTINUOUS
 62
    7
 10
676.59602116565497
 20
300.73870691705611
 11
676.26410798219604
 21
300.45313169125978
  0
LINE
  8
_0-8_
  6
CONTINUOUS
 62
    7
 10
676.26410798219604
 20
300.45313169125978
 11
676.01955022053676
 21
300.1371719731784
  0
LINE
  8
_0-8_
  6
CONTINUOUS
 62
    7
 10
676.01955022053676
 20
300.1371719731784
 11
675.86977864451342
 21
299.80042803896254
  0
LINE
  8
_0-8_
  6
CONTINUOUS
 62
    7
 10
675.86977864451342
 20
299.80042803896254
 11
675.81934398767498
 21
299.45313174689738
  0
LINE
  8
_0-8_
  6
CONTINUOUS
 62
    7
 10
697.09840014425436
 20
292.75313174689722
 11
697.09840014425436
 21
228.45312774689683
  0
LINE
  8
_0-8_
  6
CONTINUOUS
 62
    7
 10
696.19840008365441
 20
228.45312774689683
 11
696.19840008365441
 21
292.75313174689722
  0
LINE
  8
_0-8_
  6
CONTINUOUS
 62
    7
 10
681.99840027435403
 20
292.75313174689722
 11
681.99840027435403
 21
228.45312774689683
  0
LINE
  8
_0-8_
  6
CONTINUOUS
 62
    7
 10
681.09840014425413
 20
228.45312774689683
 11
681.09840014425413
 21
292.75313174689722
  0
LINE
  8
_0-9_
  6
PHANTOM1
 62
  152
 10
664.09840017903616
 20
268.45312774689637
 11
664.09840017903616
 21
271.45312774689705
  0
LINE
  8
_0-9_
  6
PHANTOM1
 62
  152
 10
666.04840017903598
 20
265.45312774689683
 11
666.04840017903598
 21
268.45312774689637
  0
LINE
  8
_0-9_
  6
PHANTOM1
 62
  152
 10
664.34840017903593
 20
271.45312774689705
 11
664.34840017903593
 21
278.95312774689705
  0
ARC
  8
_0-9_
  6
PHANTOM1
 62
  152
 10
667.34840017903616
 20
278.95312774689705
 40
2.9999999999999858
 50
89.999999999999829
 51
180.0000000000002
  0
LINE
  8
_0-9_
  6
PHANTOM1
 62
  152
 10
712.1484001790368
 20
265.45312774689683
 11
666.04840017903598
 21
265.45312774689683
  0
ARC
  8
_0-9_
  6
PHANTOM1
 62
  152
 10
710.84840017903616
 20
278.95312774689705
 40
2.9999999999999933
 50
359.99999999999977
 51
90.000000000000199
  0
LINE
  8
_0-9_
  6
PHANTOM1
 62
  152
 10
713.84840017903639
 20
278.95312774689705
 11
713.84840017903639
 21
271.45312774689705
  0
LINE
  8
_0-9_
  6
PHANTOM1
 62
  152
 10
714.09840017903616
 20
271.45312774689705
 11
714.09840017903616
 21
268.45312774689637
  0
LINE
  8
_0-9_
  6
PHANTOM1
 62
  152
 10
712.1484001790368
 20
268.45312774689637
 11
712.1484001790368
 21
265.45312774689683
  0
LINE
  8
_0-9_
  6
PHANTOM1
 62
  152
 10
664.09840017903616
 20
271.45312774689705
 11
664.34840017903593
 21
271.45312774689705
  0
LINE
  8
_0-9_
  6
PHANTOM1
 62
  152
 10
713.84840017903639
 20
271.45312774689705
 11
714.09840017903616
 21
271.45312774689705
  0
LINE
  8
_0-9_
  6
PHANTOM1
 62
  152
 10
714.09840017903616
 20
268.45312774689637
 11
712.1484001790368
 21
268.45312774689637
  0
LINE
  8
_0-9_
  6
PHANTOM1
 62
  152
 10
666.04840017903598
 20
268.45312774689637
 11
664.09840017903616
 21
268.45312774689637
  0
LINE
  8
_0-9_
  6
PHANTOM1
 62
  152
 10
707.09840017903616
 20
281.9531277468966
 11
710.84840017903616
 21
281.9531277468966
  0
LINE
  8
_0-9_
  6
PHANTOM1
 62
  152
 10
676.39669425686475
 20
291.45312774689637
 11
676.39669425686475
 21
284.35312774689669
  0
LINE
  8
_0-9_
  6
PHANTOM1
 62
  152
 10
707.09840017903616
 20
281.9531277468966
 11
707.09840017903616
 21
282.35312774689692
  0
LINE
  8
_0-9_
  6
PHANTOM1
 62
  152
 10
671.34840017903571
 20
282.35312774689692
 11
671.34840017903571
 21
281.9531277468966
  0
LINE
  8
_0-9_
  6
PHANTOM1
 62
  152
 10
667.34840017903616
 20
281.9531277468966
 11
671.34840017903571
 21
281.9531277468966
  0
LINE
  8
_0-9_
  6
PHANTOM1
 62
  152
 10
698.62467962066444
 20
282.3531277468968
 11
698.62467962066444
 21
282.3531277468968
  0
LINE
  8
_0-9_
  6
PHANTOM1
 62
  152
 10
698.62467962066444
 20
282.3531277468968
 11
699.17608664232591
 21
282.38351224087239
  0
LINE
  8
_0-9_
  6
PHANTOM1
 62
  152
 10
699.17608664232591
 20
282.38351224087239
 11
699.71073944065972
 21
282.47374250532499
  0
LINE
  8
_0-9_
  6
PHANTOM1
 62
  152
 10
699.71073944065972
 20
282.47374250532499
 11
700.21239286093578
 21
282.62107693932791
  0
LINE
  8
_0-9_
  6
PHANTOM1
 62
  152
 10
700.21239286093578
 20
282.62107693932791
 11
700.66580441782776
 21
282.8210388606588
  0
LINE
  8
_0-9_
  6
PHANTOM1
 62
  152
 10
700.66580441782776
 20
282.8210388606588
 11
701.05719743061695
 21
283.06755252752367
  0
LINE
  8
_0-9_
  6
PHANTOM1
 62
  152
 10
701.05719743061695
 20
283.06755252752367
 11
701.3746796206641
 21
283.35312774689675
  0
LINE
  8
_0-9_
  6
PHANTOM1
 62
  152
 10
701.3746796206641
 20
283.35312774689675
 11
701.60860445227843
 21
283.66908746024541
  0
LINE
  8
_0-9_
  6
PHANTOM1
 62
  152
 10
701.60860445227843
 20
283.66908746024541
 11
701.75186423782304
 21
284.00583139156282
  0
LINE
  8
_0-9_
  6
PHANTOM1
 62
  152
 10
701.75186423782304
 20
284.00583139156282
 11
701.80010610120701
 21
284.35312774689669
  0
LINE
  8
_0-9_
  6
PHANTOM1
 62
  152
 10
707.09840017903616
 20
282.35312774689692
 11
698.62467962066444
 21
282.35312774689692
  0
LINE
  8
_0-9_
  6
PHANTOM1
 62
  152
 10
671.34840017903571
 20
282.35312774689692
 11
679.57212073740789
 21
282.35312774689692
  0
LINE
  8
_0-9_
  6
PHANTOM1
 62
  152
 10
676.39669425686532
 20
284.35312774689669
 11
676.39669425686532
 21
284.35312774689669
  0
LINE
  8
_0-9_
  6
PHANTOM1
 62
  152
 10
676.39669425686532
 20
284.35312774689669
 11
676.44493612024928
 21
284.00583139156282
  0
LINE
  8
_0-9_
  6
PHANTOM1
 62
  152
 10
676.44493612024928
 20
284.00583139156282
 11
676.5881959057939
 21
283.66908746024541
  0
LINE
  8
_0-9_
  6
PHANTOM1
 62
  152
 10
676.5881959057939
 20
283.66908746024541
 11
676.82212073740823
 21
283.35312774689675
  0
LINE
  8
_0-9_
  6
PHANTOM1
 62
  152
 10
676.82212073740823
 20
283.35312774689675
 11
677.13960292745537
 21
283.06755252752367
  0
LINE
  8
_0-9_
  6
PHANTOM1
 62
  152
 10
677.13960292745537
 20
283.06755252752367
 11
677.53099594024457
 21
282.8210388606588
  0
LINE
  8
_0-9_
  6
PHANTOM1
 62
  152
 10
677.53099594024457
 20
282.8210388606588
 11
677.98440749713654
 21
282.62107693932791
  0
LINE
  8
_0-9_
  6
PHANTOM1
 62
  152
 10
677.98440749713654
 20
282.62107693932791
 11
678.4860609174126
 21
282.47374250532499
  0
LINE
  8
_0-9_
  6
PHANTOM1
 62
  152
 10
678.4860609174126
 20
282.47374250532499
 11
679.02071371574641
 21
282.38351224087239
  0
LINE
  8
_0-9_
  6
PHANTOM1
 62
  152
 10
679.02071371574641
 20
282.38351224087239
 11
679.57212073740789
 21
282.3531277468968
  0
LINE
  8
_0-9_
  6
PHANTOM1
 62
  152
 10
701.80010610120758
 20
284.35312774689669
 11
701.80010610120758
 21
291.45312774689637
  0
LINE
  8
_0-8_
  6
CONTINUOUS
 62
  152
 10
847.44115678832418
 20
215.25312774689706
 11
797.44115678832418
 21
215.25312774689706
  0
LINE
  8
_0-8_
  6
CONTINUOUS
 62
    7
 10
797.19115678832441
 20
207.45312774689705
 11
797.19115678832441
 21
204.45312774689694
  0
LINE
  8
_0-8_
  6
CONTINUOUS
 62
    7
 10
797.19115678832441
 20
204.45312774689694
 11
847.69115678832395
 21
204.45312774689694
  0
LINE
  8
_0-8_
  6
CONTINUOUS
 62
    7
 10
847.69115678832395
 20
204.45312774689694
 11
847.69115678832395
 21
207.45312774689705
  0
LINE
  8
_0-8_
  6
CONTINUOUS
 62
    7
 10
847.69115678832395
 20
207.45312774689705
 11
797.19115678832441
 21
207.45312774689705
  0
LINE
  8
_0-8_
  6
CONTINUOUS
 62
    7
 10
799.14115678832422
 20
204.45312774689694
 11
799.14115678832422
 21
201.45312774689683
  0
LINE
  8
_0-8_
  6
CONTINUOUS
 62
    7
 10
799.14115678832422
 20
201.45312774689683
 11
845.74115678832459
 21
201.45312774689683
  0
LINE
  8
_0-8_
  6
CONTINUOUS
 62
    7
 10
845.74115678832459
 20
201.45312774689683
 11
845.74115678832459
 21
204.45312774689694
  0
LINE
  8
_0-8_
  6
CONTINUOUS
 62
    7
 10
809.73945086615277
 20
228.45312774689683
 11
835.14286271049559
 21
228.45312774689683
  0
LINE
  8
_0-8_
  6
CONTINUOUS
 62
    7
 10
816.09030382723836
 20
228.45312774689683
 11
816.09030382723836
 21
220.65312774689693
  0
LINE
  8
_0-8_
  6
CONTINUOUS
 62
    7
 10
809.73945086615277
 20
220.65312774689693
 11
809.73945086615277
 21
228.45312774689683
  0
LINE
  8
_0-8_
  6
CONTINUOUS
 62
    7
 10
835.14286271049559
 20
228.45312774689683
 11
835.14286271049559
 21
220.65312774689693
  0
LINE
  8
_0-8_
  6
CONTINUOUS
 62
    7
 10
828.79200974723835
 20
220.65312774689693
 11
828.79200974723835
 21
228.45312774689683
  0
LINE
  8
_0-8_
  6
CONTINUOUS
 62
    7
 10
840.44115678832418
 20
218.65312774689704
 11
840.44115678832418
 21
218.25312774689684
  0
LINE
  8
_0-8_
  6
CONTINUOUS
 62
    7
 10
840.44115678832418
 20
218.65312774689704
 11
804.44115678832395
 21
218.65312774689704
  0
LINE
  8
_0-8_
  6
CONTINUOUS
 62
    7
 10
804.44115678832395
 20
218.65312774689704
 11
804.44115678832395
 21
218.25312774689684
  0
LINE
  8
_0-8_
  6
CONTINUOUS
 62
    7
 10
800.44115678832418
 20
218.25312774689684
 11
844.44115678802905
 21
218.25312774689684
  0
LINE
  8
_0-8_
  6
CONTINUOUS
 62
    7
 10
797.44115678832418
 20
215.25312774689706
 11
797.44115678832418
 21
207.45312774689705
  0
LINE
  8
_0-8_
  6
CONTINUOUS
 62
    7
 10
847.44115678832418
 20
207.45312774689705
 11
847.44115678832418
 21
215.25312774689706
  0
ARC
  8
_0-8_
  6
CONTINUOUS
 62
    7
 10
800.44115678832418
 20
215.25312774689706
 40
2.9999999999999858
 50
89.999999999999829
 51
180.0000000000002
  0
ARC
  8
_0-8_
  6
CONTINUOUS
 62
    7
 10
844.44115678832395
 20
215.25312774689706
 40
2.9999999999999933
 50
359.99999999999977
 51
90.000000000000199
  0
LINE
  8
_0-8_
  6
CONTINUOUS
 62
    7
 10
809.73945086615322
 20
220.65312774689693
 11
809.78769272953718
 21
220.30583139156312
  0
LINE
  8
_0-8_
  6
CONTINUOUS
 62
    7
 10
809.78769272953718
 20
220.30583139156312
 11
809.9309525150818
 21
219.96908746024565
  0
LINE
  8
_0-8_
  6
CONTINUOUS
 62
    7
 10
809.9309525150818
 20
219.96908746024565
 11
810.16487734669613
 21
219.65312774689698
  0
LINE
  8
_0-8_
  6
CONTINUOUS
 62
    7
 10
810.16487734669613
 20
219.65312774689698
 11
810.48235953674339
 21
219.36755252752391
  0
LINE
  8
_0-8_
  6
CONTINUOUS
 62
    7
 10
810.48235953674339
 20
219.36755252752391
 11
810.87375254953258
 21
219.12103886065904
  0
LINE
  8
_0-8_
  6
CONTINUOUS
 62
    7
 10
810.87375254953258
 20
219.12103886065904
 11
811.32716410642456
 21
218.92107693932815
  0
LINE
  8
_0-8_
  6
CONTINUOUS
 62
    7
 10
811.32716410642456
 20
218.92107693932815
 11
811.8288175267005
 21
218.77374250532523
  0
LINE
  8
_0-8_
  6
CONTINUOUS
 62
    7
 10
811.8288175267005
 20
218.77374250532523
 11
812.36347032503431
 21
218.68351224087263
  0
LINE
  8
_0-8_
  6
CONTINUOUS
 62
    7
 10
812.36347032503431
 20
218.68351224087263
 11
812.9148773466959
 21
218.65312774689704
  0
LINE
  8
_0-8_
  6
CONTINUOUS
 62
    7
 10
812.9148773466959
 20
218.65312774689704
 11
813.46628436835726
 21
218.68351224087263
  0
LINE
  8
_0-8_
  6
CONTINUOUS
 62
    7
 10
813.46628436835726
 20
218.68351224087263
 11
814.00093716669107
 21
218.77374250532523
  0
LINE
  8
_0-8_
  6
CONTINUOUS
 62
    7
 10
814.00093716669107
 20
218.77374250532523
 11
814.50259058696702
 21
218.92107693932815
  0
LINE
  8
_0-8_
  6
CONTINUOUS
 62
    7
 10
814.50259058696702
 20
218.92107693932815
 11
814.95600214385922
 21
219.12103886065904
  0
LINE
  8
_0-8_
  6
CONTINUOUS
 62
    7
 10
814.95600214385922
 20
219.12103886065904
 11
815.34739515664842
 21
219.36755252752391
  0
LINE
  8
_0-8_
  6
CONTINUOUS
 62
    7
 10
815.34739515664842
 20
219.36755252752391
 11
815.66487734669545
 21
219.65312774689698
  0
LINE
  8
_0-8_
  6
CONTINUOUS
 62
    7
 10
815.66487734669545
 20
219.65312774689698
 11
815.89880217830978
 21
219.96908746024565
  0
LINE
  8
_0-8_
  6
CONTINUOUS
 62
    7
 10
815.89880217830978
 20
219.96908746024565
 11
816.04206196385439
 21
220.30583139156312
  0
LINE
  8
_0-8_
  6
CONTINUOUS
 62
    7
 10
816.04206196385439
 20
220.30583139156312
 11
816.09030382723836
 21
220.65312774689693
  0
LINE
  8
_0-8_
  6
CONTINUOUS
 62
    7
 10
816.09030382723836
 20
220.65312774689693
 11
816.09030382723836
 21
220.65312789052575
  0
LINE
  8
_0-8_
  6
CONTINUOUS
 62
    7
 10
816.09030382723836
 20
220.65312789052575
 11
816.18678747479203
 21
220.30583153300989
  0
LINE
  8
_0-8_
  6
CONTINUOUS
 62
    7
 10
816.18678747479203
 20
220.30583153300989
 11
816.47330696904055
 21
219.96908759521256
  0
LINE
  8
_0-8_
  6
CONTINUOUS
 62
    7
 10
816.47330696904055
 20
219.96908759521256
 11
816.94115656013741
 21
219.65312787128317
  0
LINE
  8
_0-8_
  6
CONTINUOUS
 62
    7
 10
816.94115656013741
 20
219.65312787128317
 11
817.57612087500047
 21
219.36755263754998
  0
LINE
  8
_0-8_
  6
CONTINUOUS
 62
    7
 10
817.57612087500047
 20
219.36755263754998
 11
818.35890684422975
 21
219.12103895298191
  0
LINE
  8
_0-8_
  6
CONTINUOUS
 62
    7
 10
818.35890684422975
 20
219.12103895298191
 11
819.26572991225908
 21
218.92107701114259
  0
LINE
  8
_0-8_
  6
CONTINUOUS
 62
    7
 10
819.26572991225908
 20
218.92107701114259
 11
820.26903671904142
 21
218.77374255444914
  0
LINE
  8
_0-8_
  6
CONTINUOUS
 62
    7
 10
820.26903671904142
 20
218.77374255444914
 11
821.33834229494983
 21
218.68351226581353
  0
LINE
  8
_0-8_
  6
CONTINUOUS
 62
    7
 10
821.33834229494983
 20
218.68351226581353
 11
822.44115633115553
 21
218.65312774689704
  0
LINE
  8
_0-8_
  6
CONTINUOUS
 62
    7
 10
822.44115633115553
 20
218.65312774689704
 11
823.5439703812192
 21
218.68351221593173
  0
LINE
  8
_0-8_
  6
CONTINUOUS
 62
    7
 10
823.5439703812192
 20
218.68351221593173
 11
824.61327599828019
 21
218.77374245620126
  0
LINE
  8
_0-8_
  6
CONTINUOUS
 62
    7
 10
824.61327599828019
 20
218.77374245620126
 11
825.61658287225919
 21
218.92107686751376
  0
LINE
  8
_0-8_
  6
CONTINUOUS
 62
    7
 10
825.61658287225919
 20
218.92107686751376
 11
826.52340603148787
 21
219.12103876833623
  0
LINE
  8
_0-8_
  6
CONTINUOUS
 62
    7
 10
826.52340603148787
 20
219.12103876833623
 11
827.30619211314774
 21
219.36755241749785
  0
LINE
  8
_0-8_
  6
CONTINUOUS
 62
    7
 10
827.30619211314774
 20
219.36755241749785
 11
827.94115655825658
 21
219.65312762251079
  0
LINE
  8
_0-8_
  6
CONTINUOUS
 62
    7
 10
827.94115655825658
 20
219.65312762251079
 11
828.4090062934572
 21
219.96908732527868
  0
LINE
  8
_0-8_
  6
CONTINUOUS
 62
    7
 10
828.4090062934572
 20
219.96908732527868
 11
828.69552594128891
 21
220.30583125011628
  0
LINE
  8
_0-8_
  6
CONTINUOUS
 62
    7
 10
828.69552594128891
 20
220.30583125011628
 11
828.79200974723835
 21
220.6531276032681
  0
LINE
  8
_0-8_
  6
CONTINUOUS
 62
    7
 10
828.79200974723835
 20
220.6531276032681
 11
828.79200974723835
 21
220.65312774689693
  0
LINE
  8
_0-8_
  6
CONTINUOUS
 62
    7
 10
828.79200974940977
 20
220.65312789052575
 11
828.84025157319479
 21
220.30583153300989
  0
LINE
  8
_0-8_
  6
CONTINUOUS
 62
    7
 10
828.84025157319479
 20
220.30583153300989
 11
828.98351132034372
 21
219.96908759521256
  0
LINE
  8
_0-8_
  6
CONTINUOUS
 62
    7
 10
828.98351132034372
 20
219.96908759521256
 11
829.21743611593206
 21
219.65312787128317
  0
LINE
  8
_0-8_
  6
CONTINUOUS
 62
    7
 10
829.21743611593206
 20
219.65312787128317
 11
829.53491827341782
 21
219.36755263754998
  0
LINE
  8
_0-8_
  6
CONTINUOUS
 62
    7
 10
829.53491827341782
 20
219.36755263754998
 11
829.9263112580993
 21
219.12103895298191
  0
LINE
  8
_0-8_
  6
CONTINUOUS
 62
    7
 10
829.9263112580993
 20
219.12103895298191
 11
830.37972279219139
 21
218.92107701114259
  0
LINE
  8
_0-8_
  6
CONTINUOUS
 62
    7
 10
830.37972279219139
 20
218.92107701114259
 11
830.88137619566828
 21
218.77374255444914
  0
LINE
  8
_0-8_
  6
CONTINUOUS
 62
    7
 10
830.88137619566828
 20
218.77374255444914
 11
831.41602898371389
 21
218.68351226581353
  0
LINE
  8
_0-8_
  6
CONTINUOUS
 62
    7
 10
831.41602898371389
 20
218.68351226581353
 11
831.96743600191098
 21
218.65312774689704
  0
LINE
  8
_0-8_
  6
CONTINUOUS
 62
    7
 10
831.96743600191098
 20
218.65312774689704
 11
832.51884302703706
 21
218.68351221593173
  0
LINE
  8
_0-8_
  6
CONTINUOUS
 62
    7
 10
832.51884302703706
 20
218.68351221593173
 11
833.05349583565885
 21
218.77374245620126
  0
LINE
  8
_0-8_
  6
CONTINUOUS
 62
    7
 10
833.05349583565885
 20
218.77374245620126
 11
833.55514927273407
 21
218.92107686751376
  0
LINE
  8
_0-8_
  6
CONTINUOUS
 62
    7
 10
833.55514927273407
 20
218.92107686751376
 11
834.00856085242594
 21
219.12103876833623
  0
LINE
  8
_0-8_
  6
CONTINUOUS
 62
    7
 10
834.00856085242594
 20
219.12103876833623
 11
834.39995389332262
 21
219.36755241749785
  0
LINE
  8
_0-8_
  6
CONTINUOUS
 62
    7
 10
834.39995389332262
 20
219.36755241749785
 11
834.71743611593138
 21
219.65312762251079
  0
LINE
  8
_0-8_
  6
CONTINUOUS
 62
    7
 10
834.71743611593138
 20
219.65312762251079
 11
834.9513609835717
 21
219.96908732527868
  0
LINE
  8
_0-8_
  6
CONTINUOUS
 62
    7
 10
834.9513609835717
 20
219.96908732527868
 11
835.094620807512
 21
220.30583125011628
  0
LINE
  8
_0-8_
  6
CONTINUOUS
 62
    7
 10
835.094620807512
 20
220.30583125011628
 11
835.14286271049491
 21
220.6531276032681
  0
LINE
  8
_0-8_
  6
CONTINUOUS
 62
    7
 10
835.14286271049491
 20
220.6531276032681
 11
835.14286271049491
 21
220.65312774689693
  0
LINE
  8
_0-8_
  6
CONTINUOUS
 62
    7
 10
809.162100596963
 20
299.45313174689738
 11
809.162100596963
 21
294.75313174689711
  0
LINE
  8
_0-8_
  6
CONTINUOUS
 62
    7
 10
812.48186464480318
 20
292.75313174689722
 11
832.40044893184495
 21
292.75313174689722
  0
LINE
  8
_0-8_
  6
CONTINUOUS
 62
    7
 10
829.08068488400477
 20
294.75313174689711
 11
829.08068488400477
 21
299.45313174689738
  0
LINE
  8
_0-8_
  6
CONTINUOUS
 62
    7
 10
832.40044893184495
 20
301.45313174689727
 11
812.48186464480318
 21
301.45313174689727
  0
LINE
  8
_0-8_
  6
CONTINUOUS
 62
    7
 10
815.80162869264359
 20
299.45313174689738
 11
815.80162869264359
 21
294.75313174689711
  0
LINE
  8
_0-8_
  6
CONTINUOUS
 62
    7
 10
835.72021297968536
 20
294.75313174689711
 11
835.72021297968536
 21
299.45313174689738
  0
LINE
  8
_0-8_
  6
CONTINUOUS
 62
    7
 10
809.162100596963
 20
294.75313174689711
 11
809.21253527231897
 21
294.4058353915633
  0
LINE
  8
_0-8_
  6
CONTINUOUS
 62
    7
 10
809.21253527231897
 20
294.4058353915633
 11
809.36230686629733
 21
294.06909146024577
  0
LINE
  8
_0-8_
  6
CONTINUOUS
 62
    7
 10
809.36230686629733
 20
294.06909146024577
 11
809.60686464480318
 21
293.75313174689717
  0
LINE
  8
_0-8_
  6
CONTINUOUS
 62
    7
 10
809.60686464480318
 20
293.75313174689717
 11
809.93877784348911
 21
293.4675565275241
  0
LINE
  8
_0-8_
  6
CONTINUOUS
 62
    7
 10
809.93877784348911
 20
293.4675565275241
 11
810.34796144776874
 21
293.22104286065928
  0
LINE
  8
_0-8_
  6
CONTINUOUS
 62
    7
 10
810.34796144776874
 20
293.22104286065928
 11
810.82198262088309
 21
293.02108093932833
  0
LINE
  8
_0-8_
  6
CONTINUOUS
 62
    7
 10
810.82198262088309
 20
293.02108093932833
 11
811.34643846935342
 21
292.87374650532541
  0
LINE
  8
_0-8_
  6
CONTINUOUS
 62
    7
 10
811.34643846935342
 20
292.87374650532541
 11
811.90539366761163
 21
292.78351624087281
  0
LINE
  8
_0-8_
  6
CONTINUOUS
 62
    7
 10
811.90539366761163
 20
292.78351624087281
 11
812.48186464480318
 21
292.75313174689722
  0
LINE
  8
_0-8_
  6
CONTINUOUS
 62
    7
 10
812.48186464480318
 20
292.75313174689722
 11
813.05833562199496
 21
292.78351624087281
  0
LINE
  8
_0-8_
  6
CONTINUOUS
 62
    7
 10
813.05833562199496
 20
292.78351624087281
 11
813.61729082025295
 21
292.87374650532541
  0
LINE
  8
_0-8_
  6
CONTINUOUS
 62
    7
 10
813.61729082025295
 20
292.87374650532541
 11
814.14174666872327
 21
293.02108093932833
  0
LINE
  8
_0-8_
  6
CONTINUOUS
 62
    7
 10
814.14174666872327
 20
293.02108093932833
 11
814.61576784183785
 21
293.22104286065928
  0
LINE
  8
_0-8_
  6
CONTINUOUS
 62
    7
 10
814.61576784183785
 20
293.22104286065928
 11
815.02495144611748
 21
293.4675565275241
  0
LINE
  8
_0-8_
  6
CONTINUOUS
 62
    7
 10
815.02495144611748
 20
293.4675565275241
 11
815.35686464480318
 21
293.75313174689717
  0
LINE
  8
_0-8_
  6
CONTINUOUS
 62
    7
 10
815.35686464480318
 20
293.75313174689717
 11
815.60142242330903
 21
294.06909146024577
  0
LINE
  8
_0-8_
  6
CONTINUOUS
 62
    7
 10
815.60142242330903
 20
294.06909146024577
 11
815.75119401728762
 21
294.4058353915633
  0
LINE
  8
_0-8_
  6
CONTINUOUS
 62
    7
 10
815.75119401728762
 20
294.4058353915633
 11
815.80162869264359
 21
294.75313168265239
  0
LINE
  8
_0-8_
  6
CONTINUOUS
 62
    7
 10
815.80162869264359
 20
294.75313174689711
 11
815.90249804335554
 21
294.4058353915633
  0
LINE
  8
_0-8_
  6
CONTINUOUS
 62
    7
 10
815.90249804335554
 20
294.4058353915633
 11
816.20204123131225
 21
294.06909146024577
  0
LINE
  8
_0-8_
  6
CONTINUOUS
 62
    7
 10
816.20204123131225
 20
294.06909146024577
 11
816.69115678832418
 21
293.75313174689717
  0
LINE
  8
_0-8_
  6
CONTINUOUS
 62
    7
 10
816.69115678832418
 20
293.75313174689717
 11
817.35498318569557
 21
293.4675565275241
  0
LINE
  8
_0-8_
  6
CONTINUOUS
 62
    7
 10
817.35498318569557
 20
293.4675565275241
 11
818.17335039425507
 21
293.22104286065928
  0
LINE
  8
_0-8_
  6
CONTINUOUS
 62
    7
 10
818.17335039425507
 20
293.22104286065928
 11
819.12139274048377
 21
293.02108093932833
  0
LINE
  8
_0-8_
  6
CONTINUOUS
 62
    7
 10
819.12139274048377
 20
293.02108093932833
 11
820.17030443742465
 21
292.87374650532541
  0
LINE
  8
_0-8_
  6
CONTINUOUS
 62
    7
 10
820.17030443742465
 20
292.87374650532541
 11
821.28821483394086
 21
292.78351624087281
  0
LINE
  8
_0-8_
  6
CONTINUOUS
 62
    7
 10
821.28821483394086
 20
292.78351624087281
 11
822.44115678832418
 21
292.75313174689722
  0
LINE
  8
_0-8_
  6
CONTINUOUS
 62
    7
 10
822.44115678832418
 20
292.75313174689722
 11
823.5940987427075
 21
292.78351624087281
  0
LINE
  8
_0-8_
  6
CONTINUOUS
 62
    7
 10
823.5940987427075
 20
292.78351624087281
 11
824.71200913922371
 21
292.87374650532541
  0
LINE
  8
_0-8_
  6
CONTINUOUS
 62
    7
 10
824.71200913922371
 20
292.87374650532541
 11
825.76092083616436
 21
293.02108093932833
  0
LINE
  8
_0-8_
  6
CONTINUOUS
 62
    7
 10
825.76092083616436
 20
293.02108093932833
 11
826.70896318239329
 21
293.22104286065928
  0
LINE
  8
_0-8_
  6
CONTINUOUS
 62
    7
 10
826.70896318239329
 20
293.22104286065928
 11
827.52733039095256
 21
293.4675565275241
  0
LINE
  8
_0-8_
  6
CONTINUOUS
 62
    7
 10
827.52733039095256
 20
293.4675565275241
 11
828.19115678832395
 21
293.75313174689717
  0
LINE
  8
_0-8_
  6
CONTINUOUS
 62
    7
 10
828.19115678832395
 20
293.75313174689717
 11
828.68027234533588
 21
294.06909146024577
  0
LINE
  8
_0-8_
  6
CONTINUOUS
 62
    7
 10
828.68027234533588
 20
294.06909146024577
 11
828.97981553329282
 21
294.4058353915633
  0
LINE
  8
_0-8_
  6
CONTINUOUS
 62
    7
 10
828.97981553329282
 20
294.4058353915633
 11
829.08068488400477
 21
294.75313174689711
  0
LINE
  8
_0-8_
  6
CONTINUOUS
 62
    7
 10
829.08068488400477
 20
294.75313168265239
 11
829.13111957787828
 21
294.40583532829459
  0
LINE
  8
_0-8_
  6
CONTINUOUS
 62
    7
 10
829.13111957787828
 20
294.40583532829459
 11
829.28089118981165
 21
294.06909139987556
  0
LINE
  8
_0-8_
  6
CONTINUOUS
 62
    7
 10
829.28089118981165
 20
294.06909139987556
 11
829.5254489851643
 21
293.75313169125963
  0
LINE
  8
_0-8_
  6
CONTINUOUS
 62
    7
 10
829.5254489851643
 20
293.75313169125963
 11
829.85736219907676
 21
293.4675564783098
  0
LINE
  8
_0-8_
  6
CONTINUOUS
 62
    7
 10
829.85736219907676
 20
293.4675564783098
 11
830.26654581650041
 21
293.22104281936356
  0
LINE
  8
_0-8_
  6
CONTINUOUS
 62
    7
 10
830.26654581650041
 20
293.22104281936356
 11
830.74056700027654
 21
293.02108090720594
  0
LINE
  8
_0-8_
  6
CONTINUOUS
 62
    7
 10
830.74056700027654
 20
293.02108090720594
 11
831.26502285660285
 21
292.87374648335242
  0
LINE
  8
_0-8_
  6
CONTINUOUS
 62
    7
 10
831.26502285660285
 20
292.87374648335242
 11
831.82397805967184
 21
292.78351622971684
  0
LINE
  8
_0-8_
  6
CONTINUOUS
 62
    7
 10
831.82397805967184
 20
292.78351622971684
 11
832.40044903848366
 21
292.75313174689722
  0
LINE
  8
_0-8_
  6
CONTINUOUS
 62
    7
 10
832.40044903848366
 20
292.75313174689722
 11
832.97692001405517
 21
292.78351625202879
  0
LINE
  8
_0-8_
  6
CONTINUOUS
 62
    7
 10
832.97692001405517
 20
292.78351625202879
 11
833.53587520750239
 21
292.87374652729841
  0
LINE
  8
_0-8_
  6
CONTINUOUS
 62
    7
 10
833.53587520750239
 20
292.87374652729841
 11
834.06033104811695
 21
293.02108097145071
  0
LINE
  8
_0-8_
  6
CONTINUOUS
 62
    7
 10
834.06033104811695
 20
293.02108097145071
 11
834.53435221056952
 21
293.22104290195495
  0
LINE
  8
_0-8_
  6
CONTINUOUS
 62
    7
 10
834.53435221056952
 20
293.22104290195495
 11
834.94353580170514
 21
293.46755657673839
  0
LINE
  8
_0-8_
  6
CONTINUOUS
 62
    7
 10
834.94353580170514
 20
293.46755657673839
 11
835.2754489851643
 21
293.75313180253471
  0
LINE
  8
_0-8_
  6
CONTINUOUS
 62
    7
 10
835.2754489851643
 20
293.75313180253471
 11
835.52000674682336
 21
294.0690915206161
  0
LINE
  8
_0-8_
  6
CONTINUOUS
 62
    7
 10
835.52000674682336
 20
294.0690915206161
 11
835.66977832284692
 21
294.40583545483196
  0
LINE
  8
_0-8_
  6
CONTINUOUS
 62
    7
 10
835.66977832284692
 20
294.40583545483196
 11
835.72021297968536
 21
294.75313174689711
  0
LINE
  8
_0-8_
  6
CONTINUOUS
 62
    7
 10
829.08068488400477
 20
299.45313174689738
 11
828.97981553329282
 21
299.80042810223119
  0
LINE
  8
_0-8_
  6
CONTINUOUS
 62
    7
 10
828.97981553329282
 20
299.80042810223119
 11
828.68027234533588
 21
300.13717203354872
  0
LINE
  8
_0-8_
  6
CONTINUOUS
 62
    7
 10
828.68027234533588
 20
300.13717203354872
 11
828.19115678832395
 21
300.45313174689733
  0
LINE
  8
_0-8_
  6
CONTINUOUS
 62
    7
 10
828.19115678832395
 20
300.45313174689733
 11
827.52733039095256
 21
300.7387069662704
  0
LINE
  8
_0-8_
  6
CONTINUOUS
 62
    7
 10
827.52733039095256
 20
300.7387069662704
 11
826.70896318239329
 21
300.98522063313521
  0
LINE
  8
_0-8_
  6
CONTINUOUS
 62
    7
 10
826.70896318239329
 20
300.98522063313521
 11
825.76092083616436
 21
301.18518255446617
  0
LINE
  8
_0-8_
  6
CONTINUOUS
 62
    7
 10
825.76092083616436
 20
301.18518255446617
 11
824.71200913922371
 21
301.33251698846908
  0
LINE
  8
_0-8_
  6
CONTINUOUS
 62
    7
 10
824.71200913922371
 20
301.33251698846908
 11
823.5940987427075
 21
301.42274725292168
  0
LINE
  8
_0-8_
  6
CONTINUOUS
 62
    7
 10
823.5940987427075
 20
301.42274725292168
 11
822.44115678832418
 21
301.45313174689727
  0
LINE
  8
_0-8_
  6
CONTINUOUS
 62
    7
 10
822.44115678832418
 20
301.45313174689727
 11
821.28821483394086
 21
301.42274725292168
  0
LINE
  8
_0-8_
  6
CONTINUOUS
 62
    7
 10
821.28821483394086
 20
301.42274725292168
 11
820.17030443742465
 21
301.33251698846908
  0
LINE
  8
_0-8_
  6
CONTINUOUS
 62
    7
 10
820.17030443742465
 20
301.33251698846908
 11
819.12139274048377
 21
301.18518255446617
  0
LINE
  8
_0-8_
  6
CONTINUOUS
 62
    7
 10
819.12139274048377
 20
301.18518255446617
 11
818.17335039425507
 21
300.98522063313521
  0
LINE
  8
_0-8_
  6
CONTINUOUS
 62
    7
 10
818.17335039425507
 20
300.98522063313521
 11
817.35498318569557
 21
300.7387069662704
  0
LINE
  8
_0-8_
  6
CONTINUOUS
 62
    7
 10
817.35498318569557
 20
300.7387069662704
 11
816.69115678832418
 21
300.45313174689733
  0
LINE
  8
_0-8_
  6
CONTINUOUS
 62
    7
 10
816.69115678832418
 20
300.45313174689733
 11
816.20204123131225
 21
300.13717203354872
  0
LINE
  8
_0-8_
  6
CONTINUOUS
 62
    7
 10
816.20204123131225
 20
300.13717203354872
 11
815.90249804335554
 21
299.80042810223119
  0
LINE
  8
_0-8_
  6
CONTINUOUS
 62
    7
 10
815.90249804335554
 20
299.80042810223119
 11
815.80162869264359
 21
299.45313174689738
  0
LINE
  8
_0-8_
  6
CONTINUOUS
 62
    7
 10
835.72021297968536
 20
299.45313174689738
 11
835.66977830432938
 21
299.80042810223119
  0
LINE
  8
_0-8_
  6
CONTINUOUS
 62
    7
 10
835.66977830432938
 20
299.80042810223119
 11
835.5200067103508
 21
300.13717203354872
  0
LINE
  8
_0-8_
  6
CONTINUOUS
 62
    7
 10
835.5200067103508
 20
300.13717203354872
 11
835.27544893184495
 21
300.45313174689733
  0
LINE
  8
_0-8_
  6
CONTINUOUS
 62
    7
 10
835.27544893184495
 20
300.45313174689733
 11
834.94353573315925
 21
300.7387069662704
  0
LINE
  8
_0-8_
  6
CONTINUOUS
 62
    7
 10
834.94353573315925
 20
300.7387069662704
 11
834.53435212887962
 21
300.98522063313521
  0
LINE
  8
_0-8_
  6
CONTINUOUS
 62
    7
 10
834.53435212887962
 20
300.98522063313521
 11
834.06033095576527
 21
301.18518255446617
  0
LINE
  8
_0-8_
  6
CONTINUOUS
 62
    7
 10
834.06033095576527
 20
301.18518255446617
 11
833.53587510729471
 21
301.33251698846908
  0
LINE
  8
_0-8_
  6
CONTINUOUS
 62
    7
 10
833.53587510729471
 20
301.33251698846908
 11
832.97691990903672
 21
301.42274725292168
  0
LINE
  8
_0-8_
  6
CONTINUOUS
 62
    7
 10
832.97691990903672
 20
301.42274725292168
 11
832.40044893184495
 21
301.45313174689727
  0
LINE
  8
_0-8_
  6
CONTINUOUS
 62
    7
 10
832.40044893184495
 20
301.45313174689727
 11
831.8239779546534
 21
301.42274725292168
  0
LINE
  8
_0-8_
  6
CONTINUOUS
 62
    7
 10
831.8239779546534
 20
301.42274725292168
 11
831.26502275639518
 21
301.33251698846908
  0
LINE
  8
_0-8_
  6
CONTINUOUS
 62
    7
 10
831.26502275639518
 20
301.33251698846908
 11
830.74056690792486
 21
301.18518255446617
  0
LINE
  8
_0-8_
  6
CONTINUOUS
 62
    7
 10
830.74056690792486
 20
301.18518255446617
 11
830.26654573481051
 21
300.98522063313521
  0
LINE
  8
_0-8_
  6
CONTINUOUS
 62
    7
 10
830.26654573481051
 20
300.98522063313521
 11
829.85736213053087
 21
300.7387069662704
  0
LINE
  8
_0-8_
  6
CONTINUOUS
 62
    7
 10
829.85736213053087
 20
300.7387069662704
 11
829.52544893184495
 21
300.45313174689733
  0
LINE
  8
_0-8_
  6
CONTINUOUS
 62
    7
 10
829.52544893184495
 20
300.45313174689733
 11
829.2808911533391
 21
300.13717203354872
  0
LINE
  8
_0-8_
  6
CONTINUOUS
 62
    7
 10
829.2808911533391
 20
300.13717203354872
 11
829.13111955936074
 21
299.80042810223119
  0
LINE
  8
_0-8_
  6
CONTINUOUS
 62
    7
 10
829.13111955936074
 20
299.80042810223119
 11
829.08068488400477
 21
299.4531318111421
  0
LINE
  8
_0-8_
  6
CONTINUOUS
 62
    7
 10
815.80162869264359
 20
299.4531318111421
 11
815.75119399876985
 21
299.80042816549991
  0
LINE
  8
_0-8_
  6
CONTINUOUS
 62
    7
 10
815.75119399876985
 20
299.80042816549991
 11
815.60142238683648
 21
300.13717209391893
  0
LINE
  8
_0-8_
  6
CONTINUOUS
 62
    7
 10
815.60142238683648
 20
300.13717209391893
 11
815.35686459148383
 21
300.45313180253487
  0
LINE
  8
_0-8_
  6
CONTINUOUS
 62
    7
 10
815.35686459148383
 20
300.45313180253487
 11
815.02495137757137
 21
300.73870701548469
  0
LINE
  8
_0-8_
  6
CONTINUOUS
 62
    7
 10
815.02495137757137
 20
300.73870701548469
 11
814.61576776014795
 21
300.98522067443093
  0
LINE
  8
_0-8_
  6
CONTINUOUS
 62
    7
 10
814.61576776014795
 20
300.98522067443093
 11
814.14174657637159
 21
301.18518258658855
  0
LINE
  8
_0-8_
  6
CONTINUOUS
 62
    7
 10
814.14174657637159
 20
301.18518258658855
 11
813.6172907200455
 21
301.33251701044207
  0
LINE
  8
_0-8_
  6
CONTINUOUS
 62
    7
 10
813.6172907200455
 20
301.33251701044207
 11
813.05833551697629
 21
301.42274726407766
  0
LINE
  8
_0-8_
  6
CONTINUOUS
 62
    7
 10
813.05833551697629
 20
301.42274726407766
 11
812.4818645381647
 21
301.45313174689727
  0
LINE
  8
_0-8_
  6
CONTINUOUS
 62
    7
 10
812.4818645381647
 20
301.45313174689727
 11
811.90539356259296
 21
301.42274724176571
  0
LINE
  8
_0-8_
  6
CONTINUOUS
 62
    7
 10
811.90539356259296
 20
301.42274724176571
 11
811.34643836914597
 21
301.33251696649609
  0
LINE
  8
_0-8_
  6
CONTINUOUS
 62
    7
 10
811.34643836914597
 20
301.33251696649609
 11
810.82198252853141
 21
301.18518252234378
  0
LINE
  8
_0-8_
  6
CONTINUOUS
 62
    7
 10
810.82198252853141
 20
301.18518252234378
 11
810.34796136607883
 21
300.98522059183955
  0
LINE
  8
_0-8_
  6
CONTINUOUS
 62
    7
 10
810.34796136607883
 20
300.98522059183955
 11
809.93877777494299
 21
300.73870691705611
  0
LINE
  8
_0-8_
  6
CONTINUOUS
 62
    7
 10
809.93877777494299
 20
300.73870691705611
 11
809.60686459148405
 21
300.45313169125978
  0
LINE
  8
_0-8_
  6
CONTINUOUS
 62
    7
 10
809.60686459148405
 20
300.45313169125978
 11
809.36230682982477
 21
300.1371719731784
  0
LINE
  8
_0-8_
  6
CONTINUOUS
 62
    7
 10
809.36230682982477
 20
300.1371719731784
 11
809.21253525380143
 21
299.80042803896254
  0
LINE
  8
_0-8_
  6
CONTINUOUS
 62
    7
 10
809.21253525380143
 20
299.80042803896254
 11
809.162100596963
 21
299.45313174689738
  0
LINE
  8
_0-8_
  6
CONTINUOUS
 62
    7
 10
830.44115675354237
 20
292.75313174689722
 11
830.44115675354237
 21
228.45312774689683
  0
LINE
  8
_0-8_
  6
CONTINUOUS
 62
    7
 10
829.54115669294242
 20
228.45312774689683
 11
829.54115669294242
 21
292.75313174689722
  0
LINE
  8
_0-8_
  6
CONTINUOUS
 62
    7
 10
815.34115688364204
 20
292.75313174689722
 11
815.34115688364204
 21
228.45312774689683
  0
LINE
  8
_0-8_
  6
CONTINUOUS
 62
    7
 10
814.44115675354215
 20
228.45312774689683
 11
814.44115675354215
 21
292.75313174689722
  0
LINE
  8
_0-9_
  6
PHANTOM1
 62
  152
 10
797.44115678832418
 20
268.45312774689637
 11
797.44115678832418
 21
271.45312774689705
  0
LINE
  8
_0-9_
  6
PHANTOM1
 62
  152
 10
799.391156788324
 20
265.45312774689683
 11
799.391156788324
 21
268.45312774689637
  0
LINE
  8
_0-9_
  6
PHANTOM1
 62
  152
 10
797.69115678832395
 20
271.45312774689705
 11
797.69115678832395
 21
278.95312774689705
  0
ARC
  8
_0-9_
  6
PHANTOM1
 62
  152
 10
800.69115678832418
 20
278.95312774689705
 40
2.9999999999999858
 50
89.999999999999829
 51
180.0000000000002
  0
LINE
  8
_0-9_
  6
PHANTOM1
 62
  152
 10
845.49115678832482
 20
265.45312774689683
 11
799.391156788324
 21
265.45312774689683
  0
ARC
  8
_0-9_
  6
PHANTOM1
 62
  152
 10
844.19115678832418
 20
278.95312774689705
 40
2.9999999999999933
 50
359.99999999999977
 51
90.000000000000199
  0
LINE
  8
_0-9_
  6
PHANTOM1
 62
  152
 10
847.19115678832441
 20
278.95312774689705
 11
847.19115678832441
 21
271.45312774689705
  0
LINE
  8
_0-9_
  6
PHANTOM1
 62
  152
 10
847.44115678832418
 20
271.45312774689705
 11
847.44115678832418
 21
268.45312774689637
  0
LINE
  8
_0-9_
  6
PHANTOM1
 62
  152
 10
845.49115678832482
 20
268.45312774689637
 11
845.49115678832482
 21
265.45312774689683
  0
LINE
  8
_0-9_
  6
PHANTOM1
 62
  152
 10
797.44115678832418
 20
271.45312774689705
 11
797.69115678832395
 21
271.45312774689705
  0
LINE
  8
_0-9_
  6
PHANTOM1
 62
  152
 10
847.19115678832441
 20
271.45312774689705
 11
847.44115678832418
 21
271.45312774689705
  0
LINE
  8
_0-9_
  6
PHANTOM1
 62
  152
 10
847.44115678832418
 20
268.45312774689637
 11
845.49115678832482
 21
268.45312774689637
  0
LINE
  8
_0-9_
  6
PHANTOM1
 62
  152
 10
799.391156788324
 20
268.45312774689637
 11
797.44115678832418
 21
268.45312774689637
  0
LINE
  8
_0-9_
  6
PHANTOM1
 62
  152
 10
840.44115678832418
 20
281.9531277468966
 11
844.19115678832418
 21
281.9531277468966
  0
LINE
  8
_0-9_
  6
PHANTOM1
 62
  152
 10
809.73945086615277
 20
291.45312774689637
 11
809.73945086615277
 21
284.35312774689669
  0
LINE
  8
_0-9_
  6
PHANTOM1
 62
  152
 10
840.44115678832418
 20
281.9531277468966
 11
840.44115678832418
 21
282.35312774689692
  0
LINE
  8
_0-9_
  6
PHANTOM1
 62
  152
 10
804.69115678832372
 20
282.35312774689692
 11
804.69115678832372
 21
281.9531277468966
  0
LINE
  8
_0-9_
  6
PHANTOM1
 62
  152
 10
800.69115678832418
 20
281.9531277468966
 11
804.69115678832372
 21
281.9531277468966
  0
LINE
  8
_0-9_
  6
PHANTOM1
 62
  152
 10
831.96743622995245
 20
282.3531277468968
 11
831.96743622995245
 21
282.3531277468968
  0
LINE
  8
_0-9_
  6
PHANTOM1
 62
  152
 10
831.96743622995245
 20
282.3531277468968
 11
832.51884325161393
 21
282.38351224087239
  0
LINE
  8
_0-9_
  6
PHANTOM1
 62
  152
 10
832.51884325161393
 20
282.38351224087239
 11
833.05349604994774
 21
282.47374250532499
  0
LINE
  8
_0-9_
  6
PHANTOM1
 62
  152
 10
833.05349604994774
 20
282.47374250532499
 11
833.5551494702238
 21
282.62107693932791
  0
LINE
  8
_0-9_
  6
PHANTOM1
 62
  152
 10
833.5551494702238
 20
282.62107693932791
 11
834.00856102711577
 21
282.8210388606588
  0
LINE
  8
_0-9_
  6
PHANTOM1
 62
  152
 10
834.00856102711577
 20
282.8210388606588
 11
834.39995403990497
 21
283.06755252752367
  0
LINE
  8
_0-9_
  6
PHANTOM1
 62
  152
 10
834.39995403990497
 20
283.06755252752367
 11
834.71743622995211
 21
283.35312774689675
  0
LINE
  8
_0-9_
  6
PHANTOM1
 62
  152
 10
834.71743622995211
 20
283.35312774689675
 11
834.95136106156644
 21
283.66908746024541
  0
LINE
  8
_0-9_
  6
PHANTOM1
 62
  152
 10
834.95136106156644
 20
283.66908746024541
 11
835.09462084711106
 21
284.00583139156282
  0
LINE
  8
_0-9_
  6
PHANTOM1
 62
  152
 10
835.09462084711106
 20
284.00583139156282
 11
835.14286271049502
 21
284.35312774689669
  0
LINE
  8
_0-9_
  6
PHANTOM1
 62
  152
 10
840.44115678832418
 20
282.35312774689692
 11
831.96743622995245
 21
282.35312774689692
  0
LINE
  8
_0-9_
  6
PHANTOM1
 62
  152
 10
804.69115678832372
 20
282.35312774689692
 11
812.9148773466959
 21
282.35312774689692
  0
LINE
  8
_0-9_
  6
PHANTOM1
 62
  152
 10
809.73945086615333
 20
284.35312774689669
 11
809.73945086615333
 21
284.35312774689669
  0
LINE
  8
_0-9_
  6
PHANTOM1
 62
  152
 10
809.73945086615333
 20
284.35312774689669
 11
809.7876927295373
 21
284.00583139156282
  0
LINE
  8
_0-9_
  6
PHANTOM1
 62
  152
 10
809.7876927295373
 20
284.00583139156282
 11
809.93095251508191
 21
283.66908746024541
  0
LINE
  8
_0-9_
  6
PHANTOM1
 62
  152
 10
809.93095251508191
 20
283.66908746024541
 11
810.16487734669624
 21
283.35312774689675
  0
LINE
  8
_0-9_
  6
PHANTOM1
 62
  152
 10
810.16487734669624
 20
283.35312774689675
 11
810.48235953674339
 21
283.06755252752367
  0
LINE
  8
_0-9_
  6
PHANTOM1
 62
  152
 10
810.48235953674339
 20
283.06755252752367
 11
810.87375254953258
 21
282.8210388606588
  0
LINE
  8
_0-9_
  6
PHANTOM1
 62
  152
 10
810.87375254953258
 20
282.8210388606588
 11
811.32716410642456
 21
282.62107693932791
  0
LINE
  8
_0-9_
  6
PHANTOM1
 62
  152
 10
811.32716410642456
 20
282.62107693932791
 11
811.82881752670062
 21
282.47374250532499
  0
LINE
  8
_0-9_
  6
PHANTOM1
 62
  152
 10
811.82881752670062
 20
282.47374250532499
 11
812.36347032503443
 21
282.38351224087239
  0
LINE
  8
_0-9_
  6
PHANTOM1
 62
  152
 10
812.36347032503443
 20
282.38351224087239
 11
812.9148773466959
 21
282.3531277468968
  0
LINE
  8
_0-9_
  6
PHANTOM1
 62
  152
 10
835.14286271049559
 20
284.35312774689669
 11
835.14286271049559
 21
291.45312774689637
  0
LINE
  8
_0-9_
  6
PHANTOM1
 62
  152
 10
155.45482493496644
 20
414.55312774689651
 11
154.55482493496612
 21
415.45312774689683
  0
LINE
  8
_0-9_
  6
PHANTOM1
 62
  152
 10
154.55482493496612
 20
415.45312774689683
 11
140.35482493496653
 21
415.45312774689683
  0
LINE
  8
_0-9_
  6
PHANTOM1
 62
  152
 10
140.35482493496653
 20
415.45312774689683
 11
139.45482493496621
 21
414.55312774689651
  0
LINE
  8
_0-9_
  6
PHANTOM1
 62
  152
 10
288.79758154425446
 20
414.55312774689651
 11
287.89758154425414
 21
415.45312774689683
  0
LINE
  8
_0-9_
  6
PHANTOM1
 62
  152
 10
287.89758154425414
 20
415.45312774689683
 11
273.69758154425455
 21
415.45312774689683
  0
LINE
  8
_0-9_
  6
PHANTOM1
 62
  152
 10
273.69758154425455
 20
415.45312774689683
 11
272.79758154425423
 21
414.55312774689651
  0
LINE
  8
_0-9_
  6
PHANTOM1
 62
  152
 10
697.09840014425436
 20
414.55312774689651
 11
696.19840014425404
 21
415.45312774689683
  0
LINE
  8
_0-9_
  6
PHANTOM1
 62
  152
 10
696.19840014425404
 20
415.45312774689683
 11
681.99840014425445
 21
415.45312774689683
  0
LINE
  8
_0-9_
  6
PHANTOM1
 62
  152
 10
681.99840014425445
 20
415.45312774689683
 11
681.09840014425413
 21
414.55312774689651
  0
LINE
  8
_0-9_
  6
PHANTOM1
 62
  152
 10
830.44115675354237
 20
414.55312774689651
 11
829.54115675354205
 21
415.45312774689683
  0
LINE
  8
_0-9_
  6
PHANTOM1
 62
  152
 10
829.54115675354205
 20
415.45312774689683
 11
815.34115675354246
 21
415.45312774689683
  0
LINE
  8
_0-9_
  6
PHANTOM1
 62
  152
 10
815.34115675354246
 20
415.45312774689683
 11
814.44115675354215
 21
414.55312774689651
  0
LINE
  8
_0-8_
  6
CONTINUOUS
 62
  152
 10
139.45482493496621
 20
350.55312774689651
 11
155.45482493496644
 21
350.55312774689651
  0
LINE
  8
_0-8_
  6
CONTINUOUS
 62
    7
 10
154.55482493496612
 20
351.45312774689683
 11
140.35482493496653
 21
351.45312774689683
  0
LINE
  8
_0-8_
  6
CONTINUOUS
 62
    7
 10
140.35482493496653
 20
351.45312774689683
 11
139.45482493496621
 21
350.55312774689651
  0
LINE
  8
_0-8_
  6
CONTINUOUS
 62
    7
 10
155.45482493496644
 20
350.55312774689651
 11
154.55482493496612
 21
351.45312774689683
  0
LINE
  8
_0-8_
  6
CONTINUOUS
 62
  152
 10
140.35482506506622
 20
331.45313174689727
 11
140.35482506506622
 21
351.45312787699652
  0
LINE
  8
_0-8_
  6
CONTINUOUS
 62
  152
 10
154.55482487436649
 20
331.45313174689727
 11
154.55482487436649
 21
351.45312780749651
  0
LINE
  8
_0-8_
  6
CONTINUOUS
 62
    7
 10
139.45482493496621
 20
350.55312774689651
 11
139.45482493496621
 21
331.45313174689727
  0
LINE
  8
_0-8_
  6
CONTINUOUS
 62
    7
 10
155.45482493496644
 20
350.55312774689651
 11
155.45482493496644
 21
331.45313174689727
  0
LINE
  8
_0-8_
  6
CONTINUOUS
 62
  152
 10
272.79758154425423
 20
350.55312774689651
 11
288.79758154425446
 21
350.55312774689651
  0
LINE
  8
_0-8_
  6
CONTINUOUS
 62
    7
 10
287.89758154425414
 20
351.45312774689683
 11
273.69758154425455
 21
351.45312774689683
  0
LINE
  8
_0-8_
  6
CONTINUOUS
 62
    7
 10
273.69758154425455
 20
351.45312774689683
 11
272.79758154425423
 21
350.55312774689651
  0
LINE
  8
_0-8_
  6
CONTINUOUS
 62
    7
 10
288.79758154425446
 20
350.55312774689651
 11
287.89758154425414
 21
351.45312774689683
  0
LINE
  8
_0-8_
  6
CONTINUOUS
 62
  152
 10
273.69758167435424
 20
331.45313174689727
 11
273.69758167435424
 21
351.45312787699652
  0
LINE
  8
_0-8_
  6
CONTINUOUS
 62
  152
 10
287.89758148365451
 20
331.45313174689727
 11
287.89758148365451
 21
351.45312780749651
  0
LINE
  8
_0-8_
  6
CONTINUOUS
 62
    7
 10
272.79758154425423
 20
350.55312774689651
 11
272.79758154425423
 21
331.45313174689727
  0
LINE
  8
_0-8_
  6
CONTINUOUS
 62
    7
 10
288.79758154425446
 20
350.55312774689651
 11
288.79758154425446
 21
331.45313174689727
  0
LINE
  8
_0-8_
  6
CONTINUOUS
 62
  152
 10
681.09840014425413
 20
350.55312774689651
 11
697.09840014425436
 21
350.55312774689651
  0
LINE
  8
_0-8_
  6
CONTINUOUS
 62
    7
 10
696.19840014425404
 20
351.45312774689683
 11
681.99840014425445
 21
351.45312774689683
  0
LINE
  8
_0-8_
  6
CONTINUOUS
 62
    7
 10
681.99840014425445
 20
351.45312774689683
 11
681.09840014425413
 21
350.55312774689651
  0
LINE
  8
_0-8_
  6
CONTINUOUS
 62
    7
 10
697.09840014425436
 20
350.55312774689651
 11
696.19840014425404
 21
351.45312774689683
  0
LINE
  8
_0-8_
  6
CONTINUOUS
 62
  152
 10
681.99840027435403
 20
331.45313174689727
 11
681.99840027435403
 21
351.45312787699652
  0
LINE
  8
_0-8_
  6
CONTINUOUS
 62
  152
 10
696.19840008365441
 20
331.45313174689727
 11
696.19840008365441
 21
351.45312780749651
  0
LINE
  8
_0-8_
  6
CONTINUOUS
 62
    7
 10
681.09840014425413
 20
350.55312774689651
 11
681.09840014425413
 21
331.45313174689727
  0
LINE
  8
_0-8_
  6
CONTINUOUS
 62
    7
 10
697.09840014425436
 20
350.55312774689651
 11
697.09840014425436
 21
331.45313174689727
  0
LINE
  8
_0-8_
  6
CONTINUOUS
 62
  152
 10
814.44115675354215
 20
350.55312774689651
 11
830.44115675354237
 21
350.55312774689651
  0
LINE
  8
_0-8_
  6
CONTINUOUS
 62
    7
 10
829.54115675354205
 20
351.45312774689683
 11
815.34115675354246
 21
351.45312774689683
  0
LINE
  8
_0-8_
  6
CONTINUOUS
 62
    7
 10
815.34115675354246
 20
351.45312774689683
 11
814.44115675354215
 21
350.55312774689651
  0
LINE
  8
_0-8_
  6
CONTINUOUS
 62
    7
 10
830.44115675354237
 20
350.55312774689651
 11
829.54115675354205
 21
351.45312774689683
  0
LINE
  8
_0-8_
  6
CONTINUOUS
 62
  152
 10
815.34115688364204
 20
331.45313174689727
 11
815.34115688364204
 21
351.45312787699652
  0
LINE
  8
_0-8_
  6
CONTINUOUS
 62
  152
 10
829.54115669294242
 20
331.45313174689727
 11
829.54115669294242
 21
351.45312780749651
  0
LINE
  8
_0-8_
  6
CONTINUOUS
 62
    7
 10
814.44115675354215
 20
350.55312774689651
 11
814.44115675354215
 21
331.45313174689727
  0
LINE
  8
_0-8_
  6
CONTINUOUS
 62
    7
 10
830.44115675354237
 20
350.55312774689651
 11
830.44115675354237
 21
331.45313174689727
  0
LINE
  8
_0-9_
  6
PHANTOM1
 62
  152
 10
139.45482493496621
 20
414.55312774689651
 11
139.45482493496621
 21
360.68447420778034
  0
LINE
  8
_0-9_
  6
PHANTOM1
 62
  152
 10
155.45482493496644
 20
360.68447420778034
 11
155.45482493496644
 21
414.55312774689651
  0
LINE
  8
_0-9_
  6
PHANTOM1
 62
  152
 10
272.79758154425423
 20
414.55312774689651
 11
272.79758154425423
 21
360.68447420778034
  0
LINE
  8
_0-9_
  6
PHANTOM1
 62
  152
 10
288.79758154425446
 20
360.68447420778034
 11
288.79758154425446
 21
414.55312774689651
  0
LINE
  8
_0-9_
  6
PHANTOM1
 62
  152
 10
681.09840014425413
 20
414.55312774689651
 11
681.09840014425413
 21
360.68447420778034
  0
LINE
  8
_0-9_
  6
PHANTOM1
 62
  152
 10
697.09840014425436
 20
360.68447420778034
 11
697.09840014425436
 21
414.55312774689651
  0
LINE
  8
_0-9_
  6
PHANTOM1
 62
  152
 10
814.44115675354215
 20
414.55312774689651
 11
814.44115675354215
 21
360.68447420778034
  0
LINE
  8
_0-9_
  6
PHANTOM1
 62
  152
 10
830.44115675354237
 20
360.68447420778034
 11
830.44115675354237
 21
414.55312774689651
  0
LINE
  8
_0-1_
  6
CENTER1
 62
  152
 10
147.45482496974824
 20
181.45313174689682
 11
147.45482496974824
 21
415.45312774689683
  0
LINE
  8
_0-9_
  6
PHANTOM1
 62
  152
 10
122.45482496974824
 20
184.45313174689636
 11
122.45482496974824
 21
187.45313174689704
  0
LINE
  8
_0-9_
  6
PHANTOM1
 62
  152
 10
124.40482496974806
 20
181.45313174689682
 11
124.40482496974806
 21
184.45313174689636
  0
LINE
  8
_0-9_
  6
PHANTOM1
 62
  152
 10
170.50482496974888
 20
181.45313174689682
 11
124.40482496974806
 21
181.45313174689682
  0
LINE
  8
_0-9_
  6
PHANTOM1
 62
  152
 10
172.45482496974824
 20
187.45313174689704
 11
172.45482496974824
 21
184.45313174689636
  0
LINE
  8
_0-9_
  6
PHANTOM1
 62
  152
 10
170.50482496974888
 20
184.45313174689636
 11
170.50482496974888
 21
181.45313174689682
  0
LINE
  8
_0-9_
  6
PHANTOM1
 62
  152
 10
122.45482496974824
 20
187.45313174689704
 11
122.70482496974802
 21
187.45313174689704
  0
LINE
  8
_0-9_
  6
PHANTOM1
 62
  152
 10
172.20482496974847
 20
187.45313174689704
 11
172.45482496974824
 21
187.45313174689704
  0
LINE
  8
_0-9_
  6
PHANTOM1
 62
  152
 10
172.45482496974824
 20
184.45313174689636
 11
170.50482496974888
 21
184.45313174689636
  0
LINE
  8
_0-9_
  6
PHANTOM1
 62
  152
 10
124.40482496974806
 20
184.45313174689636
 11
122.45482496974824
 21
184.45313174689636
  0
LINE
  8
_0-9_
  6
PHANTOM1
 62
  152
 10
122.70482496974802
 20
187.45313174689704
 11
122.70482496974802
 21
189.38843240342493
  0
LINE
  8
_0-9_
  6
PHANTOM1
 62
  152
 10
172.20482496974847
 20
189.38843240342493
 11
172.20482496974847
 21
187.45313174689704
  0
LINE
  8
_0-9_
  6
PHANTOM1
 62
  152
 10
255.79758157903626
 20
184.45313174689636
 11
255.79758157903626
 21
187.45313174689704
  0
LINE
  8
_0-9_
  6
PHANTOM1
 62
  152
 10
257.74758157903608
 20
181.45313174689682
 11
257.74758157903608
 21
184.45313174689636
  0
LINE
  8
_0-9_
  6
PHANTOM1
 62
  152
 10
303.8475815790369
 20
181.45313174689682
 11
257.74758157903608
 21
181.45313174689682
  0
LINE
  8
_0-9_
  6
PHANTOM1
 62
  152
 10
305.79758157903626
 20
187.45313174689704
 11
305.79758157903626
 21
184.45313174689636
  0
LINE
  8
_0-9_
  6
PHANTOM1
 62
  152
 10
303.8475815790369
 20
184.45313174689636
 11
303.8475815790369
 21
181.45313174689682
  0
LINE
  8
_0-9_
  6
PHANTOM1
 62
  152
 10
255.79758157903626
 20
187.45313174689704
 11
256.04758157903603
 21
187.45313174689704
  0
LINE
  8
_0-9_
  6
PHANTOM1
 62
  152
 10
305.54758157903649
 20
187.45313174689704
 11
305.79758157903626
 21
187.45313174689704
  0
LINE
  8
_0-9_
  6
PHANTOM1
 62
  152
 10
305.79758157903626
 20
184.45313174689636
 11
303.8475815790369
 21
184.45313174689636
  0
LINE
  8
_0-9_
  6
PHANTOM1
 62
  152
 10
257.74758157903608
 20
184.45313174689636
 11
255.79758157903626
 21
184.45313174689636
  0
LINE
  8
_0-9_
  6
PHANTOM1
 62
  152
 10
256.04758157903603
 20
187.45313174689704
 11
256.04758157903603
 21
189.38843240342493
  0
LINE
  8
_0-9_
  6
PHANTOM1
 62
  152
 10
305.54758157903649
 20
189.38843240342493
 11
305.54758157903649
 21
187.45313174689704
  0
LINE
  8
_0-9_
  6
PHANTOM1
 62
  152
 10
664.09840017903616
 20
184.45313174689636
 11
664.09840017903616
 21
187.45313174689704
  0
LINE
  8
_0-9_
  6
PHANTOM1
 62
  152
 10
666.04840017903598
 20
181.45313174689682
 11
666.04840017903598
 21
184.45313174689636
  0
LINE
  8
_0-9_
  6
PHANTOM1
 62
  152
 10
712.1484001790368
 20
181.45313174689682
 11
666.04840017903598
 21
181.45313174689682
  0
LINE
  8
_0-9_
  6
PHANTOM1
 62
  152
 10
714.09840017903616
 20
187.45313174689704
 11
714.09840017903616
 21
184.45313174689636
  0
LINE
  8
_0-9_
  6
PHANTOM1
 62
  152
 10
712.1484001790368
 20
184.45313174689636
 11
712.1484001790368
 21
181.45313174689682
  0
LINE
  8
_0-9_
  6
PHANTOM1
 62
  152
 10
664.09840017903616
 20
187.45313174689704
 11
664.34840017903593
 21
187.45313174689704
  0
LINE
  8
_0-9_
  6
PHANTOM1
 62
  152
 10
713.84840017903639
 20
187.45313174689704
 11
714.09840017903616
 21
187.45313174689704
  0
LINE
  8
_0-9_
  6
PHANTOM1
 62
  152
 10
714.09840017903616
 20
184.45313174689636
 11
712.1484001790368
 21
184.45313174689636
  0
LINE
  8
_0-9_
  6
PHANTOM1
 62
  152
 10
666.04840017903598
 20
184.45313174689636
 11
664.09840017903616
 21
184.45313174689636
  0
LINE
  8
_0-9_
  6
PHANTOM1
 62
  152
 10
664.34840017903593
 20
187.45313174689704
 11
664.34840017903593
 21
189.38843240342493
  0
LINE
  8
_0-9_
  6
PHANTOM1
 62
  152
 10
713.84840017903639
 20
189.38843240342493
 11
713.84840017903639
 21
187.45313174689704
  0
LINE
  8
_0-9_
  6
PHANTOM1
 62
  152
 10
797.44115678832418
 20
184.45313174689636
 11
797.44115678832418
 21
187.45313174689704
  0
LINE
  8
_0-9_
  6
PHANTOM1
 62
  152
 10
799.391156788324
 20
181.45313174689682
 11
799.391156788324
 21
184.45313174689636
  0
LINE
  8
_0-9_
  6
PHANTOM1
 62
  152
 10
845.49115678832482
 20
181.45313174689682
 11
799.391156788324
 21
181.45313174689682
  0
LINE
  8
_0-9_
  6
PHANTOM1
 62
  152
 10
847.44115678832418
 20
187.45313174689704
 11
847.44115678832418
 21
184.45313174689636
  0
LINE
  8
_0-9_
  6
PHANTOM1
 62
  152
 10
845.49115678832482
 20
184.45313174689636
 11
845.49115678832482
 21
181.45313174689682
  0
LINE
  8
_0-9_
  6
PHANTOM1
 62
  152
 10
797.44115678832418
 20
187.45313174689704
 11
797.69115678832395
 21
187.45313174689704
  0
LINE
  8
_0-9_
  6
PHANTOM1
 62
  152
 10
847.19115678832441
 20
187.45313174689704
 11
847.44115678832418
 21
187.45313174689704
  0
LINE
  8
_0-9_
  6
PHANTOM1
 62
  152
 10
847.44115678832418
 20
184.45313174689636
 11
845.49115678832482
 21
184.45313174689636
  0
LINE
  8
_0-9_
  6
PHANTOM1
 62
  152
 10
799.391156788324
 20
184.45313174689636
 11
797.44115678832418
 21
184.45313174689636
  0
LINE
  8
_0-9_
  6
PHANTOM1
 62
  152
 10
797.69115678832395
 20
187.45313174689704
 11
797.69115678832395
 21
189.38843240342493
  0
LINE
  8
_0-9_
  6
PHANTOM1
 62
  152
 10
847.19115678832441
 20
189.38843240342493
 11
847.19115678832441
 21
187.45313174689704
  0
LINE
  8
_0-1_
  6
CENTER1
 62
  152
 10
822.44115678832418
 20
181.969232302199
 11
822.44115678832418
 21
415.45312774689683
  0
LINE
  8
_0-1_
  6
CENTER1
 62
  152
 10
689.09840017903616
 20
181.45313174689682
 11
689.09840017903616
 21
415.45312774689683
  0
LINE
  8
_0-1_
  6
CENTER1
 62
  152
 10
280.79758157903626
 20
181.45313174689682
 11
280.79758157903626
 21
415.45312774689683
  0
ENDSEC
  0
EOF
