  0
SECTION
  2
HEADER
  9
$ACADVER
  1
AC1009
  9
$INSBASE
 10
0
 20
0
 30
0
  9
$EXTMIN
 10
0
 20
0
  9
$EXTMAX
 10
1189
 20
841
  9
$LIMMIN
 10
0
 20
0
  9
$LIMMAX
 10
1189
 20
841
  9
$LTSCALE
 40
1
  0
ENDSEC
  0
SECTION
  2
TABLES
  0
TABLE
  2
LTYPE
 70
     9
  0
LTYPE
  2
CONTINUOUS
 70
    64
  3
実線
 72
    65
 73
     0
 40
0.0
  0
LTYPE
  2
DASHED1
 70
    64
  3
--  --  --  --  --  --  --  --  
 72
    65
 73
     2
 40
2.5
 49
1.25
 49
-1.25
  0
LTYPE
  2
DASHED2
 70
    64
  3
----    ----    ----    ----    
 72
    65
 73
     2
 40
5.0
 49
2.5
 49
-2.5
  0
LTYPE
  2
DASHED3
 70
    64
  3
------  ------  ------  ------  
 72
    65
 73
     2
 40
5.0
 49
3.75
 49
-1.25
  0
LTYPE
  2
CENTER1
 70
    64
  3
----- - ----- - ----- - ----- - 
 72
    65
 73
     4
 40
10.0
 49
6.25
 49
-1.25
 49
1.25
 49
-1.25
  0
LTYPE
  2
CENTER2
 70
    64
  3
----------  --  ----------  --  
 72
    65
 73
     4
 40
20.0
 49
12.5
 49
-2.5
 49
2.5
 49
-2.5
  0
LTYPE
  2
PHANTOM1
 70
    64
  3
--- - - --- - - --- - - --- - - 
 72
    65
 73
     6
 40
10.0
 49
3.25
 49
-1.25
 49
1.25
 49
-1.25
 49
1.25
 49
-1.25
  0
LTYPE
  2
PHANTOM2
 70
    64
  3
--------  -  -  --------  -  -  
 72
    65
 73
     6
 40
20.0
 49
10.0
 49
-2.5
 49
1.25
 49
-2.5
 49
1.25
 49
-2.5
  0
LTYPE
  2
DOT
 70
    64
  3
-   -   -   -   -   -   -   -   
 72
    65
 73
     2
 40
2.5
 49
0.625
 49
-1.875
  0
LTYPE
  2
DUMMY
 70
    64
  3
ダミー
 72
    65
 73
     0
 40
0.0
  0
LTYPE
  2
RAND1
 70
    64
  3
ランダム線1
 72
    65
 73
     4
 40
10.0
 49
1.0
 49
-2.0
 49
3.0
 49
-4.0
  0
LTYPE
  2
RAND2
 70
    64
  3
ランダム線2
 72
    65
 73
     4
 40
14.0
 49
2.0
 49
-3.0
 49
4.0
 49
-5.0
  0
LTYPE
  2
RAND3
 70
    64
  3
ランダム線3
 72
    65
 73
     4
 40
18.0
 49
3.0
 49
-4.0
 49
5.0
 49
-6.0
  0
LTYPE
  2
RAND4
 70
    64
  3
ランダム線4
 72
    65
 73
     4
 40
22.0
 49
4.0
 49
-5.0
 49
6.0
 49
-7.0
  0
LTYPE
  2
RAND5
 70
    64
  3
ランダム線5
 72
    65
 73
     4
 40
26.0
 49
5.0
 49
-6.0
 49
7.0
 49
-8.0
  0
LTYPE
  2
LONG1
 70
    64
  3
----------  --  ----------  --  
 72
    65
 73
     4
 40
40.0
 49
32.5
 49
-2.5
 49
2.5
 49
-2.5
  0
LTYPE
  2
LONG2
 70
    64
  3
--------  -  -  --------  -  -  
 72
    65
 73
     6
 40
40.0
 49
30.0
 49
-2.5
 49
1.25
 49
-2.5
 49
1.25
 49
-2.5
  0
LTYPE
  2
LONG3
 70
    64
  3
+++++++++++++++..+++++++++++++++
 72
    65
 73
     2
 40
40.0
 49
37.5
 49
-2.5
  0
LTYPE
  2
LONG4
 70
    64
  3
+++++++++++++++..+++++++++++++++
 72
    65
 73
     2
 40
80.0
 49
75.0
 49
-5.0
  0
LTYPE
  2
LONG5
 70
    64
  3
----------  --  ----------  --  
 72
    65
 73
     4
 40
60.0
 49
37.5
 49
-7.5
 49
7.5
 49
-7.5
  0
LTYPE
  2
dashed
 70
   64
  3
-------   -------------   ------
 72
   65
 73
    2
 40
7.5
 49
6
 49
-1.5
  0
LTYPE
  2
dashed_spaced
 70
   64
  3
----        --------        ----
 72
   65
 73
    2
 40
12
 49
6
 49
-6
  0
LTYPE
  2
long_dashed_dotted
 70
   64
  3
------------- --- --------------
 72
   65
 73
    4
 40
15.25
 49
12
 49
-1.5
 49
0.25
 49
-1.5
  0
LTYPE
  2
long_dashed_double-dotted
 70
   64
  3
----------- --- --- ------------
 72
   65
 73
    6
 40
17
 49
12
 49
-1.5
 49
0.25
 49
-1.5
 49
0.25
 49
-1.5
  0
LTYPE
  2
long_dashed_triplicate-dotted
 70
   64
  3
--------- --- --- --- ----------
 72
   65
 73
    8
 40
18.75
 49
12
 49
-1.5
 49
0.25
 49
-1.5
 49
0.25
 49
-1.5
 49
0.25
 49
-1.5
  0
LTYPE
  2
dotted
 70
   64
  3
   -       -       -       -    
 72
   65
 73
    2
 40
1.75
 49
0.25
 49
-1.5
  0
LTYPE
  2
chain
 70
   64
  3
-------------- -- --------------
 72
   65
 73
    4
 40
18.5
 49
12
 49
-1.5
 49
3.5
 49
-1.5
  0
LTYPE
  2
chain_double_dash
 70
   64
  3
------------ -- -- -------------
 72
   65
 73
    6
 40
23.5
 49
12
 49
-1.5
 49
3.5
 49
-1.5
 49
3.5
 49
-1.5
  0
LTYPE
  2
dashed_dotted
 70
   64
  3
-----------     -     ----------
 72
   65
 73
    4
 40
9.25
 49
6
 49
-1.5
 49
0.25
 49
-1.5
  0
LTYPE
  2
double-dashed_dotted
 70
   64
  3
------   -----------   -   -----
 72
   65
 73
    6
 40
16.75
 49
6
 49
-1.5
 49
6
 49
-1.5
 49
0.25
 49
-1.5
  0
LTYPE
  2
dashed_double-dotted
 70
   64
  3
---------    -    -    ---------
 72
   65
 73
    6
 40
11
 49
6
 49
-1.5
 49
0.25
 49
-1.5
 49
0.25
 49
-1.5
  0
LTYPE
  2
double-dashed_double-dotted
 70
   64
  3
-----   ---------   -   -   ----
 72
   65
 73
    8
 40
18.5
 49
6
 49
-1.5
 49
6
 49
-1.5
 49
0.25
 49
-1.5
 49
0.25
 49
-1.5
  0
LTYPE
  2
dashed_triplicate-dotted
 70
   64
  3
-------    -    -    -    ------
 72
   65
 73
    8
 40
12.75
 49
6
 49
-1.5
 49
0.25
 49
-1.5
 49
0.25
 49
-1.5
 49
0.25
 49
-1.5
  0
LTYPE
  2
double-dashed_triplicate-dotted
 70
   64
  3
-----  ---------  -  -  -  -----
 72
   65
 73
   10
 40
20.25
 49
6
 49
-1.5
 49
6
 49
-1.5
 49
0.25
 49
-1.5
 49
0.25
 49
-1.5
 49
0.25
 49
-1.5
  0
LTYPE
  2
undefined
 70
   64
  3
--------------------------------
 72
   65
 73
    0
 40
0
  0
LTYPE
  2
_
 70
   64
  3
                                
 72
   65
 73
    0
 40
0
  0
LTYPE
  2
__18
 70
   64
  3
                                
 72
   65
 73
    0
 40
0
  0
LTYPE
  2
__19
 70
   64
  3
                                
 72
   65
 73
    0
 40
0
  0
LTYPE
  2
__20
 70
   64
  3
                                
 72
   65
 73
    0
 40
0
  0
LTYPE
  2
__21
 70
   64
  3
                                
 72
   65
 73
    0
 40
0
  0
LTYPE
  2
__22
 70
   64
  3
                                
 72
   65
 73
    0
 40
0
  0
LTYPE
  2
__23
 70
   64
  3
                                
 72
   65
 73
    0
 40
0
  0
LTYPE
  2
__24
 70
   64
  3
                                
 72
   65
 73
    0
 40
0
  0
LTYPE
  2
__25
 70
   64
  3
                                
 72
   65
 73
    0
 40
0
  0
LTYPE
  2
__26
 70
   64
  3
                                
 72
   65
 73
    0
 40
0
  0
LTYPE
  2
__27
 70
   64
  3
                                
 72
   65
 73
    0
 40
0
  0
LTYPE
  2
__28
 70
   64
  3
                                
 72
   65
 73
    0
 40
0
  0
LTYPE
  2
__29
 70
   64
  3
                                
 72
   65
 73
    0
 40
0
  0
LTYPE
  2
__30
 70
   64
  3
                                
 72
   65
 73
    0
 40
0
  0
LTYPE
  2
__31
 70
   64
  3
                                
 72
   65
 73
    0
 40
0
  0
LTYPE
  2
__32
 70
   64
  3
                                
 72
   65
 73
    0
 40
0
  0
ENDTAB
  0
TABLE
  2
STYLE
  5
3
100
AcDbSymbolTable
 70
     1
  0
STYLE
  5
10
100
AcDbSymbolTableRecord
100
AcDbTextStyleTableRecord
  2
STANDARD
 70
     0
 40
0.0
 41
1.0
 50
0.0
 71
     0
 42
0.2
  3
txt
  4
bigfont.shx
  0
STYLE
  5
26
100
AcDbSymbolTableRecord
100
AcDbTextStyleTableRecord
  2
TATEGAKI
 70
    68
 40
0.0
 41
1.0
 50
0.0
 71
     0
 42
1.0
  3
txt
  4
bigfont.shx
  0
ENDTAB
  0
TABLE
  2
LAYER
 70
    6
  0
LAYER
  2
_0-0_
 70
   64
 62
    7
  6
CONTINUOUS
  0
LAYER
  2
_0-1_
 70
   64
 62
    7
  6
CONTINUOUS
  0
LAYER
  2
_0-8_
 70
   64
 62
    7
  6
CONTINUOUS
  0
LAYER
  2
_0-9_
 70
   64
 62
    7
  6
CONTINUOUS
  0
LAYER
  2
_0-f_
 70
   64
 62
    7
  6
CONTINUOUS
  0
LAYER
  2
ADD_LINE
 70
   64
 62
    7
  6
CONTINUOUS
  0
ENDTAB
  0
ENDSEC
  0
SECTION
  2
BLOCKS
  0
ENDSEC
  0
SECTION
  2
ENTITIES
  0
LINE
  8
_0-1_
  6
PHANTOM1
 62
    7
 10
37.526757819961176
 20
672.9769318631445
 11
50.859347478851191
 21
623.2190298596995
  0
LINE
  8
_0-1_
  6
PHANTOM1
 62
    7
 10
173.18420229896947
 20
628.68924070591754
 11
173.18420229896947
 21
731.53229086551346
  0
LINE
  8
_0-1_
  6
PHANTOM1
 62
    7
 10
167.67970200624751
 20
733.00721727368511
 11
218.87656921222748
 21
719.28905805083934
  0
LINE
  8
_0-1_
  6
PHANTOM1
 62
    7
 10
173.18420229896947
 20
668.68924070591754
 11
38.67564120293423
 21
668.68924070591754
  0
LINE
  8
_0-1_
  6
PHANTOM1
 62
    7
 10
966.49538893595354
 20
623.2190298596995
 11
979.82797859484356
 21
672.9769318631445
  0
LINE
  8
_0-1_
  6
PHANTOM1
 62
    7
 10
978.6790952118705
 20
668.68924070591754
 11
844.17053411583527
 21
668.68924070591754
  0
LINE
  8
_0-1_
  6
PHANTOM1
 62
    7
 10
844.17053411583527
 20
628.68924070591754
 11
844.17053411583527
 21
731.53229086551346
  0
LINE
  8
_0-1_
  6
PHANTOM1
 62
    7
 10
849.67503440855717
 20
733.00721727368511
 11
798.47816720257731
 21
719.28905805083934
  0
LINE
  8
_0-0_
  6
CONTINUOUS
 62
    7
 10
209.18420229896935
 20
624.93924070591822
 11
209.18420229896958
 21
613.68924070591822
  0
LINE
  8
_0-0_
  6
CONTINUOUS
 62
    7
 10
209.18420229896958
 20
613.68924070591822
 11
205.98420229896965
 21
613.68924070591822
  0
LINE
  8
_0-0_
  6
CONTINUOUS
 62
    7
 10
205.98420229896965
 20
613.68924070591822
 11
205.98420229896954
 21
624.98924070591829
  0
LINE
  8
_0-0_
  6
CONTINUOUS
 62
    7
 10
205.48420229896954
 20
625.48924070591829
 11
73.184202298969467
 21
625.48924070591772
  0
LINE
  8
_0-0_
  6
CONTINUOUS
 62
    7
 10
73.184202298969467
 20
625.48924070591772
 11
73.184202298969467
 21
628.68924070591765
  0
LINE
  8
_0-0_
  6
CONTINUOUS
 62
    7
 10
73.184202298969467
 20
628.68924070591765
 11
205.43420229896958
 21
628.68924070591822
  0
LINE
  8
_0-0_
  6
CONTINUOUS
 62
    7
 10
201.77752092582352
 20
625.48924070591761
 11
201.75046070565531
 21
625.20296124488846
  0
LINE
  8
_0-0_
  6
CONTINUOUS
 62
    7
 10
201.75046070565531
 20
625.20296124488846
 11
201.6703836794502
 21
624.92259203281594
  0
LINE
  8
_0-0_
  6
CONTINUOUS
 62
    7
 10
201.6703836794502
 20
624.92259203281594
 11
201.53888568903585
 21
624.66063299487678
  0
LINE
  8
_0-0_
  6
CONTINUOUS
 62
    7
 10
201.53888568903585
 20
624.66063299487678
 11
201.36267244374937
 21
624.43283956709331
  0
LINE
  8
_0-0_
  6
CONTINUOUS
 62
    7
 10
201.35588012392839
 20
624.43110229619458
 11
201.21313283755444
 21
624.40244913440927
  0
LINE
  8
_0-0_
  6
CONTINUOUS
 62
    7
 10
201.21313283755501
 20
624.40244913440995
 11
201.21262299790305
 21
624.4024658758691
  0
LINE
  8
_0-0_
  6
CONTINUOUS
 62
    7
 10
201.21262299790305
 20
624.4024658758691
 11
190.23491979792789
 21
624.4024658758691
  0
LINE
  8
_0-0_
  6
CONTINUOUS
 62
    7
 10
190.23491979792789
 20
624.40246587586944
 11
190.23398665759566
 21
624.40244913441086
  0
LINE
  8
_0-0_
  6
CONTINUOUS
 62
    7
 10
190.23398665759566
 20
624.40244913441086
 11
189.90059563019565
 21
624.43110229619458
  0
LINE
  8
_0-0_
  6
CONTINUOUS
 62
    7
 10
189.90059563019565
 20
624.43110229619458
 11
189.59917911811556
 21
624.53757555409152
  0
LINE
  8
_0-0_
  6
CONTINUOUS
 62
    7
 10
189.59917911811556
 20
624.53757555409152
 11
189.36371532711553
 21
624.70997469496604
  0
LINE
  8
_0-0_
  6
CONTINUOUS
 62
    7
 10
189.36371532711553
 20
624.70997469496604
 11
189.22074654435971
 21
624.92908023686982
  0
LINE
  8
_0-0_
  6
CONTINUOUS
 62
    7
 10
189.22074654435971
 20
624.92908023686982
 11
189.18487799856314
 21
625.09609679767539
  0
LINE
  8
_0-0_
  6
CONTINUOUS
 62
    7
 10
189.18487799856314
 20
625.09609679767539
 11
189.18420229896935
 21
625.12269776643359
  0
LINE
  8
_0-0_
  6
CONTINUOUS
 62
    7
 10
189.18420229896935
 20
625.48924070591829
 11
189.18420229896935
 21
622.49180209734436
  0
LINE
  8
_0-0_
  6
CONTINUOUS
 62
    7
 10
189.18420229896935
 20
622.49180209734425
 11
189.2095393786152
 21
622.26720865731022
  0
LINE
  8
_0-0_
  6
CONTINUOUS
 62
    7
 10
189.2095393786152
 20
622.26720865731022
 11
189.33827040319818
 21
621.95700271949636
  0
LINE
  8
_0-0_
  6
CONTINUOUS
 62
    7
 10
189.33827040319818
 20
621.95700271949636
 11
189.50172280448942
 21
621.7590740477774
  0
LINE
  8
_0-0_
  6
CONTINUOUS
 62
    7
 10
189.50172744071699
 20
621.75898078105047
 11
189.61880508870411
 21
621.66575000383909
  0
LINE
  8
_0-0_
  6
CONTINUOUS
 62
    7
 10
189.61880508870411
 20
621.66575000383909
 11
189.89206442353986
 21
621.53640512391041
  0
LINE
  8
_0-0_
  6
CONTINUOUS
 62
    7
 10
189.89206442353986
 20
621.53640512391041
 11
190.19308588839181
 21
621.49600363327284
  0
LINE
  8
_0-0_
  6
CONTINUOUS
 62
    7
 10
190.19308640541669
 20
621.4960044252424
 11
190.18420229896935
 21
621.48924070591829
  0
LINE
  8
_0-0_
  6
CONTINUOUS
 62
    7
 10
190.18420229896935
 20
621.48924070591829
 11
198.17103527947461
 21
621.48924070591829
  0
LINE
  8
_0-0_
  6
CONTINUOUS
 62
    7
 10
198.17103527947461
 20
621.48924070591841
 11
198.3252074094886
 21
621.50152383328805
  0
LINE
  8
_0-0_
  6
CONTINUOUS
 62
    7
 10
198.3208953257049
 20
621.50084365278576
 11
198.56461237306019
 21
621.55302211743412
  0
LINE
  8
_0-0_
  6
CONTINUOUS
 62
    7
 10
198.56461237306019
 20
621.55302211743412
 11
198.79571611747394
 21
621.65052183191403
  0
LINE
  8
_0-0_
  6
CONTINUOUS
 62
    7
 10
198.79571611747394
 20
621.65052183191403
 11
199.00374669547591
 21
621.78838220542286
  0
LINE
  8
_0-0_
  6
CONTINUOUS
 62
    7
 10
199.00374669547591
 20
621.78838220542286
 11
199.18079568983205
 21
621.95978139174474
  0
LINE
  8
_0-0_
  6
CONTINUOUS
 62
    7
 10
199.1701577051989
 20
621.94752190123791
 11
199.14291441142052
 21
621.9255285587617
  0
LINE
  8
_0-0_
  6
CONTINUOUS
 62
    7
 10
199.14291441142052
 20
621.9255285587617
 11
198.99771120307173
 21
621.90014120116723
  0
LINE
  8
_0-0_
  6
CONTINUOUS
 62
    7
 10
198.99771120307139
 20
621.90014120116689
 11
198.99741926102899
 21
621.9001528033848
  0
LINE
  8
_0-0_
  6
CONTINUOUS
 62
    7
 10
198.99741926102899
 20
621.9001528033848
 11
190.24686172474765
 21
621.9001528033848
  0
LINE
  8
_0-0_
  6
CONTINUOUS
 62
    7
 10
190.24686172474765
 20
621.90015280338241
 11
190.24633802384903
 21
621.90014120116723
  0
LINE
  8
_0-0_
  6
CONTINUOUS
 62
    7
 10
190.24633802384903
 20
621.90014120116723
 11
189.91247161529179
 21
621.92552855876477
  0
LINE
  8
_0-0_
  6
CONTINUOUS
 62
    7
 10
189.91247161529179
 20
621.92552855876477
 11
189.60924078238497
 21
622.02807089814746
  0
LINE
  8
_0-0_
  6
CONTINUOUS
 62
    7
 10
189.60924078238497
 20
622.02807089814746
 11
189.37083166763
 21
622.19615391717878
  0
LINE
  8
_0-0_
  6
CONTINUOUS
 62
    7
 10
189.37083166763
 20
622.19615391717878
 11
189.22412212920324
 21
622.41071920325589
  0
LINE
  8
_0-0_
  6
CONTINUOUS
 62
    7
 10
189.22412212920324
 20
622.41071920325589
 11
189.18557049506353
 21
622.57212254785725
  0
LINE
  8
_0-0_
  6
CONTINUOUS
 62
    7
 10
189.18557049506353
 20
622.57212254785725
 11
189.18420229896935
 21
622.60920032602837
  0
LINE
  8
_0-0_
  6
CONTINUOUS
 62
    7
 10
179.65792285734062
 20
622.49180209734425
 11
179.62983254661606
 21
622.15946278771537
  0
LINE
  8
_0-0_
  6
CONTINUOUS
 62
    7
 10
179.62983254661606
 20
622.15946278771537
 11
179.5499040261609
 21
621.86456784373934
  0
LINE
  8
_0-0_
  6
CONTINUOUS
 62
    7
 10
179.5499040261609
 20
621.86456784373934
 11
179.43119153487078
 21
621.64116311801024
  0
LINE
  8
_0-0_
  6
CONTINUOUS
 62
    7
 10
179.43119153487078
 20
621.64116311801024
 11
179.29147599093983
 21
621.51363640311911
  0
LINE
  8
_0-0_
  6
CONTINUOUS
 62
    7
 10
179.29147599093983
 20
621.51363640311911
 11
179.27177254384685
 21
621.50455180448898
  0
LINE
  8
_0-0_
  6
CONTINUOUS
 62
    7
 10
179.30119464612642
 20
621.50872440627677
 11
179.09292736846726
 21
621.49487752630955
  0
LINE
  8
_0-0_
  6
CONTINUOUS
 62
    7
 10
179.10298393880589
 20
621.49319379271139
 11
179.19736931846433
 21
621.48924070591829
  0
LINE
  8
_0-0_
  6
CONTINUOUS
 62
    7
 10
179.19736931846433
 20
621.48924070591829
 11
178.18420229896935
 21
621.48924070591829
  0
LINE
  8
_0-0_
  6
CONTINUOUS
 62
    7
 10
178.18420229896935
 20
621.48924070591829
 11
178.18420229896958
 21
609.39634748710489
  0
LINE
  8
_0-0_
  6
CONTINUOUS
 62
    7
 10
178.18420229896958
 20
609.39634748710489
 11
200.18420229896958
 21
609.396347487105
  0
LINE
  8
_0-0_
  6
CONTINUOUS
 62
    7
 10
200.18420229896958
 20
609.396347487105
 11
200.18420229896935
 21
623.09651009986999
  0
LINE
  8
_0-0_
  6
CONTINUOUS
 62
    7
 10
199.15405016013642
 20
621.92927003601369
 11
201.39990971325608
 21
624.47399828476091
  0
LINE
  8
_0-0_
  6
CONTINUOUS
 62
    7
 10
201.37887511835424
 20
624.45024919015577
 11
201.35588012392839
 21
624.43110229619458
  0
LINE
  8
_0-0_
  6
CONTINUOUS
 62
    7
 10
179.65792285734051
 20
625.48924070591829
 11
179.65792285734062
 21
622.49180209734425
  0
LINE
  8
_0-0_
  6
CONTINUOUS
 62
    7
 10
179.41532275215297
 20
622.57212254680132
 11
179.25727622789714
 21
622.41071920325817
  0
LINE
  8
_0-0_
  6
CONTINUOUS
 62
    7
 10
179.25727622789714
 20
622.41071920325817
 11
178.99984122245917
 21
622.19615391718116
  0
LINE
  8
_0-0_
  6
CONTINUOUS
 62
    7
 10
178.99984122245917
 20
622.19615391718116
 11
178.73663009119969
 21
622.0280708981461
  0
LINE
  8
_0-0_
  6
CONTINUOUS
 62
    7
 10
178.73663009119969
 20
622.0280708981461
 11
178.49722087019416
 21
621.92552855876374
  0
LINE
  8
_0-0_
  6
CONTINUOUS
 62
    7
 10
178.49722087019416
 20
621.92552855876374
 11
178.30855766998752
 21
621.90014120116712
  0
LINE
  8
_0-0_
  6
CONTINUOUS
 62
    7
 10
178.30855766998934
 20
621.9001412011653
 11
178.30832591113176
 21
621.90015280338469
  0
LINE
  8
_0-0_
  6
CONTINUOUS
 62
    7
 10
178.30832591113176
 20
621.90015280338469
 11
177.19217274032303
 21
621.90015280338469
  0
LINE
  8
_0-0_
  6
CONTINUOUS
 62
    7
 10
177.19217274032303
 20
621.90015280338469
 11
174.65031619848662
 21
624.40246587586898
  0
LINE
  8
_0-0_
  6
CONTINUOUS
 62
    7
 10
174.65031619848662
 20
624.40246587586898
 11
176.10506410107735
 21
624.40246587586898
  0
LINE
  8
_0-0_
  6
CONTINUOUS
 62
    7
 10
176.10506410107735
 20
624.40246587586898
 11
176.10548740175807
 21
624.40244913440961
  0
LINE
  8
_0-0_
  6
CONTINUOUS
 62
    7
 10
176.10548740175614
 20
624.40244913441154
 11
176.2961311427847
 21
624.43110229619413
  0
LINE
  8
_0-0_
  6
CONTINUOUS
 62
    7
 10
176.2961311427847
 20
624.43110229619413
 11
176.53577782935793
 21
624.53757555409106
  0
LINE
  8
_0-0_
  6
CONTINUOUS
 62
    7
 10
176.53577782935793
 20
624.53757555409106
 11
176.79731399214893
 21
624.70997469496376
  0
LINE
  8
_0-0_
  6
CONTINUOUS
 62
    7
 10
176.79731399214893
 20
624.70997469496376
 11
177.05106923505934
 21
624.92908023686618
  0
LINE
  8
_0-0_
  6
CONTINUOUS
 62
    7
 10
177.05106923505934
 20
624.92908023686618
 11
177.20737104568468
 21
625.09609679770188
  0
LINE
  8
_0-0_
  6
CONTINUOUS
 62
    7
 10
177.20737104568468
 20
625.09609679770188
 11
177.22967961658867
 21
625.12269776633048
  0
LINE
  8
_0-0_
  6
CONTINUOUS
 62
    7
 10
173.18420229896958
 20
625.48924070591852
 11
173.18420229896958
 21
622.98924070591852
  0
LINE
  8
_0-0_
  6
CONTINUOUS
 62
    7
 10
173.18420229896958
 20
622.98924070591852
 11
103.18420229896935
 21
622.98924070591852
  0
LINE
  8
_0-0_
  6
CONTINUOUS
 62
    7
 10
103.18420229896935
 20
622.98924070591852
 11
103.18420229896935
 21
625.48924070591852
  0
LINE
  8
_0-0_
  6
CONTINUOUS
 62
    7
 10
103.28420229896926
 20
628.68924070591845
 11
103.28420229896926
 21
629.8892407059185
  0
LINE
  8
_0-0_
  6
CONTINUOUS
 62
    7
 10
103.28420229896926
 20
629.8892407059185
 11
121.08420229896922
 21
629.8892407059185
  0
LINE
  8
_0-0_
  6
CONTINUOUS
 62
    7
 10
121.08420229896922
 20
629.8892407059185
 11
121.08420229896922
 21
628.68924070591845
  0
LINE
  8
_0-0_
  6
CONTINUOUS
 62
    7
 10
118.68420229896924
 20
629.88924070591838
 11
118.68420229896924
 21
631.02506574432994
  0
LINE
  8
_0-0_
  6
CONTINUOUS
 62
    7
 10
118.68420229896924
 20
631.02506574432994
 11
118.68409669745256
 21
631.08924070591831
  0
LINE
  8
_0-0_
  6
CONTINUOUS
 62
    7
 10
119.43401026469633
 20
631.08924070589012
 11
104.93439433324102
 21
631.08924070589012
  0
LINE
  8
_0-0_
  6
CONTINUOUS
 62
    7
 10
104.93439433324102
 20
631.08924070589012
 11
104.93439433324136
 21
636.89321406845147
  0
LINE
  8
_0-0_
  6
CONTINUOUS
 62
    7
 10
104.93439433324136
 20
636.89321406845147
 11
105.38479911702836
 21
637.29800472875615
  0
LINE
  8
_0-0_
  6
CONTINUOUS
 62
    7
 10
105.38479911702836
 20
637.29800472875615
 11
105.45410518581889
 21
637.34092363762636
  0
LINE
  8
_0-0_
  6
CONTINUOUS
 62
    7
 10
105.45410518581889
 20
637.34092363762636
 11
105.83662690395113
 21
637.47061024709194
  0
LINE
  8
_0-0_
  6
CONTINUOUS
 62
    7
 10
105.83662690395113
 20
637.47061024709194
 11
106.36820318865705
 21
637.33452586045905
  0
LINE
  8
_0-0_
  6
CONTINUOUS
 62
    7
 10
106.36820318865705
 20
637.33452586045905
 11
106.87697452293855
 21
636.89321406845113
  0
LINE
  8
_0-0_
  6
CONTINUOUS
 62
    7
 10
106.87697452293935
 20
636.89321406845147
 11
106.87697452293844
 21
631.08924070589012
  0
LINE
  8
_0-0_
  6
CONTINUOUS
 62
    7
 10
105.68420229896924
 20
631.08924070591831
 11
105.68420229896924
 21
629.88924070591838
  0
LINE
  8
_0-0_
  6
CONTINUOUS
 62
    7
 10
105.75920229896917
 20
622.98924070591841
 11
105.75920229896917
 21
615.8742407059184
  0
LINE
  8
_0-0_
  6
CONTINUOUS
 62
    7
 10
105.75920229896894
 20
615.8742407059184
 11
106.55920229896901
 21
615.07424070591844
  0
LINE
  8
_0-0_
  6
CONTINUOUS
 62
    7
 10
106.55920229896901
 20
615.07424070591844
 11
117.80920229896935
 21
615.07424070591844
  0
LINE
  8
_0-0_
  6
CONTINUOUS
 62
    7
 10
117.80920229896935
 20
615.07424070591844
 11
118.60920229896931
 21
615.8742407059184
  0
LINE
  8
_0-0_
  6
CONTINUOUS
 62
    7
 10
118.60920229896931
 20
615.8742407059184
 11
118.60920229896931
 21
622.98924070591841
  0
LINE
  8
_0-0_
  6
CONTINUOUS
 62
    7
 10
118.60920229896931
 20
622.18924070591845
 11
157.75920229896929
 21
622.18924070591845
  0
LINE
  8
_0-0_
  6
CONTINUOUS
 62
    7
 10
157.75920229896929
 20
622.98924070591818
 11
157.75920229896929
 21
615.87424070591817
  0
LINE
  8
_0-0_
  6
CONTINUOUS
 62
    7
 10
157.75920229896929
 20
615.87424070591817
 11
158.55920229896924
 21
615.07424070591821
  0
LINE
  8
_0-0_
  6
CONTINUOUS
 62
    7
 10
158.55920229896924
 20
615.07424070591821
 11
169.80920229896958
 21
615.0742407059181
  0
LINE
  8
_0-0_
  6
CONTINUOUS
 62
    7
 10
169.80920229896958
 20
615.0742407059181
 11
170.60920229896954
 21
615.87424070591817
  0
LINE
  8
_0-0_
  6
CONTINUOUS
 62
    7
 10
170.60920229896954
 20
615.87424070591817
 11
170.60920229896954
 21
622.98924070591818
  0
LINE
  8
_0-0_
  6
CONTINUOUS
 62
    7
 10
170.68420229896958
 20
629.88924070591804
 11
170.68420229896958
 21
631.02506574432971
  0
LINE
  8
_0-0_
  6
CONTINUOUS
 62
    7
 10
170.68420229896935
 20
631.02506574432971
 11
170.68409669745279
 21
631.08924070591809
  0
LINE
  8
_0-0_
  6
CONTINUOUS
 62
    7
 10
171.43401026469667
 20
631.08924070588989
 11
156.93439433324136
 21
631.08924070588989
  0
LINE
  8
_0-0_
  6
CONTINUOUS
 62
    7
 10
156.93439433324136
 20
631.08924070588989
 11
156.93439433324158
 21
636.89321406845124
  0
LINE
  8
_0-0_
  6
CONTINUOUS
 62
    7
 10
156.93439433324158
 20
636.89321406845124
 11
157.38479911702859
 21
637.29800472875593
  0
LINE
  8
_0-0_
  6
CONTINUOUS
 62
    7
 10
157.38479911702859
 20
637.29800472875593
 11
157.45410518581923
 21
637.34092363762613
  0
LINE
  8
_0-0_
  6
CONTINUOUS
 62
    7
 10
157.45410518581923
 20
637.34092363762613
 11
157.83662690395136
 21
637.47061024709171
  0
LINE
  8
_0-0_
  6
CONTINUOUS
 62
    7
 10
157.83662690395136
 20
637.47061024709171
 11
158.36820318865728
 21
637.33452586045871
  0
LINE
  8
_0-0_
  6
CONTINUOUS
 62
    7
 10
158.36820318865728
 20
637.33452586045871
 11
158.87697452293878
 21
636.8932140684509
  0
LINE
  8
_0-0_
  6
CONTINUOUS
 62
    7
 10
158.87697452293958
 20
636.89321406845124
 11
158.87697452293867
 21
631.08924070588989
  0
LINE
  8
_0-0_
  6
CONTINUOUS
 62
    7
 10
157.68420229896935
 20
631.08924070591809
 11
157.68420229896935
 21
629.88924070591804
  0
LINE
  8
_0-0_
  6
CONTINUOUS
 62
    7
 10
155.28420229896949
 20
629.88924070591816
 11
173.08420229896956
 21
629.88924070591816
  0
LINE
  8
_0-0_
  6
CONTINUOUS
 62
    7
 10
173.08420229896956
 20
629.88924070591816
 11
173.08420229896956
 21
628.68924070591822
  0
LINE
  8
_0-0_
  6
CONTINUOUS
 62
    7
 10
171.43401026469667
 20
631.08924070588989
 11
171.43401026469735
 21
636.89321406845124
  0
LINE
  8
_0-0_
  6
CONTINUOUS
 62
    7
 10
171.43401026469644
 20
636.8932140684517
 11
170.9836054809092
 21
637.29800472875661
  0
LINE
  8
_0-0_
  6
CONTINUOUS
 62
    7
 10
170.9836054809092
 20
637.29800472875661
 11
170.91429941211857
 21
637.34092363762682
  0
LINE
  8
_0-0_
  6
CONTINUOUS
 62
    7
 10
170.92084494579524
 20
637.33714495620541
 11
170.48420229896954
 21
637.58924070589001
  0
LINE
  8
_0-0_
  6
CONTINUOUS
 62
    7
 10
170.48420229896954
 20
637.58924070589001
 11
157.88420229896963
 21
637.58924070589001
  0
LINE
  8
_0-0_
  6
CONTINUOUS
 62
    7
 10
157.88420229896963
 20
637.58924070589001
 11
157.44755965214256
 21
637.33714495620472
  0
LINE
  8
_0-0_
  6
CONTINUOUS
 62
    7
 10
158.87697452293958
 20
636.89321406845124
 11
160.55790806000516
 21
637.29800472875604
  0
LINE
  8
_0-0_
  6
CONTINUOUS
 62
    7
 10
160.55790806000516
 20
637.29800472875604
 11
162.24415231707246
 21
637.47061024709194
  0
LINE
  8
_0-0_
  6
CONTINUOUS
 62
    7
 10
162.24415231707246
 20
637.47061024709194
 11
164.22802201969341
 21
637.33452586045905
  0
LINE
  8
_0-0_
  6
CONTINUOUS
 62
    7
 10
164.22802201969341
 20
637.33452586045905
 11
166.12678248866644
 21
636.89321406845124
  0
LINE
  8
_0-0_
  6
CONTINUOUS
 62
    7
 10
166.12678248866644
 20
636.89321406845124
 11
166.12678248866644
 21
631.08924070588989
  0
LINE
  8
_0-0_
  6
CONTINUOUS
 62
    7
 10
166.12678248866644
 20
636.89321406845124
 11
166.80624295420705
 21
637.14224560625371
  0
LINE
  8
_0-0_
  6
CONTINUOUS
 62
    7
 10
166.80624295420705
 20
637.14224560625371
 11
168.16800197252655
 21
637.44060613562294
  0
LINE
  8
_0-0_
  6
CONTINUOUS
 62
    7
 10
168.16800197252655
 20
637.44060613562294
 11
169.50978728560256
 21
637.42680959521488
  0
LINE
  8
_0-0_
  6
CONTINUOUS
 62
    7
 10
169.50978728560256
 20
637.42680959521488
 11
170.48051723131505
 21
637.22491181411579
  0
LINE
  8
_0-0_
  6
CONTINUOUS
 62
    7
 10
170.48051723131505
 20
637.22491181411579
 11
171.43401026469735
 21
636.89321406845124
  0
LINE
  8
_0-0_
  6
CONTINUOUS
 62
    7
 10
168.18237729896975
 20
637.58924070589001
 11
168.18220229896974
 21
638.98924070591806
  0
LINE
  8
_0-0_
  6
CONTINUOUS
 62
    7
 10
168.18220229896974
 20
638.98924070591806
 11
160.18620229896931
 21
638.98924070591818
  0
LINE
  8
_0-0_
  6
CONTINUOUS
 62
    7
 10
160.18620229896931
 20
638.98924070591818
 11
160.18602729896941
 21
637.58924070589001
  0
LINE
  8
_0-0_
  6
CENTER1
 62
    7
 10
164.18420229896958
 20
643.98924070591818
 11
164.18420229896935
 21
610.0742407059181
  0
LINE
  8
_0-0_
  6
CONTINUOUS
 62
    7
 10
162.68420229896958
 20
612.48924070591852
 11
162.68420229896958
 21
590.16873263022967
  0
LINE
  8
_0-0_
  6
CONTINUOUS
 62
    7
 10
162.61283449871394
 20
586.93210065411074
 11
161.84932450582255
 21
579.18529178484152
  0
LINE
  8
_0-0_
  6
CONTINUOUS
 62
    7
 10
161.84932450582255
 20
579.18529178484152
 11
160.2741512176666
 21
571.81519154661112
  0
LINE
  8
_0-0_
  6
CONTINUOUS
 62
    7
 10
160.2741512176666
 20
571.81519154661044
 11
159.86582519075239
 21
570.61773693368184
  0
LINE
  8
_0-0_
  6
CONTINUOUS
 62
    7
 10
159.86582519075239
 20
570.61773693368184
 11
159.12634567404552
 21
569.25151140519358
  0
LINE
  8
_0-0_
  6
CONTINUOUS
 62
    7
 10
159.12634567404552
 20
569.25151140519358
 11
158.2120003318762
 21
568.24033221925845
  0
LINE
  8
_0-0_
  6
CONTINUOUS
 62
    7
 10
158.2120003318762
 20
568.24033221925845
 11
157.18420229896981
 21
567.56080208332151
  0
LINE
  8
_0-0_
  6
CONTINUOUS
 62
    7
 10
157.18420229896981
 20
567.56080208332151
 11
157.18420229896981
 21
565.48924070156374
  0
LINE
  8
_0-0_
  6
CONTINUOUS
 62
    7
 10
157.18420229896981
 20
565.48924070156374
 11
154.68420229896969
 21
565.48924070156374
  0
LINE
  8
_0-0_
  6
CONTINUOUS
 62
    7
 10
154.68420229896969
 20
565.48924070156374
 11
154.68420229896969
 21
607.39212674905582
  0
LINE
  8
_0-0_
  6
CONTINUOUS
 62
    7
 10
154.95712772301033
 20
607.36935387323103
 11
153.52032347835313
 21
607.48924070591863
  0
LINE
  8
_0-0_
  6
CONTINUOUS
 62
    7
 10
154.95712772301033
 20
607.36935387323103
 11
156.22079293776949
 21
606.97128011728887
  0
LINE
  8
_0-0_
  6
CONTINUOUS
 62
    7
 10
156.22079293776949
 20
606.97128011728887
 11
157.09993351272703
 21
606.39738472053864
  0
LINE
  8
_0-0_
  6
CONTINUOUS
 62
    7
 10
157.09993351272703
 20
606.39738472053864
 11
157.82954722780278
 21
605.58441647243626
  0
LINE
  8
_0-0_
  6
CONTINUOUS
 62
    7
 10
157.82954722780278
 20
605.58441647243626
 11
158.40469126543883
 21
604.52234348248055
  0
LINE
  8
_0-0_
  6
CONTINUOUS
 62
    7
 10
158.40469126543883
 20
604.52234348248055
 11
158.8327351024767
 21
603.23925061558202
  0
LINE
  8
_0-0_
  6
CONTINUOUS
 62
    7
 10
158.8327351024767
 20
603.23925061558202
 11
159.00250418902829
 21
602.48924070591886
  0
LINE
  8
_0-0_
  6
CONTINUOUS
 62
    7
 10
159.0025041890284
 20
602.48924070591863
 11
160.02255357311958
 21
594.77950706414924
  0
LINE
  8
_0-0_
  6
CONTINUOUS
 62
    7
 10
160.02255357311958
 20
594.77950706414924
 11
160.1016663831989
 21
586.87111161659925
  0
LINE
  8
_0-0_
  6
CONTINUOUS
 62
    7
 10
160.1016663831989
 20
586.87111161659925
 11
159.23643393078351
 21
579.10479888307839
  0
LINE
  8
_0-0_
  6
CONTINUOUS
 62
    7
 10
159.23643393078351
 20
579.10479888307839
 11
157.46413599259631
 21
571.81519154661112
  0
LINE
  8
_0-0_
  6
CONTINUOUS
 62
    7
 10
157.46413599259665
 20
571.81519154661089
 11
156.9631167648472
 21
570.55212721637236
  0
LINE
  8
_0-0_
  6
CONTINUOUS
 62
    7
 10
156.9631167648472
 20
570.55212721637236
 11
156.28886260516413
 21
569.44418064564013
  0
LINE
  8
_0-0_
  6
CONTINUOUS
 62
    7
 10
156.28886260516413
 20
569.44418064564013
 11
155.8303119214205
 21
568.90536069837401
  0
LINE
  8
_0-0_
  6
CONTINUOUS
 62
    7
 10
155.8303119214205
 20
568.90536069837401
 11
155.8303119214205
 21
607.09428757447506
  0
LINE
  8
_0-0_
  6
CONTINUOUS
 62
    7
 10
156.9311117196911
 20
607.48924070591863
 11
158.01526295551719
 21
607.39262200156031
  0
LINE
  8
_0-0_
  6
CONTINUOUS
 62
    7
 10
158.01526295551719
 20
607.39262200156031
 11
158.93590553053184
 21
607.10279076729432
  0
LINE
  8
_0-0_
  6
CONTINUOUS
 62
    7
 10
158.93590553053184
 20
607.10279076729432
 11
159.73839330114674
 21
606.59841304283066
  0
LINE
  8
_0-0_
  6
CONTINUOUS
 62
    7
 10
159.73839330114674
 20
606.59841304283066
 11
160.39491914284565
 21
605.88290129311645
  0
LINE
  8
_0-0_
  6
CONTINUOUS
 62
    7
 10
160.39491914284565
 20
605.88290129311645
 11
160.92552359632271
 21
604.9500496642903
  0
LINE
  8
_0-0_
  6
CONTINUOUS
 62
    7
 10
160.92552359632271
 20
604.9500496642903
 11
161.33263337897358
 21
603.80830115830827
  0
LINE
  8
_0-0_
  6
CONTINUOUS
 62
    7
 10
161.33263337897358
 20
603.80830115830827
 11
161.62885400432936
 21
602.48924070591886
  0
LINE
  8
_0-0_
  6
CONTINUOUS
 62
    7
 10
161.62885400432936
 20
602.48924070591863
 11
162.53849442952924
 21
594.78991910754064
  0
LINE
  8
_0-0_
  6
CONTINUOUS
 62
    7
 10
162.53849442952924
 20
594.78991910754064
 11
162.61283449871394
 21
586.93210065411074
  0
LINE
  8
_0-0_
  6
CONTINUOUS
 62
    7
 10
162.27089803352976
 20
582.4070790839711
 11
162.57420229899105
 21
581.88174068603973
  0
LINE
  8
_0-0_
  6
CONTINUOUS
 62
    7
 10
162.57420229899105
 20
581.88174068603973
 11
162.57420229899105
 21
569.09674068603954
  0
LINE
  8
_0-0_
  6
CONTINUOUS
 62
    7
 10
162.57420229899105
 20
569.09674068603954
 11
162.00324722811911
 21
568.10781749445027
  0
LINE
  8
_0-0_
  6
CONTINUOUS
 62
    7
 10
162.00324722811911
 20
568.10781749445027
 11
162.41749195567786
 21
569.01190945014025
  0
LINE
  8
_0-0_
  6
CONTINUOUS
 62
    7
 10
162.41749195567786
 20
569.01190945014025
 11
162.57420229899105
 21
569.95317329234751
  0
LINE
  8
_0-0_
  6
CONTINUOUS
 62
    7
 10
162.57420229899105
 20
569.95317329234751
 11
162.57109423269515
 21
570.08437431953928
  0
LINE
  8
_0-0_
  6
CONTINUOUS
 62
    7
 10
162.57109423269515
 20
570.08437431953928
 11
162.40134353192195
 21
570.94280347534527
  0
LINE
  8
_0-0_
  6
CONTINUOUS
 62
    7
 10
162.40134353192195
 20
570.94280347534527
 11
162.00324722811911
 21
571.79852909024498
  0
LINE
  8
_0-0_
  6
CONTINUOUS
 62
    7
 10
162.00324722811911
 20
571.79852909024498
 11
162.24533441904123
 21
572.73116142041283
  0
LINE
  8
_0-0_
  6
CONTINUOUS
 62
    7
 10
162.24533441904123
 20
572.73116142041283
 11
162.48713136712718
 21
574.09250655641915
  0
LINE
  8
_0-0_
  6
CONTINUOUS
 62
    7
 10
162.48713136712718
 20
574.09250655641915
 11
162.57420229899105
 21
575.48924068603969
  0
LINE
  8
_0-0_
  6
CONTINUOUS
 62
    7
 10
162.57420229899105
 20
575.48924068603969
 11
162.5289242460575
 21
576.49363090712643
  0
LINE
  8
_0-0_
  6
CONTINUOUS
 62
    7
 10
162.5289242460575
 20
576.49363090712643
 11
162.33202562547615
 21
577.84270072747267
  0
LINE
  8
_0-0_
  6
CONTINUOUS
 62
    7
 10
162.33202562547615
 20
577.84270072747267
 11
162.00324722811911
 21
579.17995228183452
  0
LINE
  8
_0-0_
  6
CONTINUOUS
 62
    7
 10
162.00324722811911
 20
579.17995228183452
 11
161.84849823507489
 21
579.1799522818344
  0
LINE
  8
_0-0_
  6
CONTINUOUS
 62
    7
 10
162.00324722811911
 20
579.17995228183452
 11
162.41749195567786
 21
580.08404423752427
  0
LINE
  8
_0-0_
  6
CONTINUOUS
 62
    7
 10
162.41749195567786
 20
580.08404423752427
 11
162.57420229899105
 21
581.02530807973164
  0
LINE
  8
_0-0_
  6
CONTINUOUS
 62
    7
 10
162.57420229899105
 20
581.02530807973164
 11
162.57109423269515
 21
581.15650910692329
  0
LINE
  8
_0-0_
  6
CONTINUOUS
 62
    7
 10
162.57109423269515
 20
581.15650910692329
 11
162.40134353192195
 21
582.0149382627294
  0
LINE
  8
_0-0_
  6
CONTINUOUS
 62
    7
 10
162.40134353192195
 20
582.0149382627294
 11
162.25911749260138
 21
582.37393313856569
  0
LINE
  8
_0-0_
  6
CONTINUOUS
 62
    7
 10
154.68420229896992
 20
581.48924068603969
 11
152.18420229896992
 21
581.48924068603969
  0
LINE
  8
_0-0_
  6
CONTINUOUS
 62
    7
 10
152.18420229896992
 20
569.48924068603969
 11
154.68420229896992
 21
569.48924068603969
  0
LINE
  8
_0-0_
  6
CONTINUOUS
 62
    7
 10
154.68420229896969
 20
568.90536069837401
 11
155.8303119214205
 21
568.90536069837401
  0
LINE
  8
_0-0_
  6
CONTINUOUS
 62
    7
 10
158.01157011357373
 20
568.10781749445027
 11
162.00324722811911
 21
568.10781749445027
  0
LINE
  8
_0-0_
  6
CONTINUOUS
 62
    7
 10
162.00324722811911
 20
571.79852909024498
 11
160.26846940348116
 21
571.79852909024498
  0
LINE
  8
_0-0_
  6
CENTER1
 62
    7
 10
159.68420229896992
 20
575.48924068603981
 11
105.18420229899118
 21
575.48924068603947
  0
LINE
  8
_0-0_
  6
CONTINUOUS
 62
    7
 10
112.56420229896946
 20
575.48924068603958
 11
112.6518180626324
 21
576.89471464595874
  0
LINE
  8
_0-0_
  6
CONTINUOUS
 62
    7
 10
112.6518180626324
 20
576.89471464595874
 11
112.8951280146955
 21
578.26457817155313
  0
LINE
  8
_0-0_
  6
CONTINUOUS
 62
    7
 10
112.8951280146955
 20
578.26457817155313
 11
113.13873002574064
 21
579.20304629260193
  0
LINE
  8
_0-0_
  6
CONTINUOUS
 62
    7
 10
113.13873002574064
 20
579.20304629260193
 11
112.73814279858823
 21
580.06412618135789
  0
LINE
  8
_0-0_
  6
CONTINUOUS
 62
    7
 10
112.73814279858823
 20
580.06412618135789
 11
112.56732984011717
 21
580.92792653755146
  0
LINE
  8
_0-0_
  6
CONTINUOUS
 62
    7
 10
112.56732984011717
 20
580.92792653755146
 11
112.56420229896946
 21
581.05994909588287
  0
LINE
  8
_0-0_
  6
CONTINUOUS
 62
    7
 10
112.56420229896946
 20
581.05994909588287
 11
112.72189323105613
 21
582.00710273921493
  0
LINE
  8
_0-0_
  6
CONTINUOUS
 62
    7
 10
112.72189323105613
 20
582.00710273921493
 11
113.13873002574064
 21
582.91685189916404
  0
LINE
  8
_0-0_
  6
CONTINUOUS
 62
    7
 10
113.13873002574064
 20
582.91685189916404
 11
112.56420229896946
 21
581.92174068603936
  0
LINE
  8
_0-0_
  6
CONTINUOUS
 62
    7
 10
112.56420229896946
 20
581.92174068603936
 11
112.56420229896946
 21
569.0567406860398
  0
LINE
  8
_0-0_
  6
CONTINUOUS
 62
    7
 10
112.56420229896946
 20
569.0567406860398
 11
113.13873002574064
 21
568.06162947291523
  0
LINE
  8
_0-0_
  6
CONTINUOUS
 62
    7
 10
113.13873002574064
 20
568.06162947291523
 11
112.73814279858823
 21
568.92270936167108
  0
LINE
  8
_0-0_
  6
CONTINUOUS
 62
    7
 10
112.73814279858823
 20
568.92270936167108
 11
112.56732984011717
 21
569.78650971786476
  0
LINE
  8
_0-0_
  6
CONTINUOUS
 62
    7
 10
112.56732984011717
 20
569.78650971786476
 11
112.56420229896946
 21
569.9185322761964
  0
LINE
  8
_0-0_
  6
CONTINUOUS
 62
    7
 10
112.56420229896946
 20
569.9185322761964
 11
112.72189323105613
 21
570.86568591952812
  0
LINE
  8
_0-0_
  6
CONTINUOUS
 62
    7
 10
112.72189323105613
 20
570.86568591952812
 11
113.13873002574064
 21
571.77543507947757
  0
LINE
  8
_0-0_
  6
CONTINUOUS
 62
    7
 10
113.13873002574064
 20
571.77543507947757
 11
112.80789435253007
 21
573.12105426186804
  0
LINE
  8
_0-0_
  6
CONTINUOUS
 62
    7
 10
112.80789435253007
 20
573.12105426186804
 11
112.60976367174953
 21
574.47856566106657
  0
LINE
  8
_0-0_
  6
CONTINUOUS
 62
    7
 10
112.60976367174953
 20
574.47856566106657
 11
112.56420229896946
 21
575.48924068603958
  0
LINE
  8
_0-0_
  6
CONTINUOUS
 62
    7
 10
113.13873002574064
 20
571.77543507947757
 11
116.10803279704817
 21
571.77543507947723
  0
LINE
  8
_0-0_
  6
CONTINUOUS
 62
    7
 10
116.09425338027233
 20
571.81519154661112
 11
114.51908009211638
 21
579.18529178484141
  0
LINE
  8
_0-0_
  6
CONTINUOUS
 62
    7
 10
114.51908009211638
 20
579.18529178484141
 11
113.755570099225
 21
586.93210065411074
  0
LINE
  8
_0-0_
  6
CONTINUOUS
 62
    7
 10
113.755570099225
 20
586.93210065411074
 11
113.8299101684097
 21
594.78991910754064
  0
LINE
  8
_0-0_
  6
CONTINUOUS
 62
    7
 10
113.8299101684097
 20
594.78991910754064
 11
114.73955059360958
 21
602.48924070591863
  0
LINE
  8
_0-0_
  6
CONTINUOUS
 62
    7
 10
114.73955059360958
 20
602.48924070591863
 11
115.07489112842916
 21
603.94546702749324
  0
LINE
  8
_0-0_
  6
CONTINUOUS
 62
    7
 10
115.07489112842916
 20
603.94546702749324
 11
115.53123458708797
 21
605.13853853053888
  0
LINE
  8
_0-0_
  6
CONTINUOUS
 62
    7
 10
115.53123458708797
 20
605.13853853053888
 11
116.2540386866558
 21
606.23425560918429
  0
LINE
  8
_0-0_
  6
CONTINUOUS
 62
    7
 10
116.2540386866558
 20
606.23425560918429
 11
117.13983722642536
 21
606.95384556320357
  0
LINE
  8
_0-0_
  6
CONTINUOUS
 62
    7
 10
117.13983722642536
 20
606.95384556320357
 11
118.22697274516281
 21
607.36645166789947
  0
LINE
  8
_0-0_
  6
CONTINUOUS
 62
    7
 10
118.22697274516281
 20
607.36645166789947
 11
119.43729287824783
 21
607.48924070591863
  0
LINE
  8
_0-0_
  6
CONTINUOUS
 62
    7
 10
119.43729287824783
 20
607.48924070591875
 11
156.9311117196911
 21
607.48924070591875
  0
LINE
  8
_0-0_
  6
CONTINUOUS
 62
    7
 10
154.68420229896969
 20
605.92450408003219
 11
121.68420229896969
 21
605.92450408003219
  0
LINE
  8
_0-0_
  6
CONTINUOUS
 62
    7
 10
121.68420229896969
 20
607.3861870655121
 11
121.68420229896969
 21
565.48924070156374
  0
LINE
  8
_0-0_
  6
CONTINUOUS
 62
    7
 10
121.68420229896969
 20
565.48924070156374
 11
119.18420229896981
 21
565.48924070156374
  0
LINE
  8
_0-0_
  6
CONTINUOUS
 62
    7
 10
119.18420229896981
 20
565.48924070156374
 11
119.18420229896981
 21
567.56080208332094
  0
LINE
  8
_0-0_
  6
CONTINUOUS
 62
    7
 10
119.18420229896981
 20
567.56080208332094
 11
118.75161886575074
 21
567.80416713819307
  0
LINE
  8
_0-0_
  6
CONTINUOUS
 62
    7
 10
118.75161886575074
 20
567.80416713819307
 11
117.88054424203949
 21
568.49489815372704
  0
LINE
  8
_0-0_
  6
CONTINUOUS
 62
    7
 10
117.88054424203949
 20
568.49489815372704
 11
117.14393046041539
 21
569.39565014661321
  0
LINE
  8
_0-0_
  6
CONTINUOUS
 62
    7
 10
117.14393046041539
 20
569.39565014661321
 11
116.54008113610553
 21
570.52888626898289
  0
LINE
  8
_0-0_
  6
CONTINUOUS
 62
    7
 10
116.54008113610553
 20
570.52888626898289
 11
116.09425338027188
 21
571.81519154661089
  0
LINE
  8
_0-0_
  6
CONTINUOUS
 62
    7
 10
118.90426860534228
 20
571.81519154661112
 11
119.26352823934053
 21
570.85721158280865
  0
LINE
  8
_0-0_
  6
CONTINUOUS
 62
    7
 10
119.26352823934053
 20
570.85721158280865
 11
119.69804350795096
 21
570.01216734478282
  0
LINE
  8
_0-0_
  6
CONTINUOUS
 62
    7
 10
119.69804350795096
 20
570.01216734478282
 11
120.53809267651843
 21
568.90536069837367
  0
LINE
  8
_0-0_
  6
CONTINUOUS
 62
    7
 10
120.53809267651843
 20
568.90536069837367
 11
120.53809267651843
 21
607.11527936265122
  0
LINE
  8
_0-0_
  6
CONTINUOUS
 62
    7
 10
120.32649896640612
 20
607.05123439571537
 11
119.44860787771245
 21
606.54496554414402
  0
LINE
  8
_0-0_
  6
CONTINUOUS
 62
    7
 10
119.44860787771245
 20
606.54496554414402
 11
118.72941707085431
 21
605.83783849767997
  0
LINE
  8
_0-0_
  6
CONTINUOUS
 62
    7
 10
118.72941707085431
 20
605.83783849767997
 11
118.14524912258696
 21
604.91841063044649
  0
LINE
  8
_0-0_
  6
CONTINUOUS
 62
    7
 10
118.14524912258696
 20
604.91841063044649
 11
117.69492862293134
 21
603.79210285113902
  0
LINE
  8
_0-0_
  6
CONTINUOUS
 62
    7
 10
117.69492862293134
 20
603.79210285113902
 11
117.36590040891042
 21
602.48924070591886
  0
LINE
  8
_0-0_
  6
CONTINUOUS
 62
    7
 10
117.36590040891053
 20
602.48924070591863
 11
116.34585102481935
 21
594.77950706414924
  0
LINE
  8
_0-0_
  6
CONTINUOUS
 62
    7
 10
116.34585102481935
 20
594.77950706414924
 11
116.26673821474003
 21
586.87111161659925
  0
LINE
  8
_0-0_
  6
CONTINUOUS
 62
    7
 10
116.26673821474003
 20
586.87111161659925
 11
117.13197066715543
 21
579.10479888307839
  0
LINE
  8
_0-0_
  6
CONTINUOUS
 62
    7
 10
117.13197066715543
 20
579.10479888307839
 11
118.90426860534262
 21
571.81519154661112
  0
LINE
  8
_0-0_
  6
CONTINUOUS
 62
    7
 10
118.42693544877045
 20
568.06162947291512
 11
113.13873002574064
 21
568.06162947291523
  0
LINE
  8
_0-0_
  6
CONTINUOUS
 62
    7
 10
112.56420229896946
 20
569.48924068603969
 11
112.06420229896969
 21
569.48924068603969
  0
LINE
  8
_0-0_
  6
CONTINUOUS
 62
    7
 10
110.56420229896958
 20
570.98924068603969
 11
110.56420229896958
 21
579.98924068603969
  0
LINE
  8
_0-0_
  6
CONTINUOUS
 62
    7
 10
110.56420229896958
 20
579.48727523149432
 11
110.18420229899118
 21
579.48724068603963
  0
LINE
  8
_0-0_
  6
CONTINUOUS
 62
    7
 10
110.18420229899118
 20
579.48724068603963
 11
110.18420229899118
 21
571.49124068603942
  0
LINE
  8
_0-0_
  6
CONTINUOUS
 62
    7
 10
110.18420229899118
 20
571.49124068603942
 11
110.56420229896958
 21
571.49120614058472
  0
LINE
  8
_0-0_
  6
CONTINUOUS
 62
    7
 10
113.13873002574064
 20
579.20304629260193
 11
114.51633573447054
 21
579.20304629260193
  0
LINE
  8
_0-0_
  6
CONTINUOUS
 62
    7
 10
114.04460670816741
 20
582.91685189916404
 11
113.13873002574064
 21
582.91685189916404
  0
LINE
  8
_0-0_
  6
CONTINUOUS
 62
    7
 10
112.56420229896946
 20
581.48924068603969
 11
112.06420229896969
 21
581.48924068603969
  0
LINE
  8
_0-0_
  6
CONTINUOUS
 62
    7
 10
121.68420229896992
 20
581.48924068603969
 11
124.18420229896992
 21
581.48924068603969
  0
LINE
  8
_0-0_
  6
CONTINUOUS
 62
    7
 10
124.18420229896992
 20
569.48924068603969
 11
121.68420229896992
 21
569.48924068603969
  0
LINE
  8
_0-0_
  6
CONTINUOUS
 62
    7
 10
121.68420229896969
 20
568.90536069837401
 11
120.53809267651843
 21
568.90536069837367
  0
LINE
  8
_0-0_
  6
CONTINUOUS
 62
    7
 10
124.18420229896992
 20
552.48924068603969
 11
124.18420229896992
 21
598.4892406791771
  0
LINE
  8
_0-0_
  6
CONTINUOUS
 62
    7
 10
126.18420229896992
 20
600.48924068603969
 11
150.18420229896992
 21
600.48924068603969
  0
LINE
  8
_0-0_
  6
CONTINUOUS
 62
    7
 10
152.18420229896992
 20
598.4892406791771
 11
152.18420229896992
 21
552.48924068603969
  0
LINE
  8
_0-0_
  6
CONTINUOUS
 62
    7
 10
150.18420229896878
 20
550.48924068603969
 11
126.18420229896992
 21
550.48924068603969
  0
LINE
  8
_0-0_
  6
CONTINUOUS
 62
    7
 10
105.44755965214233
 20
637.33714495620495
 11
105.88420229896929
 21
637.58924070589012
  0
LINE
  8
_0-0_
  6
CONTINUOUS
 62
    7
 10
105.88420229896929
 20
637.58924070589012
 11
118.48420229896931
 21
637.58924070589012
  0
LINE
  8
_0-0_
  6
CONTINUOUS
 62
    7
 10
118.48420229896931
 20
637.58924070589012
 11
118.9208449457949
 21
637.33714495620563
  0
LINE
  8
_0-0_
  6
CONTINUOUS
 62
    7
 10
118.91429941211845
 20
637.34092363762704
 11
118.98360548090898
 21
637.29800472875684
  0
LINE
  8
_0-0_
  6
CONTINUOUS
 62
    7
 10
118.98360548090898
 20
637.29800472875684
 11
119.43401026469621
 21
636.89321406845204
  0
LINE
  8
_0-0_
  6
CONTINUOUS
 62
    7
 10
119.43401026469724
 20
636.89321406845147
 11
119.43401026469633
 21
631.08924070589012
  0
LINE
  8
_0-0_
  6
CONTINUOUS
 62
    7
 10
114.12678248866609
 20
631.08924070589012
 11
114.12678248866609
 21
636.89321406845158
  0
LINE
  8
_0-0_
  6
CONTINUOUS
 62
    7
 10
114.12678248866609
 20
636.89321406845158
 11
112.22802201969307
 21
637.33452586045939
  0
LINE
  8
_0-0_
  6
CONTINUOUS
 62
    7
 10
112.22802201969307
 20
637.33452586045939
 11
110.24415231707223
 21
637.47061024709228
  0
LINE
  8
_0-0_
  6
CONTINUOUS
 62
    7
 10
110.24415231707223
 20
637.47061024709228
 11
108.55790806000482
 21
637.29800472875627
  0
LINE
  8
_0-0_
  6
CONTINUOUS
 62
    7
 10
108.55790806000482
 20
637.29800472875627
 11
106.87697452293935
 21
636.89321406845147
  0
LINE
  8
_0-0_
  6
CONTINUOUS
 62
    7
 10
108.18602729896918
 20
637.58924070589012
 11
108.18620229896908
 21
638.98924070591841
  0
LINE
  8
_0-0_
  6
CONTINUOUS
 62
    7
 10
108.18620229896908
 20
638.98924070591841
 11
116.1822022989694
 21
638.98924070591841
  0
LINE
  8
_0-0_
  6
CONTINUOUS
 62
    7
 10
116.1822022989694
 20
638.98924070591841
 11
116.18237729896941
 21
637.58924070589012
  0
LINE
  8
_0-0_
  6
CONTINUOUS
 62
    7
 10
116.16800197252621
 20
637.44060613562317
 11
114.80624295420682
 21
637.14224560625382
  0
LINE
  8
_0-0_
  6
CONTINUOUS
 62
    7
 10
114.80624295420682
 20
637.14224560625382
 11
114.12678248866609
 21
636.89321406845158
  0
LINE
  8
_0-0_
  6
CONTINUOUS
 62
    7
 10
116.16800197252621
 20
637.44060613562317
 11
117.50978728560233
 21
637.4268095952151
  0
LINE
  8
_0-0_
  6
CONTINUOUS
 62
    7
 10
117.50978728560233
 20
637.4268095952151
 11
118.48051723131471
 21
637.22491181411601
  0
LINE
  8
_0-0_
  6
CONTINUOUS
 62
    7
 10
118.48051723131471
 20
637.22491181411601
 11
119.43401026469724
 21
636.89321406845147
  0
LINE
  8
_0-0_
  6
CENTER1
 62
    7
 10
112.18420229896924
 20
643.98924070591841
 11
112.18420229896924
 21
610.07424070591844
  0
LINE
  8
_0-0_
  6
CONTINUOUS
 62
    7
 10
113.68420229896947
 20
612.48924070591852
 11
113.68420229896947
 21
590.16873263022967
  0
LINE
  8
_0-0_
  6
CONTINUOUS
 62
    7
 10
120.32649896640612
 20
607.05123439571537
 11
121.32930780481718
 21
607.35476354535274
  0
LINE
  8
_0-0_
  6
CONTINUOUS
 62
    7
 10
121.32930780481718
 20
607.35476354535274
 11
122.8480811195858
 21
607.48924070591875
  0
LINE
  8
_0-0_
  6
CONTINUOUS
 62
    7
 10
118.22420229896932
 20
615.48924070591829
 11
158.14420229896916
 21
615.48924070591829
  0
LINE
  8
_0-0_
  6
CONTINUOUS
 62
    7
 10
157.75920229896929
 20
615.87424070591817
 11
170.60920229896954
 21
615.87424070591817
  0
LINE
  8
_0-0_
  6
CONTINUOUS
 62
    7
 10
178.18420229896935
 20
609.39634748710489
 11
178.89130908015557
 21
608.68924070591868
  0
LINE
  8
_0-0_
  6
CONTINUOUS
 62
    7
 10
178.89130908015557
 20
608.68924070591868
 11
199.47709551778314
 21
608.68924070591868
  0
LINE
  8
_0-0_
  6
CONTINUOUS
 62
    7
 10
199.47709551778314
 20
608.68924070591868
 11
200.18420229896958
 21
609.396347487105
  0
LINE
  8
_0-0_
  6
CONTINUOUS
 62
    7
 10
179.30122449200883
 20
621.50872576243501
 11
179.1038530422536
 21
621.49636517058127
  0
LINE
  8
_0-0_
  6
CONTINUOUS
 62
    7
 10
179.1038530422536
 20
621.49636517058127
 11
179.03590067074936
 21
621.50084299708362
  0
LINE
  8
_0-0_
  6
CONTINUOUS
 62
    7
 10
179.0377212162615
 20
621.50058174429341
 11
179.10298393880589
 21
621.49319379271139
  0
LINE
  8
_0-0_
  6
CONTINUOUS
 62
    7
 10
179.41532275215297
 20
622.57212254680132
 11
179.44794307017798
 21
622.6092003258243
  0
LINE
  8
_0-0_
  6
CONTINUOUS
 62
    7
 10
157.75920229896929
 20
619.78924070591825
 11
118.60920229896931
 21
619.78924070591825
  0
LINE
  8
_0-0_
  6
CONTINUOUS
 62
    7
 10
118.60920229896931
 20
615.8742407059184
 11
105.75920229896917
 21
615.8742407059184
  0
LINE
  8
_0-0_
  6
CENTER1
 62
    7
 10
138.18420229896935
 20
620.07424070591844
 11
138.18420229896935
 21
585.16873263022967
  0
LINE
  8
_0-0_
  6
CONTINUOUS
 62
    7
 10
155.28420229896949
 20
628.68924070591822
 11
155.28420229896949
 21
629.88924070591816
  0
LINE
  8
_0-0_
  6
CONTINUOUS
 62
    7
 10
306.52695889030917
 20
628.68924070591765
 11
306.52695889030929
 21
619.68924070591765
  0
LINE
  8
_0-0_
  6
CONTINUOUS
 62
    7
 10
306.52695889030917
 20
628.68924070591765
 11
471.52695889030923
 21
628.68924070591765
  0
LINE
  8
_0-0_
  6
CONTINUOUS
 62
    7
 10
471.52695889030923
 20
628.68924070591765
 11
471.52695889030923
 21
619.68924070591765
  0
LINE
  8
_0-0_
  6
CONTINUOUS
 62
    7
 10
465.52695889030923
 20
613.68924070591765
 11
312.52695889030934
 21
613.68924070591765
  0
LINE
  8
_0-0_
  6
CONTINUOUS
 62
    7
 10
311.92695889030927
 20
613.71931608327793
 11
311.92695889030927
 21
609.39634748710432
  0
LINE
  8
_0-0_
  6
CONTINUOUS
 62
    7
 10
311.92695889030927
 20
609.39634748710432
 11
333.92695889030927
 21
609.39634748710432
  0
LINE
  8
_0-0_
  6
CONTINUOUS
 62
    7
 10
333.92695889030927
 20
609.39634748710432
 11
333.92695889030927
 21
613.68924070591765
  0
LINE
  8
_0-0_
  6
CONTINUOUS
 62
    7
 10
333.92695889030927
 20
609.39634748710432
 11
333.21985210912294
 21
608.68924070591811
  0
LINE
  8
_0-0_
  6
CONTINUOUS
 62
    7
 10
333.21985210912294
 20
608.68924070591811
 11
312.63406567149559
 21
608.68924070591811
  0
LINE
  8
_0-0_
  6
CONTINUOUS
 62
    7
 10
312.63406567149559
 20
608.68924070591811
 11
311.92695889030927
 21
609.39634748710432
  0
LINE
  8
_0-0_
  6
CENTER1
 62
    7
 10
401.52695890740245
 20
575.48924068603912
 11
461.52695890740245
 21
575.48924068603912
  0
LINE
  8
_0-0_
  6
CONTINUOUS
 62
    7
 10
441.49771434939066
 20
576.25346290866855
 11
439.02695889030804
 21
608.48924070591806
  0
LINE
  8
_0-0_
  6
CONTINUOUS
 62
    7
 10
439.02695889030804
 20
608.48924070591806
 11
425.50062485131804
 21
610.68726998725379
  0
LINE
  8
_0-0_
  6
CONTINUOUS
 62
    7
 10
425.50062485131804
 20
610.68726998725379
 11
425.25972928580853
 21
610.71419808849237
  0
LINE
  8
_0-0_
  6
CONTINUOUS
 62
    7
 10
425.25972928580853
 20
610.71419808849237
 11
424.14526523367999
 21
610.5533034082307
  0
LINE
  8
_0-0_
  6
CONTINUOUS
 62
    7
 10
424.14526523367999
 20
610.5533034082307
 11
423.07225911655286
 21
609.94373964465854
  0
LINE
  8
_0-0_
  6
CONTINUOUS
 62
    7
 10
423.07225911655286
 20
609.94373964465854
 11
422.43268827115554
 21
609.21681659104115
  0
LINE
  8
_0-0_
  6
CONTINUOUS
 62
    7
 10
422.43268827115554
 20
609.21681659104115
 11
422.11161795468968
 21
608.51606254803164
  0
LINE
  8
_0-0_
  6
CONTINUOUS
 62
    7
 10
422.11161795468968
 20
608.51606254803164
 11
421.99466718856576
 21
607.71107827180936
  0
LINE
  8
_0-0_
  6
CONTINUOUS
 62
    7
 10
421.99466718856576
 20
607.71107827180936
 11
421.99466718856576
 21
567.56080208332094
  0
LINE
  8
_0-0_
  6
CONTINUOUS
 62
    7
 10
421.99466718856576
 20
567.56080208332094
 11
420.63856071126025
 21
568.24033221925788
  0
LINE
  8
_0-0_
  6
CONTINUOUS
 62
    7
 10
420.63856071126025
 20
568.24033221925788
 11
419.24217146650057
 21
569.25151140519301
  0
LINE
  8
_0-0_
  6
CONTINUOUS
 62
    7
 10
419.24217146650057
 20
569.25151140519301
 11
417.93560599583776
 21
570.61773693368127
  0
LINE
  8
_0-0_
  6
CONTINUOUS
 62
    7
 10
417.93560599583776
 20
570.61773693368127
 11
417.12338077551817
 21
571.81519154660987
  0
LINE
  8
_0-0_
  6
CONTINUOUS
 62
    7
 10
417.12338077551817
 20
571.81519154661055
 11
399.41371023625584
 21
602.48924070591806
  0
LINE
  8
_0-0_
  6
CONTINUOUS
 62
    7
 10
399.41371023625675
 20
602.48924070591829
 11
398.50239905409467
 21
603.8083011583077
  0
LINE
  8
_0-0_
  6
CONTINUOUS
 62
    7
 10
398.50239905409467
 20
603.8083011583077
 11
397.41200932102697
 21
604.95004966428974
  0
LINE
  8
_0-0_
  6
CONTINUOUS
 62
    7
 10
397.41200932102697
 20
604.95004966428974
 11
394.87934753683027
 21
606.59841304283009
  0
LINE
  8
_0-0_
  6
CONTINUOUS
 62
    7
 10
394.87934753683027
 20
606.59841304283009
 11
392.14019298422835
 21
607.39262200155974
  0
LINE
  8
_0-0_
  6
CONTINUOUS
 62
    7
 10
392.14019298422835
 20
607.39262200155974
 11
390.75345619841198
 21
607.48924070591806
  0
LINE
  8
_0-0_
  6
CONTINUOUS
 62
    7
 10
390.75345619841198
 20
607.48924070591818
 11
382.02695889030855
 21
607.48924070591818
  0
LINE
  8
_0-0_
  6
CONTINUOUS
 62
    7
 10
382.02695889030855
 20
607.48924070591818
 11
382.02695889030855
 21
612.48924070591795
  0
LINE
  8
_0-0_
  6
CENTER1
 62
    7
 10
380.52695889030934
 20
623.68924070591765
 11
380.52695889030929
 21
643.98924070591761
  0
LINE
  8
_0-0_
  6
CONTINUOUS
 62
    7
 10
380.26531223767847
 20
637.29800472875604
 11
381.95155649474606
 21
637.47061024709194
  0
LINE
  8
_0-0_
  6
CONTINUOUS
 62
    7
 10
381.95155649474606
 20
637.47061024709194
 11
383.93542619736667
 21
637.33452586045894
  0
LINE
  8
_0-0_
  6
CONTINUOUS
 62
    7
 10
383.93542619736667
 20
637.33452586045894
 11
385.83418666633946
 21
636.89321406845067
  0
LINE
  8
_0-0_
  6
CONTINUOUS
 62
    7
 10
385.83418666633946
 20
636.89321406845067
 11
386.28459145012675
 21
637.2980047287557
  0
LINE
  8
_0-0_
  6
CONTINUOUS
 62
    7
 10
386.28459145012675
 20
637.2980047287557
 11
386.73641923704986
 21
637.47061024709171
  0
LINE
  8
_0-0_
  6
CONTINUOUS
 62
    7
 10
386.73641923704986
 20
637.47061024709171
 11
387.25646550937802
 21
637.34126491703842
  0
LINE
  8
_0-0_
  6
CONTINUOUS
 62
    7
 10
387.25646550937802
 20
637.34126491703842
 11
387.26799552175578
 21
637.33452586045848
  0
LINE
  8
_0-0_
  6
CONTINUOUS
 62
    7
 10
387.26799552175578
 20
637.33452586045848
 11
387.77676685603711
 21
636.89321406845056
  0
LINE
  8
_0-0_
  6
CONTINUOUS
 62
    7
 10
387.77676685603694
 20
636.89321406845067
 11
387.77676685603711
 21
631.08924070588932
  0
LINE
  8
_0-0_
  6
CONTINUOUS
 62
    7
 10
387.77676685603711
 20
631.08924070588932
 11
373.27715092458186
 21
631.08924070588932
  0
LINE
  8
_0-0_
  6
CONTINUOUS
 62
    7
 10
373.27715092458186
 20
631.08924070588932
 11
373.27715092458186
 21
636.89321406845067
  0
LINE
  8
_0-0_
  6
CONTINUOUS
 62
    7
 10
373.27715092458186
 20
636.89321406845067
 11
373.95661139012259
 21
637.14224560625314
  0
LINE
  8
_0-0_
  6
CONTINUOUS
 62
    7
 10
373.95661139012259
 20
637.14224560625314
 11
375.31837040844198
 21
637.44060613562237
  0
LINE
  8
_0-0_
  6
CONTINUOUS
 62
    7
 10
375.31837040844198
 20
637.44060613562237
 11
376.66015572151809
 21
637.42680959521431
  0
LINE
  8
_0-0_
  6
CONTINUOUS
 62
    7
 10
376.66015572151809
 20
637.42680959521431
 11
378.58437870061283
 21
636.89321406845067
  0
LINE
  8
_0-0_
  6
CONTINUOUS
 62
    7
 10
378.58437870061283
 20
636.89321406845067
 11
380.26531223767847
 21
637.29800472875604
  0
LINE
  8
_0-0_
  6
CONTINUOUS
 62
    7
 10
378.58437870061283
 20
636.89321406845067
 11
378.58437870061209
 21
631.08924070588932
  0
LINE
  8
_0-0_
  6
CONTINUOUS
 62
    7
 10
380.48990745896094
 20
631.08924070591752
 11
381.18272778198855
 21
629.88924070591747
  0
LINE
  8
_0-0_
  6
CONTINUOUS
 62
    7
 10
381.52913794350235
 20
629.88924070591747
 11
380.83631762047474
 21
631.08924070591752
  0
LINE
  8
_0-0_
  6
CONTINUOUS
 62
    7
 10
385.83418666633975
 20
631.08924070588932
 11
385.83418666633946
 21
636.89321406845067
  0
LINE
  8
_0-0_
  6
CONTINUOUS
 62
    7
 10
386.82695889030941
 20
637.58924070588944
 11
374.22695889030956
 21
637.58924070588932
  0
LINE
  8
_0-0_
  6
CONTINUOUS
 62
    7
 10
374.22695889030956
 20
637.58924070588932
 11
373.79593719937554
 21
637.34039021660215
  0
LINE
  8
_0-0_
  6
CONTINUOUS
 62
    7
 10
373.79745227124067
 20
637.3412649170383
 11
373.78592225886325
 21
637.33452586045848
  0
LINE
  8
_0-0_
  6
CONTINUOUS
 62
    7
 10
373.78592225886325
 20
637.33452586045848
 11
373.27715092458186
 21
636.89321406845067
  0
LINE
  8
_0-0_
  6
CONTINUOUS
 62
    7
 10
376.52878389030911
 20
637.58924070588944
 11
376.52895889030913
 21
638.98924070591761
  0
LINE
  8
_0-0_
  6
CONTINUOUS
 62
    7
 10
376.52895889030913
 20
638.98924070591761
 11
384.52495889030945
 21
638.9892407059175
  0
LINE
  8
_0-0_
  6
CONTINUOUS
 62
    7
 10
384.52495889030945
 20
638.9892407059175
 11
384.52513389030946
 21
637.58924070588944
  0
LINE
  8
_0-0_
  6
CONTINUOUS
 62
    7
 10
386.82695889030941
 20
637.58924070588944
 11
387.25798058124315
 21
637.34039021660215
  0
LINE
  8
_0-0_
  6
CONTINUOUS
 62
    7
 10
387.02695889030934
 20
631.08924070591752
 11
387.02695889030934
 21
629.88924070591747
  0
LINE
  8
_0-0_
  6
CONTINUOUS
 62
    7
 10
389.42695889030932
 20
629.88924070591759
 11
389.42695889030932
 21
628.68924070591765
  0
LINE
  8
_0-0_
  6
CONTINUOUS
 62
    7
 10
389.42695889030932
 20
629.88924070591759
 11
371.62695889030931
 21
629.88924070591759
  0
LINE
  8
_0-0_
  6
CONTINUOUS
 62
    7
 10
371.62695889030931
 20
629.88924070591759
 11
371.62695889030931
 21
628.68924070591765
  0
LINE
  8
_0-0_
  6
CONTINUOUS
 62
    7
 10
374.02695889030934
 20
629.88924070591747
 11
374.02695889030934
 21
631.08924070591752
  0
LINE
  8
_0-0_
  6
CENTER1
 62
    7
 10
406.52695889030826
 20
618.68924070591765
 11
406.52695889030826
 21
602.48924070591818
  0
LINE
  8
_0-0_
  6
CENTER1
 62
    7
 10
431.52695890740245
 20
605.48924068603912
 11
431.52695890740245
 21
545.48924068603912
  0
LINE
  8
_0-0_
  6
CONTINUOUS
 62
    7
 10
429.27744834686916
 20
565.74554005806567
 11
423.53412426992367
 21
567.07149089875816
  0
LINE
  8
_0-0_
  6
CONTINUOUS
 62
    7
 10
425.13445890740246
 20
571.79852909024441
 11
431.52695890740245
 21
568.10781749444971
  0
LINE
  8
_0-0_
  6
CONTINUOUS
 62
    7
 10
431.52695890740245
 20
568.10781749444971
 11
437.91945890740254
 21
571.79852909024441
  0
LINE
  8
_0-0_
  6
CONTINUOUS
 62
    7
 10
437.91945890740254
 20
571.79852909024441
 11
437.91945890740254
 21
579.17995228183395
  0
LINE
  8
_0-0_
  6
CONTINUOUS
 62
    7
 10
437.91945890740254
 20
579.17995228183395
 11
431.52695890740256
 21
582.87066387762854
  0
LINE
  8
_0-0_
  6
CONTINUOUS
 62
    7
 10
431.52695890740256
 20
582.87066387762854
 11
425.13445890740257
 21
579.17995228183395
  0
LINE
  8
_0-0_
  6
CONTINUOUS
 62
    7
 10
425.13445890740257
 20
579.17995228183395
 11
425.13445890740246
 21
571.79852909024441
  0
LINE
  8
_0-0_
  6
CONTINUOUS
 62
    7
 10
431.02695889030804
 20
609.7892407059179
 11
431.02695889030804
 21
612.48924070591795
  0
LINE
  8
_0-0_
  6
CENTER1
 62
    7
 10
432.52695889030883
 20
623.68924070591765
 11
432.52695889030883
 21
643.98924070591761
  0
LINE
  8
_0-0_
  6
CONTINUOUS
 62
    7
 10
432.26531223767796
 20
637.29800472875604
 11
433.95155649474555
 21
637.47061024709194
  0
LINE
  8
_0-0_
  6
CONTINUOUS
 62
    7
 10
433.95155649474555
 20
637.47061024709194
 11
435.93542619736627
 21
637.33452586045894
  0
LINE
  8
_0-0_
  6
CONTINUOUS
 62
    7
 10
435.93542619736627
 20
637.33452586045894
 11
437.83418666633906
 21
636.89321406845067
  0
LINE
  8
_0-0_
  6
CONTINUOUS
 62
    7
 10
437.83418666633906
 20
636.89321406845067
 11
438.28459145012647
 21
637.2980047287557
  0
LINE
  8
_0-0_
  6
CONTINUOUS
 62
    7
 10
438.28459145012647
 20
637.2980047287557
 11
438.73641923704946
 21
637.47061024709171
  0
LINE
  8
_0-0_
  6
CONTINUOUS
 62
    7
 10
438.73641923704946
 20
637.47061024709171
 11
439.25646550937768
 21
637.34126491703842
  0
LINE
  8
_0-0_
  6
CONTINUOUS
 62
    7
 10
439.25646550937768
 20
637.34126491703842
 11
439.26799552175527
 21
637.33452586045848
  0
LINE
  8
_0-0_
  6
CONTINUOUS
 62
    7
 10
439.26799552175527
 20
637.33452586045848
 11
439.77676685603677
 21
636.89321406845056
  0
LINE
  8
_0-0_
  6
CONTINUOUS
 62
    7
 10
439.77676685603655
 20
636.89321406845067
 11
439.77676685603677
 21
631.08924070588932
  0
LINE
  8
_0-0_
  6
CONTINUOUS
 62
    7
 10
439.77676685603677
 20
631.08924070588932
 11
425.27715092458146
 21
631.08924070588932
  0
LINE
  8
_0-0_
  6
CONTINUOUS
 62
    7
 10
425.27715092458146
 20
631.08924070588932
 11
425.27715092458146
 21
636.89321406845067
  0
LINE
  8
_0-0_
  6
CONTINUOUS
 62
    7
 10
425.27715092458146
 20
636.89321406845067
 11
425.95661139012208
 21
637.14224560625314
  0
LINE
  8
_0-0_
  6
CONTINUOUS
 62
    7
 10
425.95661139012208
 20
637.14224560625314
 11
427.31837040844158
 21
637.44060613562237
  0
LINE
  8
_0-0_
  6
CONTINUOUS
 62
    7
 10
427.31837040844158
 20
637.44060613562237
 11
428.66015572151764
 21
637.42680959521431
  0
LINE
  8
_0-0_
  6
CONTINUOUS
 62
    7
 10
428.66015572151764
 20
637.42680959521431
 11
430.58437870061243
 21
636.89321406845067
  0
LINE
  8
_0-0_
  6
CONTINUOUS
 62
    7
 10
430.58437870061243
 20
636.89321406845067
 11
432.26531223767796
 21
637.29800472875604
  0
LINE
  8
_0-0_
  6
CONTINUOUS
 62
    7
 10
430.58437870061243
 20
636.89321406845067
 11
430.58437870061164
 21
631.08924070588932
  0
LINE
  8
_0-0_
  6
CONTINUOUS
 62
    7
 10
432.48990745896054
 20
631.08924070591752
 11
433.18272778198804
 21
629.88924070591747
  0
LINE
  8
_0-0_
  6
CONTINUOUS
 62
    7
 10
433.52913794350184
 20
629.88924070591747
 11
432.83631762047435
 21
631.08924070591752
  0
LINE
  8
_0-0_
  6
CONTINUOUS
 62
    7
 10
437.83418666633924
 20
631.08924070588932
 11
437.83418666633906
 21
636.89321406845067
  0
LINE
  8
_0-0_
  6
CONTINUOUS
 62
    7
 10
438.82695889030907
 20
637.58924070588944
 11
439.25798058124275
 21
637.34039021660215
  0
LINE
  8
_0-0_
  6
CONTINUOUS
 62
    7
 10
438.82695889030907
 20
637.58924070588944
 11
426.22695889030905
 21
637.58924070588932
  0
LINE
  8
_0-0_
  6
CONTINUOUS
 62
    7
 10
426.22695889030905
 20
637.58924070588932
 11
425.79593719937515
 21
637.34039021660215
  0
LINE
  8
_0-0_
  6
CONTINUOUS
 62
    7
 10
425.79745227124027
 20
637.3412649170383
 11
425.78592225886285
 21
637.33452586045848
  0
LINE
  8
_0-0_
  6
CONTINUOUS
 62
    7
 10
425.78592225886285
 20
637.33452586045848
 11
425.27715092458146
 21
636.89321406845067
  0
LINE
  8
_0-0_
  6
CONTINUOUS
 62
    7
 10
428.52878389030877
 20
637.58924070588944
 11
428.52895889030867
 21
638.98924070591761
  0
LINE
  8
_0-0_
  6
CONTINUOUS
 62
    7
 10
428.52895889030867
 20
638.98924070591761
 11
436.52495889030905
 21
638.9892407059175
  0
LINE
  8
_0-0_
  6
CONTINUOUS
 62
    7
 10
436.52495889030905
 20
638.9892407059175
 11
436.52513389030906
 21
637.58924070588944
  0
LINE
  8
_0-0_
  6
CONTINUOUS
 62
    7
 10
439.02695889030883
 20
631.08924070591752
 11
439.02695889030883
 21
629.88924070591747
  0
LINE
  8
_0-0_
  6
CONTINUOUS
 62
    7
 10
441.42695889030887
 20
629.88924070591759
 11
441.42695889030887
 21
628.68924070591765
  0
LINE
  8
_0-0_
  6
CONTINUOUS
 62
    7
 10
441.42695889030887
 20
629.88924070591759
 11
423.62695889030886
 21
629.88924070591759
  0
LINE
  8
_0-0_
  6
CONTINUOUS
 62
    7
 10
423.62695889030886
 20
629.88924070591759
 11
423.62695889030886
 21
628.68924070591765
  0
LINE
  8
_0-0_
  6
CONTINUOUS
 62
    7
 10
426.02695889030883
 20
629.88924070591747
 11
426.02695889030883
 21
631.08924070591752
  0
LINE
  8
_0-0_
  6
CONTINUOUS
 62
    7
 10
645.72777750740283
 20
628.68924070591788
 11
645.72777750740283
 21
629.8892407059177
  0
LINE
  8
_0-0_
  6
CONTINUOUS
 62
    7
 10
645.72777750740283
 20
629.8892407059177
 11
627.92777750740265
 21
629.8892407059177
  0
LINE
  8
_0-0_
  6
CONTINUOUS
 62
    7
 10
627.92777750740265
 20
629.8892407059177
 11
627.92777750740265
 21
628.68924070591765
  0
LINE
  8
_0-0_
  6
CONTINUOUS
 62
    7
 10
630.32777750740274
 20
629.8892407059177
 11
630.32777750740274
 21
631.08924070591775
  0
LINE
  8
_0-0_
  6
CONTINUOUS
 62
    7
 10
629.57796954167497
 20
631.08924070588955
 11
629.5779695416752
 21
636.89321406845079
  0
LINE
  8
_0-0_
  6
CONTINUOUS
 62
    7
 10
629.5779695416752
 20
636.89321406845079
 11
630.08674087595637
 21
637.3345258604586
  0
LINE
  8
_0-0_
  6
CONTINUOUS
 62
    7
 10
630.08674087595637
 20
637.3345258604586
 11
630.09827088833413
 21
637.34126491703864
  0
LINE
  8
_0-0_
  6
CONTINUOUS
 62
    7
 10
630.09827088833413
 20
637.34126491703864
 11
630.61831716066217
 21
637.47061024709183
  0
LINE
  8
_0-0_
  6
CONTINUOUS
 62
    7
 10
630.61831716066217
 20
637.47061024709183
 11
631.07014494758528
 21
637.29800472875581
  0
LINE
  8
_0-0_
  6
CONTINUOUS
 62
    7
 10
631.07014494758528
 20
637.29800472875581
 11
631.52054973137251
 21
636.89321406845079
  0
LINE
  8
_0-0_
  6
CONTINUOUS
 62
    7
 10
631.52054973137251
 20
636.89321406845079
 11
633.41931020034531
 21
637.33452586045905
  0
LINE
  8
_0-0_
  6
CONTINUOUS
 62
    7
 10
633.41931020034531
 20
637.33452586045905
 11
635.40317990296603
 21
637.47061024709205
  0
LINE
  8
_0-0_
  6
CONTINUOUS
 62
    7
 10
635.40317990296603
 20
637.47061024709205
 11
637.08942416003379
 21
637.29800472875627
  0
LINE
  8
_0-0_
  6
CONTINUOUS
 62
    7
 10
637.08942416003379
 20
637.29800472875627
 11
638.77035769709914
 21
636.89321406845079
  0
LINE
  8
_0-0_
  6
CONTINUOUS
 62
    7
 10
638.77035769709914
 20
636.89321406845079
 11
638.77035769709994
 21
631.08924070588955
  0
LINE
  8
_0-0_
  6
CONTINUOUS
 62
    7
 10
636.86482893875132
 20
631.08924070591775
 11
636.1720086157236
 21
629.8892407059177
  0
LINE
  8
_0-0_
  6
CONTINUOUS
 62
    7
 10
635.82559845420985
 20
629.8892407059177
 11
636.51841877723746
 21
631.08924070591775
  0
LINE
  8
_0-0_
  6
CONTINUOUS
 62
    7
 10
631.52054973137228
 20
631.08924070588955
 11
631.52054973137251
 21
636.89321406845079
  0
LINE
  8
_0-0_
  6
CONTINUOUS
 62
    7
 10
630.52777750740256
 20
637.58924070588955
 11
643.12777750740247
 21
637.58924070588955
  0
LINE
  8
_0-0_
  6
CONTINUOUS
 62
    7
 10
643.12777750740247
 20
637.58924070588955
 11
643.55879919833637
 21
637.34039021660215
  0
LINE
  8
_0-0_
  6
CONTINUOUS
 62
    7
 10
643.55728412647147
 20
637.34126491703842
 11
643.56881413884867
 21
637.3345258604586
  0
LINE
  8
_0-0_
  6
CONTINUOUS
 62
    7
 10
643.56881413884867
 20
637.3345258604586
 11
644.07758547313028
 21
636.89321406845079
  0
LINE
  8
_0-0_
  6
CONTINUOUS
 62
    7
 10
644.07758547313028
 20
636.89321406845079
 11
644.07758547313028
 21
631.08924070588955
  0
LINE
  8
_0-0_
  6
CONTINUOUS
 62
    7
 10
644.07758547313028
 20
631.08924070588955
 11
629.57796954167497
 21
631.08924070588955
  0
LINE
  8
_0-0_
  6
CONTINUOUS
 62
    7
 10
630.09675581646889
 20
637.34039021660237
 11
630.52777750740256
 21
637.58924070588955
  0
LINE
  8
_0-0_
  6
CONTINUOUS
 62
    7
 10
632.82960250740257
 20
637.58924070588955
 11
632.8297775074027
 21
638.98924070591761
  0
LINE
  8
_0-0_
  6
CONTINUOUS
 62
    7
 10
632.8297775074027
 20
638.98924070591761
 11
640.82577750740302
 21
638.98924070591761
  0
LINE
  8
_0-0_
  6
CONTINUOUS
 62
    7
 10
640.82577750740302
 20
638.98924070591761
 11
640.82595250740292
 21
637.58924070588955
  0
LINE
  8
_0-0_
  6
CONTINUOUS
 62
    7
 10
640.69458067619405
 20
637.42680959521431
 11
638.77035769709914
 21
636.89321406845079
  0
LINE
  8
_0-0_
  6
CONTINUOUS
 62
    7
 10
640.69458067619405
 20
637.42680959521431
 11
642.03636598927017
 21
637.4406061356226
  0
LINE
  8
_0-0_
  6
CONTINUOUS
 62
    7
 10
642.03636598927017
 20
637.4406061356226
 11
643.39812500758956
 21
637.14224560625325
  0
LINE
  8
_0-0_
  6
CONTINUOUS
 62
    7
 10
643.39812500758956
 20
637.14224560625325
 11
644.07758547313028
 21
636.89321406845079
  0
LINE
  8
_0-0_
  6
CONTINUOUS
 62
    7
 10
643.32777750740286
 20
631.08924070591775
 11
643.32777750740286
 21
629.8892407059177
  0
LINE
  8
_0-0_
  6
CENTER1
 62
    7
 10
636.82777750740297
 20
623.68924070591765
 11
636.82777750740297
 21
643.98924070591761
  0
LINE
  8
_0-0_
  6
CONTINUOUS
 62
    7
 10
635.32777750740354
 20
612.48924070591806
 11
635.32777750740354
 21
607.48924070591829
  0
LINE
  8
_0-0_
  6
CONTINUOUS
 62
    7
 10
635.32777750740354
 20
607.48924070591829
 11
626.60128019929994
 21
607.48924070591829
  0
LINE
  8
_0-0_
  6
CONTINUOUS
 62
    7
 10
626.60128019929994
 20
607.48924070591806
 11
625.2145434134834
 21
607.39262200155986
  0
LINE
  8
_0-0_
  6
CONTINUOUS
 62
    7
 10
625.2145434134834
 20
607.39262200155986
 11
622.47538886088159
 21
606.59841304283009
  0
LINE
  8
_0-0_
  6
CONTINUOUS
 62
    7
 10
622.47538886088159
 20
606.59841304283009
 11
619.94272707668483
 21
604.95004966428996
  0
LINE
  8
_0-0_
  6
CONTINUOUS
 62
    7
 10
619.94272707668483
 20
604.95004966428996
 11
618.85233734361702
 21
603.80830115830781
  0
LINE
  8
_0-0_
  6
CONTINUOUS
 62
    7
 10
618.85233734361702
 20
603.80830115830781
 11
617.94102616145506
 21
602.48924070591852
  0
LINE
  8
_0-0_
  6
CONTINUOUS
 62
    7
 10
617.94102616145597
 20
602.48924070591829
 11
600.23135562219363
 21
571.81519154661055
  0
LINE
  8
_0-0_
  6
CONTINUOUS
 62
    7
 10
600.23135562219363
 20
571.81519154660987
 11
599.4191304018741
 21
570.6177369336815
  0
LINE
  8
_0-0_
  6
CONTINUOUS
 62
    7
 10
599.4191304018741
 20
570.6177369336815
 11
598.11256493121118
 21
569.25151140519301
  0
LINE
  8
_0-0_
  6
CONTINUOUS
 62
    7
 10
598.11256493121118
 20
569.25151140519301
 11
596.71617568645161
 21
568.24033221925811
  0
LINE
  8
_0-0_
  6
CONTINUOUS
 62
    7
 10
596.71617568645161
 20
568.24033221925811
 11
595.3600692091461
 21
567.56080208332105
  0
LINE
  8
_0-0_
  6
CONTINUOUS
 62
    7
 10
595.3600692091461
 20
567.56080208332105
 11
595.3600692091461
 21
607.71107827180936
  0
LINE
  8
_0-0_
  6
CONTINUOUS
 62
    7
 10
595.3600692091461
 20
607.71107827180936
 11
595.24311844302213
 21
608.51606254803187
  0
LINE
  8
_0-0_
  6
CONTINUOUS
 62
    7
 10
595.24311844302213
 20
608.51606254803187
 11
594.92204812655632
 21
609.21681659104138
  0
LINE
  8
_0-0_
  6
CONTINUOUS
 62
    7
 10
594.92204812655632
 20
609.21681659104138
 11
594.28247728115912
 21
609.94373964465854
  0
LINE
  8
_0-0_
  6
CONTINUOUS
 62
    7
 10
594.28247728115912
 20
609.94373964465854
 11
593.20947116403181
 21
610.5533034082307
  0
LINE
  8
_0-0_
  6
CONTINUOUS
 62
    7
 10
593.20947116403181
 20
610.5533034082307
 11
592.09500711190321
 21
610.71419808849259
  0
LINE
  8
_0-0_
  6
CONTINUOUS
 62
    7
 10
592.09500711190321
 20
610.71419808849259
 11
591.85411154639382
 21
610.68726998725401
  0
LINE
  8
_0-0_
  6
CONTINUOUS
 62
    7
 10
591.85411154639382
 20
610.68726998725401
 11
578.32777750740388
 21
608.48924070591829
  0
LINE
  8
_0-0_
  6
CONTINUOUS
 62
    7
 10
578.32777750740388
 20
608.48924070591829
 11
575.85702204832114
 21
576.25346290866878
  0
LINE
  8
_0-0_
  6
CONTINUOUS
 62
    7
 10
579.43527749030955
 20
579.17995228183395
 11
585.82777749030947
 21
582.87066387762866
  0
LINE
  8
_0-0_
  6
CONTINUOUS
 62
    7
 10
585.82777749030947
 20
582.87066387762866
 11
592.22027749030963
 21
579.17995228183395
  0
LINE
  8
_0-0_
  6
CONTINUOUS
 62
    7
 10
592.22027749030963
 20
579.17995228183395
 11
592.22027749030963
 21
571.79852909024453
  0
LINE
  8
_0-0_
  6
CONTINUOUS
 62
    7
 10
592.22027749030963
 20
571.79852909024453
 11
585.8277774903097
 21
568.10781749444982
  0
LINE
  8
_0-0_
  6
CONTINUOUS
 62
    7
 10
585.8277774903097
 20
568.10781749444982
 11
579.43527749030955
 21
571.79852909024453
  0
LINE
  8
_0-0_
  6
CONTINUOUS
 62
    7
 10
579.43527749030955
 20
571.79852909024453
 11
579.43527749030955
 21
579.17995228183395
  0
LINE
  8
_0-0_
  6
CONTINUOUS
 62
    7
 10
588.07728805084264
 20
565.74554005806567
 11
593.82061212778808
 21
567.07149089875838
  0
LINE
  8
_0-0_
  6
CENTER1
 62
    7
 10
585.82777749030947
 20
545.48924068603924
 11
585.82777749030947
 21
605.48924068603924
  0
LINE
  8
_0-0_
  6
CONTINUOUS
 62
    7
 10
586.32777750740343
 20
609.78924070591802
 11
586.32777750740343
 21
612.48924070591806
  0
LINE
  8
_0-0_
  6
CENTER1
 62
    7
 10
584.8277775074032
 20
623.68924070591765
 11
584.82777750740343
 21
643.98924070591761
  0
LINE
  8
_0-0_
  6
CONTINUOUS
 62
    7
 10
585.08942416003401
 20
637.29800472875627
 11
583.40317990296649
 21
637.47061024709205
  0
LINE
  8
_0-0_
  6
CONTINUOUS
 62
    7
 10
583.40317990296649
 20
637.47061024709205
 11
581.41931020034588
 21
637.33452586045905
  0
LINE
  8
_0-0_
  6
CONTINUOUS
 62
    7
 10
581.41931020034588
 20
637.33452586045905
 11
579.52054973137297
 21
636.89321406845079
  0
LINE
  8
_0-0_
  6
CONTINUOUS
 62
    7
 10
579.52054973137297
 20
636.89321406845079
 11
579.07014494758573
 21
637.29800472875581
  0
LINE
  8
_0-0_
  6
CONTINUOUS
 62
    7
 10
579.07014494758573
 20
637.29800472875581
 11
578.61831716066274
 21
637.47061024709183
  0
LINE
  8
_0-0_
  6
CONTINUOUS
 62
    7
 10
578.61831716066274
 20
637.47061024709183
 11
578.09827088833458
 21
637.34126491703864
  0
LINE
  8
_0-0_
  6
CONTINUOUS
 62
    7
 10
578.09827088833458
 20
637.34126491703864
 11
578.08674087595682
 21
637.3345258604586
  0
LINE
  8
_0-0_
  6
CONTINUOUS
 62
    7
 10
578.08674087595682
 20
637.3345258604586
 11
577.57796954167566
 21
636.89321406845079
  0
LINE
  8
_0-0_
  6
CONTINUOUS
 62
    7
 10
577.57796954167566
 20
636.89321406845079
 11
577.57796954167543
 21
631.08924070588955
  0
LINE
  8
_0-0_
  6
CONTINUOUS
 62
    7
 10
577.57796954167543
 20
631.08924070588955
 11
592.07758547313074
 21
631.08924070588955
  0
LINE
  8
_0-0_
  6
CONTINUOUS
 62
    7
 10
592.07758547313074
 20
631.08924070588955
 11
592.07758547313074
 21
636.89321406845079
  0
LINE
  8
_0-0_
  6
CONTINUOUS
 62
    7
 10
592.07758547313074
 20
636.89321406845079
 11
591.39812500759012
 21
637.14224560625325
  0
LINE
  8
_0-0_
  6
CONTINUOUS
 62
    7
 10
591.39812500759012
 20
637.14224560625325
 11
590.03636598927073
 21
637.4406061356226
  0
LINE
  8
_0-0_
  6
CONTINUOUS
 62
    7
 10
590.03636598927073
 20
637.4406061356226
 11
588.69458067619462
 21
637.42680959521431
  0
LINE
  8
_0-0_
  6
CONTINUOUS
 62
    7
 10
588.69458067619462
 20
637.42680959521431
 11
586.77035769709983
 21
636.89321406845079
  0
LINE
  8
_0-0_
  6
CONTINUOUS
 62
    7
 10
586.77035769709983
 20
636.89321406845079
 11
586.77035769710051
 21
631.08924070588955
  0
LINE
  8
_0-0_
  6
CONTINUOUS
 62
    7
 10
584.86482893875166
 20
631.08924070591775
 11
584.17200861572394
 21
629.8892407059177
  0
LINE
  8
_0-0_
  6
CONTINUOUS
 62
    7
 10
583.82559845421019
 20
629.8892407059177
 11
584.51841877723768
 21
631.08924070591775
  0
LINE
  8
_0-0_
  6
CONTINUOUS
 62
    7
 10
579.52054973137274
 20
631.08924070588955
 11
579.52054973137297
 21
636.89321406845079
  0
LINE
  8
_0-0_
  6
CONTINUOUS
 62
    7
 10
578.52777750740313
 20
637.58924070588955
 11
591.12777750740304
 21
637.58924070588955
  0
LINE
  8
_0-0_
  6
CONTINUOUS
 62
    7
 10
591.12777750740304
 20
637.58924070588955
 11
591.55879919833706
 21
637.34039021660215
  0
LINE
  8
_0-0_
  6
CONTINUOUS
 62
    7
 10
591.55728412647204
 20
637.34126491703842
 11
591.56881413884912
 21
637.3345258604586
  0
LINE
  8
_0-0_
  6
CONTINUOUS
 62
    7
 10
591.56881413884912
 20
637.3345258604586
 11
592.07758547313074
 21
636.89321406845079
  0
LINE
  8
_0-0_
  6
CONTINUOUS
 62
    7
 10
588.82595250740337
 20
637.58924070588955
 11
588.82577750740347
 21
638.98924070591761
  0
LINE
  8
_0-0_
  6
CONTINUOUS
 62
    7
 10
588.82577750740347
 20
638.98924070591761
 11
580.82977750740315
 21
638.98924070591761
  0
LINE
  8
_0-0_
  6
CONTINUOUS
 62
    7
 10
580.82977750740315
 20
638.98924070591761
 11
580.82960250740325
 21
637.58924070588955
  0
LINE
  8
_0-0_
  6
CONTINUOUS
 62
    7
 10
578.52777750740313
 20
637.58924070588955
 11
578.09675581646957
 21
637.34039021660237
  0
LINE
  8
_0-0_
  6
CONTINUOUS
 62
    7
 10
578.3277775074032
 20
631.08924070591775
 11
578.3277775074032
 21
629.8892407059177
  0
LINE
  8
_0-0_
  6
CONTINUOUS
 62
    7
 10
575.92777750740311
 20
629.8892407059177
 11
593.72777750740329
 21
629.8892407059177
  0
LINE
  8
_0-0_
  6
CONTINUOUS
 62
    7
 10
593.72777750740329
 20
629.8892407059177
 11
593.72777750740329
 21
628.68924070591788
  0
LINE
  8
_0-0_
  6
CONTINUOUS
 62
    7
 10
591.3277775074032
 20
629.8892407059177
 11
591.3277775074032
 21
631.08924070591775
  0
LINE
  8
_0-0_
  6
CONTINUOUS
 62
    7
 10
586.77035769709983
 20
636.89321406845079
 11
585.08942416003401
 21
637.29800472875627
  0
LINE
  8
_0-0_
  6
CONTINUOUS
 62
    7
 10
575.92777750740311
 20
629.8892407059177
 11
575.92777750740311
 21
628.68924070591765
  0
LINE
  8
_0-0_
  6
CONTINUOUS
 62
    7
 10
545.82777750740297
 20
628.68924070591765
 11
545.82777750740297
 21
619.68924070591765
  0
LINE
  8
_0-0_
  6
CONTINUOUS
 62
    7
 10
545.82777750740297
 20
628.68924070591765
 11
710.82777750740297
 21
628.68924070591788
  0
LINE
  8
_0-0_
  6
CONTINUOUS
 62
    7
 10
710.82777750740297
 20
628.68924070591788
 11
710.82777750740297
 21
619.68924070591788
  0
LINE
  8
_0-0_
  6
CONTINUOUS
 62
    7
 10
705.42777750740288
 20
613.71931608327804
 11
705.42777750740288
 21
609.39634748710455
  0
LINE
  8
_0-0_
  6
CONTINUOUS
 62
    7
 10
705.42777750740288
 20
609.39634748710455
 11
683.42777750740288
 21
609.39634748710455
  0
LINE
  8
_0-0_
  6
CONTINUOUS
 62
    7
 10
683.42777750740288
 20
609.39634748710455
 11
683.42777750740288
 21
613.68924070591788
  0
LINE
  8
_0-0_
  6
CONTINUOUS
 62
    7
 10
683.42777750740288
 20
609.39634748710455
 11
684.13488428858921
 21
608.68924070591811
  0
LINE
  8
_0-0_
  6
CONTINUOUS
 62
    7
 10
684.13488428858921
 20
608.68924070591811
 11
704.72067072621644
 21
608.68924070591811
  0
LINE
  8
_0-0_
  6
CONTINUOUS
 62
    7
 10
704.72067072621644
 20
608.68924070591811
 11
705.42777750740288
 21
609.39634748710455
  0
LINE
  8
_0-0_
  6
CONTINUOUS
 62
    7
 10
704.82777750740274
 20
613.68924070591788
 11
551.82777750740297
 21
613.68924070591765
  0
LINE
  8
_0-0_
  6
CENTER1
 62
    7
 10
610.82777750740343
 20
618.68924070591765
 11
610.82777750740343
 21
602.48924070591829
  0
LINE
  8
_0-0_
  6
CENTER1
 62
    7
 10
615.82777749030947
 20
575.48924068603924
 11
555.82777749030947
 21
575.48924068603924
  0
LINE
  8
_0-0_
  6
CONTINUOUS
 62
    7
 10
545.82777750740297
 20
476.79409762143632
 11
545.82777750740297
 21
408.79409762143609
  0
LINE
  8
_0-0_
  6
CONTINUOUS
 62
    7
 10
548.75670969553744
 20
401.72302980957079
 11
606.75670969553732
 21
343.72302980957079
  0
LINE
  8
_0-0_
  6
CONTINUOUS
 62
    7
 10
613.82777750740286
 20
340.79409762143632
 11
674.19613554348871
 21
340.79409762143632
  0
LINE
  8
_0-0_
  6
CENTER1
 62
    7
 10
674.07777750740297
 20
353.29409762143632
 11
657.57777750740297
 21
353.29409762143632
  0
LINE
  8
_0-0_
  6
CONTINUOUS
 62
    7
 10
663.32777750740297
 20
354.73747332810899
 11
665.82777750740297
 21
356.18084903478166
  0
LINE
  8
_0-0_
  6
CONTINUOUS
 62
    7
 10
665.82777750740297
 20
356.18084903478166
 11
668.32777750740297
 21
354.73747332810899
  0
LINE
  8
_0-0_
  6
CONTINUOUS
 62
    7
 10
668.32777750740297
 20
354.73747332810899
 11
668.32777750740297
 21
351.85072191476365
  0
LINE
  8
_0-0_
  6
CONTINUOUS
 62
    7
 10
668.32777750740297
 20
351.85072191476365
 11
665.82777750740297
 21
350.40734620809098
  0
LINE
  8
_0-0_
  6
CONTINUOUS
 62
    7
 10
665.82777750740297
 20
350.40734620809098
 11
663.32777750740297
 21
351.85072191476365
  0
LINE
  8
_0-0_
  6
CONTINUOUS
 62
    7
 10
663.32777750740297
 20
351.85072191476365
 11
663.32777750740297
 21
354.73747332810899
  0
LINE
  8
_0-0_
  6
CENTER1
 62
    7
 10
665.82777750740297
 20
361.54409762143632
 11
665.82777750740297
 21
345.04409762143632
  0
LINE
  8
_0-0_
  6
CONTINUOUS
 62
    7
 10
683.84167078457017
 20
348.15522477246122
 11
710.19864707575084
 21
444.49451742298373
  0
LINE
  8
_0-0_
  6
CENTER1
 62
    7
 10
720.9096867415476
 20
456.79409762143655
 11
667.94586827325816
 21
456.79409762143655
  0
LINE
  8
_0-0_
  6
CENTER1
 62
    7
 10
665.82777750740297
 20
436.54409762143632
 11
665.82777750740297
 21
420.04409762143632
  0
LINE
  8
_0-0_
  6
CONTINUOUS
 62
    7
 10
665.82777750740297
 20
425.40734620809098
 11
663.32777750740297
 21
426.85072191476365
  0
LINE
  8
_0-0_
  6
CONTINUOUS
 62
    7
 10
663.32777750740297
 20
426.85072191476365
 11
663.32777750740297
 21
429.73747332810899
  0
LINE
  8
_0-0_
  6
CONTINUOUS
 62
    7
 10
663.32777750740297
 20
429.73747332810899
 11
665.82777750740297
 21
431.18084903478166
  0
LINE
  8
_0-0_
  6
CONTINUOUS
 62
    7
 10
665.82777750740297
 20
431.18084903478166
 11
668.32777750740297
 21
429.73747332810899
  0
LINE
  8
_0-0_
  6
CONTINUOUS
 62
    7
 10
668.32777750740297
 20
429.73747332810899
 11
668.32777750740297
 21
426.85072191476365
  0
LINE
  8
_0-0_
  6
CONTINUOUS
 62
    7
 10
668.32777750740297
 20
426.85072191476365
 11
665.82777750740297
 21
425.40734620809098
  0
LINE
  8
_0-0_
  6
CENTER1
 62
    7
 10
657.57777750740297
 20
428.29409762143632
 11
674.07777750740297
 21
428.29409762143632
  0
LINE
  8
_0-0_
  6
CENTER1
 62
    7
 10
694.42777750740288
 20
430.31218838729183
 11
694.42777750740288
 21
483.27600685558127
  0
LINE
  8
_0-0_
  6
CONTINUOUS
 62
    7
 10
705.27950548040451
 20
473.59409762143628
 11
710.82777750740297
 21
473.59409762143628
  0
LINE
  8
_0-0_
  6
CONTINUOUS
 62
    7
 10
710.82777750740297
 20
476.79409762143632
 11
545.82777750740297
 21
476.79409762143632
  0
LINE
  8
_0-0_
  6
CONTINUOUS
 62
    7
 10
545.82777750740297
 20
473.59409762143628
 11
683.57604953440114
 21
473.59409762143628
  0
LINE
  8
_0-0_
  6
CONTINUOUS
 62
    7
 10
710.82777750740297
 20
476.79409762143632
 11
710.82777750740297
 21
468.24136803844056
  0
LINE
  8
_0-0_
  6
CENTER1
 62
    7
 10
641.57777750740274
 20
460.79409762143632
 11
625.07777750740286
 21
460.79409762143632
  0
LINE
  8
_0-0_
  6
CONTINUOUS
 62
    7
 10
630.82777750740286
 20
462.23747332810899
 11
633.32777750740286
 21
463.68084903478166
  0
LINE
  8
_0-0_
  6
CONTINUOUS
 62
    7
 10
633.32777750740286
 20
463.68084903478166
 11
635.82777750740286
 21
462.23747332810899
  0
LINE
  8
_0-0_
  6
CONTINUOUS
 62
    7
 10
635.82777750740286
 20
462.23747332810899
 11
635.82777750740286
 21
459.35072191476365
  0
LINE
  8
_0-0_
  6
CONTINUOUS
 62
    7
 10
635.82777750740286
 20
459.35072191476365
 11
633.32777750740286
 21
457.90734620809098
  0
LINE
  8
_0-0_
  6
CONTINUOUS
 62
    7
 10
633.32777750740286
 20
457.90734620809098
 11
630.82777750740286
 21
459.35072191476365
  0
LINE
  8
_0-0_
  6
CONTINUOUS
 62
    7
 10
630.82777750740286
 20
459.35072191476365
 11
630.82777750740286
 21
462.23747332810899
  0
LINE
  8
_0-0_
  6
CENTER1
 62
    7
 10
633.32777750740286
 20
469.04409762143632
 11
633.32777750740286
 21
452.54409762143632
  0
LINE
  8
_0-0_
  6
CENTER1
 62
    7
 10
636.82777750740297
 20
443.21909762143628
 11
636.82777750740297
 21
420.36909762143614
  0
LINE
  8
_0-0_
  6
CONTINUOUS
 62
    7
 10
636.82777750740297
 20
428.45556968984715
 11
633.93652750740284
 21
430.12483365564162
  0
LINE
  8
_0-0_
  6
CONTINUOUS
 62
    7
 10
633.93652750740284
 20
430.12483365564162
 11
633.93652750740284
 21
433.46336158723057
  0
LINE
  8
_0-0_
  6
CONTINUOUS
 62
    7
 10
633.93652750740284
 20
433.46336158723057
 11
636.82777750740297
 21
435.13262555302526
  0
LINE
  8
_0-0_
  6
CONTINUOUS
 62
    7
 10
636.82777750740297
 20
435.13262555302526
 11
639.71902750740287
 21
433.46336158723057
  0
LINE
  8
_0-0_
  6
CONTINUOUS
 62
    7
 10
639.71902750740287
 20
433.46336158723057
 11
639.71902750740287
 21
430.12483365564162
  0
LINE
  8
_0-0_
  6
CONTINUOUS
 62
    7
 10
639.71902750740287
 20
430.12483365564162
 11
636.82777750740297
 21
428.45556968984715
  0
LINE
  8
_0-0_
  6
CONTINUOUS
 62
    7
 10
637.82777750740274
 20
440.79409762143632
 11
583.8277775074032
 21
440.79409762143632
  0
LINE
  8
_0-0_
  6
CENTER1
 62
    7
 10
584.82777750740343
 20
443.21909762143628
 11
584.82777750740343
 21
420.36909762143614
  0
LINE
  8
_0-0_
  6
CONTINUOUS
 62
    7
 10
585.82777749030947
 20
424.79409762145792
 11
585.8277774903097
 21
429.61314255058596
  0
LINE
  8
_0-0_
  6
CONTINUOUS
 62
    7
 10
585.8277774903097
 20
429.61314255058596
 11
584.34561724796527
 21
430.01123885438869
  0
LINE
  8
_0-0_
  6
CONTINUOUS
 62
    7
 10
584.34561724796527
 20
430.01123885438869
 11
582.85877433541077
 21
430.18098955516189
  0
LINE
  8
_0-0_
  6
CONTINUOUS
 62
    7
 10
582.85877433541077
 20
430.18098955516189
 11
582.63152749030951
 21
430.18409762145779
  0
LINE
  8
_0-0_
  6
CONTINUOUS
 62
    7
 10
582.63152749030951
 20
430.18409762145779
 11
581.00121069227907
 21
430.02738727814449
  0
LINE
  8
_0-0_
  6
CONTINUOUS
 62
    7
 10
581.00121069227907
 20
430.02738727814449
 11
579.43527749030955
 21
429.61314255058596
  0
LINE
  8
_0-0_
  6
CONTINUOUS
 62
    7
 10
579.43527749030955
 20
430.18409762145779
 11
579.43527749030955
 21
424.79409762145769
  0
LINE
  8
_0-0_
  6
CONTINUOUS
 62
    7
 10
579.82777749030947
 20
422.29409762143655
 11
579.82777749030947
 21
419.79409762143655
  0
LINE
  8
_0-0_
  6
CONTINUOUS
 62
    7
 10
578.13119974652659
 20
419.79409762143655
 11
578.13119974652659
 21
422.29409762143632
  0
LINE
  8
_0-0_
  6
CONTINUOUS
 62
    7
 10
575.82777750583477
 20
422.29409762143632
 11
597.68948175824187
 21
422.29409762143632
  0
LINE
  8
_0-0_
  6
CONTINUOUS
 62
    7
 10
597.68948175824187
 20
423.44020724388724
 11
598.32892655232399
 21
423.89875792763064
  0
LINE
  8
_0-0_
  6
CONTINUOUS
 62
    7
 10
598.32892655232399
 20
423.89875792763064
 11
599.36687128305812
 21
424.57301208731405
  0
LINE
  8
_0-0_
  6
CONTINUOUS
 62
    7
 10
599.36687128305812
 20
424.57301208731405
 11
600.23135562219431
 21
425.07403131506339
  0
LINE
  8
_0-0_
  6
CONTINUOUS
 62
    7
 10
600.23135562219363
 20
427.88404654013334
 11
599.4191304018741
 21
427.47572051321913
  0
LINE
  8
_0-0_
  6
CONTINUOUS
 62
    7
 10
599.4191304018741
 20
427.47572051321913
 11
598.11256493121118
 21
426.73624099651215
  0
LINE
  8
_0-0_
  6
CONTINUOUS
 62
    7
 10
598.11256493121118
 20
426.73624099651215
 11
596.71617568645161
 21
425.82189565434282
  0
LINE
  8
_0-0_
  6
CONTINUOUS
 62
    7
 10
596.71617568645161
 20
425.82189565434282
 11
595.3600692091461
 21
424.79409762143655
  0
LINE
  8
_0-0_
  6
CONTINUOUS
 62
    7
 10
595.3600692091461
 20
424.79409762143655
 11
575.82777750583477
 21
424.79409762143655
  0
LINE
  8
_0-0_
  6
CONTINUOUS
 62
    7
 10
575.8277775074032
 20
419.79409762143655
 11
575.8277775074032
 21
432.79409762143632
  0
LINE
  8
_0-0_
  6
CENTER1
 62
    7
 10
573.40277750740324
 20
431.79409762143609
 11
596.25277750740338
 21
431.79409762143609
  0
LINE
  8
_0-0_
  6
CONTINUOUS
 62
    7
 10
592.22027749030963
 20
430.18409762145779
 11
579.43527749030955
 21
430.18409762145779
  0
LINE
  8
_0-0_
  6
CONTINUOUS
 62
    7
 10
581.9365275074033
 20
430.18409762145779
 11
581.9365275074033
 21
433.46336158723057
  0
LINE
  8
_0-0_
  6
CONTINUOUS
 62
    7
 10
581.9365275074033
 20
433.46336158723057
 11
584.82777750740343
 21
435.13262555302526
  0
LINE
  8
_0-0_
  6
CONTINUOUS
 62
    7
 10
584.82777750740343
 20
435.13262555302526
 11
587.71902750740333
 21
433.46336158723057
  0
LINE
  8
_0-0_
  6
CONTINUOUS
 62
    7
 10
587.71902750740333
 20
433.46336158723057
 11
587.71902750740333
 21
430.18409762145779
  0
LINE
  8
_0-0_
  6
CONTINUOUS
 62
    7
 10
587.39371069227877
 20
430.02738727814449
 11
585.8277774903097
 21
429.61314255058596
  0
LINE
  8
_0-0_
  6
CONTINUOUS
 62
    7
 10
587.39371069227877
 20
430.02738727814449
 11
589.02402749030966
 21
430.18409762145779
  0
LINE
  8
_0-0_
  6
CONTINUOUS
 62
    7
 10
589.02402749030966
 20
430.18409762145779
 11
589.2512743354107
 21
430.18098955516189
  0
LINE
  8
_0-0_
  6
CONTINUOUS
 62
    7
 10
589.2512743354107
 20
430.18098955516189
 11
590.73811724796542
 21
430.01123885438869
  0
LINE
  8
_0-0_
  6
CONTINUOUS
 62
    7
 10
590.73811724796542
 20
430.01123885438869
 11
592.22027749030963
 21
429.61314255058596
  0
LINE
  8
_0-0_
  6
CONTINUOUS
 62
    7
 10
592.22027749030963
 20
430.18409762145779
 11
592.22027749030963
 21
424.79409762145769
  0
LINE
  8
_0-0_
  6
CONTINUOUS
 62
    7
 10
591.82777749030947
 20
422.29409762143655
 11
591.82777749030947
 21
419.79409762143655
  0
LINE
  8
_0-0_
  6
CONTINUOUS
 62
    7
 10
597.68948175824187
 20
419.79409762143655
 11
597.68948175824187
 21
423.44020724388724
  0
LINE
  8
_0-0_
  6
CONTINUOUS
 62
    7
 10
608.82777749030947
 20
419.79409762143655
 11
562.82777749030947
 21
419.79409762143655
  0
LINE
  8
_0-0_
  6
CONTINUOUS
 62
    7
 10
560.82777749030947
 20
417.79409762143655
 11
560.82777749030947
 21
393.79409762143655
  0
LINE
  8
_0-0_
  6
CONTINUOUS
 62
    7
 10
562.82777749030947
 20
391.79409762143655
 11
608.82777749030947
 21
391.79409762143655
  0
LINE
  8
_0-0_
  6
CONTINUOUS
 62
    7
 10
610.82777749030947
 20
393.79409762143655
 11
610.82777749030947
 21
417.79409762143655
  0
LINE
  8
_0-0_
  6
CONTINUOUS
 62
    7
 10
617.94102616145597
 20
426.61239951149491
 11
618.41975307786493
 21
426.44263042494345
  0
LINE
  8
_0-0_
  6
CONTINUOUS
 62
    7
 10
618.41975307786493
 20
426.44263042494345
 11
619.49460999918483
 21
426.01458658790534
  0
LINE
  8
_0-0_
  6
CONTINUOUS
 62
    7
 10
619.49460999918483
 20
426.01458658790534
 11
620.73032377728578
 21
425.4394425502694
  0
LINE
  8
_0-0_
  6
CONTINUOUS
 62
    7
 10
620.73032377728578
 20
425.4394425502694
 11
622.05988703646653
 21
424.70982883519355
  0
LINE
  8
_0-0_
  6
CONTINUOUS
 62
    7
 10
622.05988703646653
 20
424.70982883519355
 11
623.42465799934894
 21
423.83068826023623
  0
LINE
  8
_0-0_
  6
CONTINUOUS
 62
    7
 10
623.42465799934894
 20
423.83068826023623
 11
625.06205783803989
 21
422.56702304547684
  0
LINE
  8
_0-0_
  6
CONTINUOUS
 62
    7
 10
625.06205783803989
 20
422.56702304547684
 11
626.60128019929994
 21
421.13021880081988
  0
LINE
  8
_0-0_
  6
CONTINUOUS
 62
    7
 10
626.60128019929994
 20
424.54100704215784
 11
625.2145434134834
 21
425.6251582779837
  0
LINE
  8
_0-0_
  6
CONTINUOUS
 62
    7
 10
625.2145434134834
 20
425.6251582779837
 11
623.85037499243435
 21
426.54580085299858
  0
LINE
  8
_0-0_
  6
CONTINUOUS
 62
    7
 10
623.85037499243435
 20
426.54580085299858
 11
622.47538886088159
 21
427.34828862361337
  0
LINE
  8
_0-0_
  6
CONTINUOUS
 62
    7
 10
622.47538886088159
 20
427.34828862361337
 11
621.16747548808826
 21
428.00481446531239
  0
LINE
  8
_0-0_
  6
CONTINUOUS
 62
    7
 10
621.16747548808826
 20
428.00481446531239
 11
619.94272707668483
 21
428.53541891878922
  0
LINE
  8
_0-0_
  6
CONTINUOUS
 62
    7
 10
619.94272707668483
 20
428.53541891878922
 11
618.85233734361702
 21
428.94252870144032
  0
LINE
  8
_0-0_
  6
CONTINUOUS
 62
    7
 10
618.85233734361702
 20
428.94252870144032
 11
617.94102616145506
 21
429.2387493267961
  0
LINE
  8
_0-0_
  6
CENTER1
 62
    7
 10
625.40277750740267
 20
431.79409762143609
 11
648.25277750740293
 21
431.79409762143609
  0
LINE
  8
_0-0_
  6
CONTINUOUS
 62
    7
 10
645.82777750740286
 20
432.79409762143632
 11
645.82777750740286
 21
378.79409762143609
  0
LINE
  8
_0-0_
  6
CENTER1
 62
    7
 10
648.25277750740293
 20
379.79409762143587
 11
625.40277750740279
 21
379.79409762143587
  0
LINE
  8
_0-0_
  6
CONTINUOUS
 62
    7
 10
625.03900505947217
 20
385.83686806762967
 11
626.60128019929994
 21
387.04718820071457
  0
LINE
  8
_0-0_
  6
CONTINUOUS
 62
    7
 10
625.03900505947217
 20
385.83686806762967
 11
623.37308335036732
 21
384.7497325488921
  0
LINE
  8
_0-0_
  6
CONTINUOUS
 62
    7
 10
623.37308335036732
 20
384.7497325488921
 11
621.75105192202682
 21
383.86393400912266
  0
LINE
  8
_0-0_
  6
CONTINUOUS
 62
    7
 10
621.75105192202682
 20
383.86393400912266
 11
620.16014343703023
 21
383.14112990955459
  0
LINE
  8
_0-0_
  6
CONTINUOUS
 62
    7
 10
620.16014343703023
 20
383.14112990955459
 11
618.96471410683353
 21
382.68478645089567
  0
LINE
  8
_0-0_
  6
CONTINUOUS
 62
    7
 10
618.96471410683353
 20
382.68478645089567
 11
617.94102616145506
 21
382.34944591607609
  0
LINE
  8
_0-0_
  6
CONTINUOUS
 62
    7
 10
617.94102616145506
 20
384.97579573137705
 11
618.83918518473126
 21
385.30482394539808
  0
LINE
  8
_0-0_
  6
CONTINUOUS
 62
    7
 10
618.83918518473126
 20
385.30482394539808
 11
619.90744465960438
 21
385.75514444505347
  0
LINE
  8
_0-0_
  6
CONTINUOUS
 62
    7
 10
619.90744465960438
 20
385.75514444505347
 11
621.09844542618134
 21
386.33931239332105
  0
LINE
  8
_0-0_
  6
CONTINUOUS
 62
    7
 10
621.09844542618134
 20
386.33931239332105
 11
622.35936463503515
 21
387.05850320017908
  0
LINE
  8
_0-0_
  6
CONTINUOUS
 62
    7
 10
622.35936463503515
 20
387.05850320017908
 11
623.67592645369177
 21
387.93639428887286
  0
LINE
  8
_0-0_
  6
CONTINUOUS
 62
    7
 10
623.67592645369177
 20
387.93639428887286
 11
624.96682031768603
 21
388.93920312728392
  0
LINE
  8
_0-0_
  6
CONTINUOUS
 62
    7
 10
624.96682031768603
 20
388.93920312728392
 11
626.60128019929994
 21
390.45797644205254
  0
LINE
  8
_0-0_
  6
CENTER1
 62
    7
 10
636.82777750740297
 20
391.21909762143605
 11
636.82777750740297
 21
368.36909762143569
  0
LINE
  8
_0-0_
  6
CONTINUOUS
 62
    7
 10
637.82777750740274
 20
370.79409762143609
 11
583.8277775074032
 21
370.79409762143587
  0
LINE
  8
_0-0_
  6
CENTER1
 62
    7
 10
584.82777750740343
 20
368.36909762143569
 11
584.82777750740343
 21
391.21909762143605
  0
LINE
  8
_0-0_
  6
CONTINUOUS
 62
    7
 10
584.33634337360854
 20
386.62015712181756
 11
582.84019726908491
 21
386.79097008028862
  0
LINE
  8
_0-0_
  6
CONTINUOUS
 62
    7
 10
582.84019726908491
 20
386.79097008028862
 11
582.61152749030964
 21
386.79409762143632
  0
LINE
  8
_0-0_
  6
CONTINUOUS
 62
    7
 10
582.61152749030964
 20
386.79409762143632
 11
580.97100925748487
 21
386.63640668934977
  0
LINE
  8
_0-0_
  6
CONTINUOUS
 62
    7
 10
580.97100925748487
 20
386.63640668934977
 11
579.39527749030958
 21
386.21956989466526
  0
LINE
  8
_0-0_
  6
CONTINUOUS
 62
    7
 10
579.39527749030981
 20
386.79409762143632
 11
579.39527749030981
 21
380.1740976214362
  0
LINE
  8
_0-0_
  6
CONTINUOUS
 62
    7
 10
579.39527749030981
 20
380.1740976214362
 11
592.26027749030959
 21
380.1740976214362
  0
LINE
  8
_0-0_
  6
CONTINUOUS
 62
    7
 10
592.26027749030959
 20
380.1740976214362
 11
592.26027749030959
 21
386.79409762143632
  0
LINE
  8
_0-0_
  6
CONTINUOUS
 62
    7
 10
592.26027749030959
 20
386.21956989466526
 11
590.76884337360855
 21
386.62015712181756
  0
LINE
  8
_0-0_
  6
CONTINUOUS
 62
    7
 10
590.76884337360855
 20
386.62015712181756
 11
589.27269726908503
 21
386.79097008028862
  0
LINE
  8
_0-0_
  6
CONTINUOUS
 62
    7
 10
589.27269726908503
 20
386.79097008028862
 11
589.04402749030953
 21
386.79409762143632
  0
LINE
  8
_0-0_
  6
CONTINUOUS
 62
    7
 10
589.04402749030953
 20
386.79409762143632
 11
587.96314170923404
 21
386.72483532193587
  0
LINE
  8
_0-0_
  6
CONTINUOUS
 62
    7
 10
587.96314170923404
 20
386.72483532193587
 11
587.90006740621743
 21
386.71660108514016
  0
LINE
  8
_0-0_
  6
CONTINUOUS
 62
    7
 10
587.90006740621743
 20
386.71660108514016
 11
587.40350925748498
 21
386.63640668934977
  0
LINE
  8
_0-0_
  6
CONTINUOUS
 62
    7
 10
587.40350925748498
 20
386.63640668934977
 11
585.82777749030993
 21
386.21956989466526
  0
LINE
  8
_0-0_
  6
CONTINUOUS
 62
    7
 10
585.82777749030993
 20
386.21956989466526
 11
584.33634337360854
 21
386.62015712181756
  0
LINE
  8
_0-0_
  6
CONTINUOUS
 62
    7
 10
585.82777749030993
 20
386.21956989466526
 11
585.82777749030993
 21
380.74862534820727
  0
LINE
  8
_0-0_
  6
CONTINUOUS
 62
    7
 10
585.82777749030993
 20
380.74862534820727
 11
584.25204572313442
 21
380.33178855352276
  0
LINE
  8
_0-0_
  6
CONTINUOUS
 62
    7
 10
584.25204572313442
 20
380.33178855352276
 11
582.61152749030964
 21
380.1740976214362
  0
LINE
  8
_0-0_
  6
CONTINUOUS
 62
    7
 10
582.61152749030964
 20
380.1740976214362
 11
582.38285771153426
 21
380.17722516258391
  0
LINE
  8
_0-0_
  6
CONTINUOUS
 62
    7
 10
582.38285771153426
 20
380.17722516258391
 11
580.88671160701062
 21
380.34803812105497
  0
LINE
  8
_0-0_
  6
CONTINUOUS
 62
    7
 10
580.88671160701062
 20
380.34803812105497
 11
579.39527749030958
 21
380.74862534820727
  0
LINE
  8
_0-0_
  6
CONTINUOUS
 62
    7
 10
579.82777749030947
 20
380.1740976214362
 11
579.82777749030947
 21
379.67409762143643
  0
LINE
  8
_0-0_
  6
CONTINUOUS
 62
    7
 10
581.32777749030947
 20
378.17409762143643
 11
590.32777738088635
 21
378.17409762143643
  0
LINE
  8
_0-0_
  6
CONTINUOUS
 62
    7
 10
589.82581203576433
 20
378.17409762143643
 11
589.82577749030975
 21
377.79409762145769
  0
LINE
  8
_0-0_
  6
CONTINUOUS
 62
    7
 10
589.82577749030975
 20
377.79409762145769
 11
581.82977749030943
 21
377.79409762145769
  0
LINE
  8
_0-0_
  6
CONTINUOUS
 62
    7
 10
581.82977749030943
 20
377.79409762145769
 11
581.82974294485484
 21
378.17409762143643
  0
LINE
  8
_0-0_
  6
CONTINUOUS
 62
    7
 10
582.50937912250311
 20
377.79409762145769
 11
584.82777750740343
 21
376.45556968984693
  0
LINE
  8
_0-0_
  6
CONTINUOUS
 62
    7
 10
584.82777750740343
 20
376.45556968984693
 11
587.14617589230352
 21
377.79409762145769
  0
LINE
  8
_0-0_
  6
CONTINUOUS
 62
    7
 10
587.31921160701086
 20
380.34803812105474
 11
588.81535771153426
 21
380.17722516258391
  0
LINE
  8
_0-0_
  6
CONTINUOUS
 62
    7
 10
588.81535771153426
 20
380.17722516258391
 11
589.04402749030953
 21
380.1740976214362
  0
LINE
  8
_0-0_
  6
CONTINUOUS
 62
    7
 10
589.04402749030953
 20
380.1740976214362
 11
590.68454572313453
 21
380.33178855352276
  0
LINE
  8
_0-0_
  6
CONTINUOUS
 62
    7
 10
590.68454572313453
 20
380.33178855352276
 11
592.26027749030959
 21
380.74862534820727
  0
LINE
  8
_0-0_
  6
CONTINUOUS
 62
    7
 10
591.82777749030947
 20
380.1740976214362
 11
591.82777749030947
 21
379.67409762143643
  0
LINE
  8
_0-0_
  6
CENTER1
 62
    7
 10
596.25277750740338
 20
379.79409762143587
 11
573.40277750740324
 21
379.79409762143587
  0
LINE
  8
_0-0_
  6
CONTINUOUS
 62
    7
 10
575.8277775074032
 20
378.79409762143609
 11
575.8277775074032
 21
391.79409762143655
  0
LINE
  8
_0-0_
  6
CONTINUOUS
 62
    7
 10
578.13119974652659
 20
391.79409762143655
 11
578.13119974652659
 21
389.29409762143632
  0
LINE
  8
_0-0_
  6
CONTINUOUS
 62
    7
 10
579.82777749030947
 20
389.29409762143655
 11
579.82777749030947
 21
391.79409762143655
  0
LINE
  8
_0-0_
  6
CONTINUOUS
 62
    7
 10
575.82777750583477
 20
389.29409762143632
 11
597.68948175824187
 21
389.29409762143632
  0
LINE
  8
_0-0_
  6
CONTINUOUS
 62
    7
 10
597.68948175824187
 20
388.14798799898517
 11
597.68948175824187
 21
391.79409762143655
  0
LINE
  8
_0-0_
  6
CONTINUOUS
 62
    7
 10
597.68948175824187
 20
388.14798799898517
 11
598.90041681220987
 21
387.3079388304177
  0
LINE
  8
_0-0_
  6
CONTINUOUS
 62
    7
 10
598.90041681220987
 20
387.3079388304177
 11
599.60244485623934
 21
386.87342356180739
  0
LINE
  8
_0-0_
  6
CONTINUOUS
 62
    7
 10
599.60244485623934
 20
386.87342356180739
 11
600.23135562219431
 21
386.51416392780902
  0
LINE
  8
_0-0_
  6
CONTINUOUS
 62
    7
 10
600.23135562219431
 20
383.70414870273862
 11
599.3481425355385
 21
384.14997645857216
  0
LINE
  8
_0-0_
  6
CONTINUOUS
 62
    7
 10
599.3481425355385
 20
384.14997645857216
 11
598.27560793558268
 21
384.75382578288213
  0
LINE
  8
_0-0_
  6
CONTINUOUS
 62
    7
 10
598.27560793558268
 20
384.75382578288213
 11
597.13177595620391
 21
385.47982821519008
  0
LINE
  8
_0-0_
  6
CONTINUOUS
 62
    7
 10
597.13177595620391
 20
385.47982821519008
 11
595.90716421199886
 21
386.36151418821737
  0
LINE
  8
_0-0_
  6
CONTINUOUS
 62
    7
 10
595.90716421199886
 20
386.36151418821737
 11
595.36006920914519
 21
386.79409762143632
  0
LINE
  8
_0-0_
  6
CONTINUOUS
 62
    7
 10
595.36006920914519
 20
386.79409762143632
 11
575.82777750583477
 21
386.79409762143632
  0
LINE
  8
_0-0_
  6
CONTINUOUS
 62
    7
 10
585.82777749030993
 20
380.74862534820727
 11
587.31921160701086
 21
380.34803812105474
  0
LINE
  8
_0-0_
  6
CENTER1
 62
    7
 10
585.82777749030947
 20
372.79409762145769
 11
585.82777749030947
 21
427.29409762143655
  0
LINE
  8
_0-0_
  6
CENTER1
 62
    7
 10
581.32777750740343
 20
405.79409762143609
 11
640.32777750740354
 21
405.79409762143609
  0
LINE
  8
_0-0_
  6
CONTINUOUS
 62
    7
 10
639.71902750740287
 20
381.46336158723057
 11
636.82777750740297
 21
383.13262555302504
  0
LINE
  8
_0-0_
  6
CONTINUOUS
 62
    7
 10
636.82777750740297
 20
383.13262555302504
 11
633.93652750740284
 21
381.46336158723057
  0
LINE
  8
_0-0_
  6
CONTINUOUS
 62
    7
 10
633.93652750740284
 20
381.46336158723057
 11
633.93652750740284
 21
378.1248336556414
  0
LINE
  8
_0-0_
  6
CONTINUOUS
 62
    7
 10
633.93652750740284
 20
378.1248336556414
 11
636.82777750740297
 21
376.45556968984693
  0
LINE
  8
_0-0_
  6
CONTINUOUS
 62
    7
 10
636.82777750740297
 20
376.45556968984693
 11
639.71902750740287
 21
378.1248336556414
  0
LINE
  8
_0-0_
  6
CONTINUOUS
 62
    7
 10
639.71902750740287
 20
378.1248336556414
 11
639.71902750740287
 21
381.46336158723057
  0
LINE
  8
_0-0_
  6
CENTER1
 62
    7
 10
610.82777750740343
 20
376.29409762143609
 11
610.82777750740343
 21
435.29409762143609
  0
LINE
  8
_0-0_
  6
CONTINUOUS
 62
    7
 10
591.82777749030947
 20
391.79409762143655
 11
591.82777749030947
 21
389.29409762143655
  0
LINE
  8
_0-0_
  6
CENTER1
 62
    7
 10
566.57777750740297
 20
460.79409762143609
 11
550.07777750740297
 21
460.79409762143609
  0
LINE
  8
_0-0_
  6
CONTINUOUS
 62
    7
 10
555.82777750740297
 20
462.23747332810876
 11
558.32777750740297
 21
463.68084903478143
  0
LINE
  8
_0-0_
  6
CONTINUOUS
 62
    7
 10
558.32777750740297
 20
463.68084903478143
 11
560.82777750740297
 21
462.23747332810876
  0
LINE
  8
_0-0_
  6
CONTINUOUS
 62
    7
 10
560.82777750740297
 20
462.23747332810876
 11
560.82777750740297
 21
459.35072191476343
  0
LINE
  8
_0-0_
  6
CONTINUOUS
 62
    7
 10
560.82777750740297
 20
459.35072191476343
 11
558.32777750740297
 21
457.90734620809076
  0
LINE
  8
_0-0_
  6
CONTINUOUS
 62
    7
 10
558.32777750740297
 20
457.90734620809076
 11
555.82777750740297
 21
459.35072191476343
  0
LINE
  8
_0-0_
  6
CONTINUOUS
 62
    7
 10
555.82777750740297
 20
459.35072191476343
 11
555.82777750740297
 21
462.23747332810876
  0
LINE
  8
_0-0_
  6
CENTER1
 62
    7
 10
558.32777750740297
 20
469.04409762143609
 11
558.32777750740297
 21
452.54409762143609
  0
LINE
  8
_0-0_
  6
CENTER1
 62
    7
 10
459.02695889030912
 20
452.54409762143609
 11
459.02695889030912
 21
469.04409762143609
  0
LINE
  8
_0-0_
  6
CONTINUOUS
 62
    7
 10
459.02695889030912
 20
463.68084903478143
 11
461.52695889030912
 21
462.23747332810876
  0
LINE
  8
_0-0_
  6
CONTINUOUS
 62
    7
 10
461.52695889030912
 20
462.23747332810876
 11
461.52695889030912
 21
459.35072191476343
  0
LINE
  8
_0-0_
  6
CONTINUOUS
 62
    7
 10
461.52695889030912
 20
459.35072191476343
 11
459.02695889030912
 21
457.90734620809076
  0
LINE
  8
_0-0_
  6
CONTINUOUS
 62
    7
 10
459.02695889030912
 20
457.90734620809076
 11
456.52695889030912
 21
459.35072191476343
  0
LINE
  8
_0-0_
  6
CONTINUOUS
 62
    7
 10
456.52695889030912
 20
459.35072191476343
 11
456.52695889030912
 21
462.23747332810876
  0
LINE
  8
_0-0_
  6
CONTINUOUS
 62
    7
 10
456.52695889030912
 20
462.23747332810876
 11
459.02695889030912
 21
463.68084903478143
  0
LINE
  8
_0-0_
  6
CENTER1
 62
    7
 10
450.77695889030912
 20
460.79409762143609
 11
467.27695889030912
 21
460.79409762143609
  0
LINE
  8
_0-0_
  6
CONTINUOUS
 62
    7
 10
471.52695889030906
 20
473.59409762143628
 11
333.77868686331095
 21
473.59409762143628
  0
LINE
  8
_0-0_
  6
CENTER1
 62
    7
 10
322.92695889030927
 20
483.27600685558127
 11
322.92695889030927
 21
430.31218838729183
  0
LINE
  8
_0-0_
  6
CENTER1
 62
    7
 10
343.27695889030912
 20
428.29409762143609
 11
359.77695889030917
 21
428.29409762143609
  0
LINE
  8
_0-0_
  6
CONTINUOUS
 62
    7
 10
354.02695889030917
 20
426.85072191476343
 11
354.02695889030917
 21
429.73747332810876
  0
LINE
  8
_0-0_
  6
CONTINUOUS
 62
    7
 10
354.02695889030917
 20
429.73747332810876
 11
351.52695889030917
 21
431.18084903478143
  0
LINE
  8
_0-0_
  6
CONTINUOUS
 62
    7
 10
351.52695889030917
 20
431.18084903478143
 11
349.02695889030917
 21
429.73747332810876
  0
LINE
  8
_0-0_
  6
CONTINUOUS
 62
    7
 10
349.02695889030917
 20
429.73747332810876
 11
349.02695889030917
 21
426.85072191476343
  0
LINE
  8
_0-0_
  6
CONTINUOUS
 62
    7
 10
349.02695889030917
 20
426.85072191476343
 11
351.52695889030917
 21
425.40734620809076
  0
LINE
  8
_0-0_
  6
CONTINUOUS
 62
    7
 10
351.52695889030917
 20
425.40734620809076
 11
354.02695889030917
 21
426.85072191476343
  0
LINE
  8
_0-0_
  6
CENTER1
 62
    7
 10
351.52695889030917
 20
420.04409762143609
 11
351.52695889030917
 21
436.54409762143609
  0
LINE
  8
_0-0_
  6
CENTER1
 62
    7
 10
369.10195889030905
 20
431.79409762143609
 11
391.95195889030936
 21
431.79409762143609
  0
LINE
  8
_0-0_
  6
CONTINUOUS
 62
    7
 10
392.14019298422824
 20
425.62515827798393
 11
393.50436140527847
 21
426.54580085299858
  0
LINE
  8
_0-0_
  6
CONTINUOUS
 62
    7
 10
393.50436140527847
 20
426.54580085299858
 11
394.87934753683015
 21
427.34828862361337
  0
LINE
  8
_0-0_
  6
CONTINUOUS
 62
    7
 10
394.87934753683015
 20
427.34828862361337
 11
396.18726090962321
 21
428.00481446531239
  0
LINE
  8
_0-0_
  6
CONTINUOUS
 62
    7
 10
396.18726090962321
 20
428.00481446531239
 11
397.41200932102686
 21
428.53541891878945
  0
LINE
  8
_0-0_
  6
CONTINUOUS
 62
    7
 10
397.41200932102686
 20
428.53541891878945
 11
398.50239905409455
 21
428.94252870144032
  0
LINE
  8
_0-0_
  6
CONTINUOUS
 62
    7
 10
398.50239905409455
 20
428.94252870144032
 11
399.41371023625663
 21
429.2387493267961
  0
LINE
  8
_0-0_
  6
CONTINUOUS
 62
    7
 10
399.41371023625572
 20
426.61239951149514
 11
398.93498331984676
 21
426.44263042494345
  0
LINE
  8
_0-0_
  6
CONTINUOUS
 62
    7
 10
398.93498331984676
 20
426.44263042494345
 11
397.86012639852794
 21
426.01458658790557
  0
LINE
  8
_0-0_
  6
CONTINUOUS
 62
    7
 10
397.86012639852794
 20
426.01458658790557
 11
396.62441262042603
 21
425.43944255026963
  0
LINE
  8
_0-0_
  6
CONTINUOUS
 62
    7
 10
396.62441262042603
 20
425.43944255026963
 11
395.29484936124533
 21
424.70982883519378
  0
LINE
  8
_0-0_
  6
CONTINUOUS
 62
    7
 10
395.29484936124533
 20
424.70982883519378
 11
393.93007839836275
 21
423.83068826023623
  0
LINE
  8
_0-0_
  6
CONTINUOUS
 62
    7
 10
393.93007839836275
 20
423.83068826023623
 11
392.29267855967203
 21
422.56702304547707
  0
LINE
  8
_0-0_
  6
CONTINUOUS
 62
    7
 10
392.29267855967203
 20
422.56702304547707
 11
390.75345619841187
 21
421.13021880081988
  0
LINE
  8
_0-0_
  6
CONTINUOUS
 62
    7
 10
390.75345619841187
 20
424.54100704215784
 11
392.14019298422824
 21
425.62515827798393
  0
LINE
  8
_0-0_
  6
CONTINUOUS
 62
    7
 10
383.41820889030913
 20
430.12483365564162
 11
380.52695889030917
 21
428.45556968984715
  0
LINE
  8
_0-0_
  6
CONTINUOUS
 62
    7
 10
380.52695889030917
 20
428.45556968984715
 11
377.63570889030916
 21
430.12483365564162
  0
LINE
  8
_0-0_
  6
CONTINUOUS
 62
    7
 10
377.63570889030916
 20
430.12483365564162
 11
377.63570889030916
 21
433.46336158723057
  0
LINE
  8
_0-0_
  6
CONTINUOUS
 62
    7
 10
377.63570889030916
 20
433.46336158723057
 11
380.52695889030917
 21
435.13262555302526
  0
LINE
  8
_0-0_
  6
CONTINUOUS
 62
    7
 10
380.52695889030917
 20
435.13262555302526
 11
383.41820889030913
 21
433.46336158723057
  0
LINE
  8
_0-0_
  6
CONTINUOUS
 62
    7
 10
383.41820889030913
 20
433.46336158723057
 11
383.41820889030913
 21
430.12483365564162
  0
LINE
  8
_0-0_
  6
CENTER1
 62
    7
 10
380.52695889030917
 20
420.36909762143614
 11
380.52695889030917
 21
443.21909762143628
  0
LINE
  8
_0-0_
  6
CONTINUOUS
 62
    7
 10
379.52695889030923
 20
440.79409762143632
 11
433.52695889030872
 21
440.79409762143632
  0
LINE
  8
_0-0_
  6
CENTER1
 62
    7
 10
432.52695889030872
 20
443.21909762143628
 11
432.52695889030872
 21
420.36909762143614
  0
LINE
  8
_0-0_
  6
CONTINUOUS
 62
    7
 10
431.52695890740233
 20
424.79409762145792
 11
431.52695890740233
 21
429.61314255058596
  0
LINE
  8
_0-0_
  6
CONTINUOUS
 62
    7
 10
431.52695890740233
 20
429.61314255058596
 11
433.00911914974665
 21
430.01123885438869
  0
LINE
  8
_0-0_
  6
CONTINUOUS
 62
    7
 10
433.00911914974665
 20
430.01123885438869
 11
434.49596206230132
 21
430.18098955516189
  0
LINE
  8
_0-0_
  6
CONTINUOUS
 62
    7
 10
434.49596206230132
 20
430.18098955516189
 11
434.72320890740247
 21
430.18409762145779
  0
LINE
  8
_0-0_
  6
CONTINUOUS
 62
    7
 10
434.72320890740247
 20
430.18409762145779
 11
436.35352570543301
 21
430.02738727814449
  0
LINE
  8
_0-0_
  6
CONTINUOUS
 62
    7
 10
436.35352570543301
 20
430.02738727814449
 11
437.91945890740243
 21
429.61314255058596
  0
LINE
  8
_0-0_
  6
CONTINUOUS
 62
    7
 10
437.91945890740243
 20
430.18409762145779
 11
425.13445890740246
 21
430.18409762145779
  0
LINE
  8
_0-0_
  6
CONTINUOUS
 62
    7
 10
425.13445890740246
 20
430.18409762145779
 11
425.13445890740246
 21
424.79409762145792
  0
LINE
  8
_0-0_
  6
CONTINUOUS
 62
    7
 10
425.52695890740233
 20
422.29409762143678
 11
425.52695890740233
 21
419.79409762143678
  0
LINE
  8
_0-0_
  6
CONTINUOUS
 62
    7
 10
419.66525463946988
 20
419.79409762143678
 11
419.66525463946988
 21
423.44020724388724
  0
LINE
  8
_0-0_
  6
CONTINUOUS
 62
    7
 10
419.66525463946988
 20
423.44020724388724
 11
419.02580984538781
 21
423.89875792763087
  0
LINE
  8
_0-0_
  6
CONTINUOUS
 62
    7
 10
419.02580984538781
 20
423.89875792763087
 11
417.98786511465391
 21
424.57301208731405
  0
LINE
  8
_0-0_
  6
CONTINUOUS
 62
    7
 10
417.98786511465391
 20
424.57301208731405
 11
417.12338077551726
 21
425.07403131506339
  0
LINE
  8
_0-0_
  6
CONTINUOUS
 62
    7
 10
417.12338077551806
 20
427.88404654013334
 11
417.93560599583765
 21
427.47572051321913
  0
LINE
  8
_0-0_
  6
CONTINUOUS
 62
    7
 10
417.93560599583765
 20
427.47572051321913
 11
419.24217146650045
 21
426.73624099651215
  0
LINE
  8
_0-0_
  6
CONTINUOUS
 62
    7
 10
419.24217146650045
 20
426.73624099651215
 11
420.63856071126014
 21
425.82189565434305
  0
LINE
  8
_0-0_
  6
CONTINUOUS
 62
    7
 10
420.63856071126014
 20
425.82189565434305
 11
421.99466718856564
 21
424.79409762143655
  0
LINE
  8
_0-0_
  6
CONTINUOUS
 62
    7
 10
421.99466718856564
 20
424.79409762143655
 11
441.52695889187686
 21
424.79409762143655
  0
LINE
  8
_0-0_
  6
CONTINUOUS
 62
    7
 10
441.52695889187686
 20
422.29409762143655
 11
419.66525463946988
 21
422.29409762143655
  0
LINE
  8
_0-0_
  6
CENTER1
 62
    7
 10
421.10195889030865
 20
431.79409762143609
 11
443.95195889030884
 21
431.79409762143609
  0
LINE
  8
_0-0_
  6
CONTINUOUS
 62
    7
 10
441.52695889030872
 20
432.79409762143632
 11
441.52695889030872
 21
419.79409762143678
  0
LINE
  8
_0-0_
  6
CONTINUOUS
 62
    7
 10
439.22353665118516
 20
419.79409762143678
 11
439.22353665118516
 21
422.29409762143655
  0
LINE
  8
_0-0_
  6
CONTINUOUS
 62
    7
 10
437.52695890740233
 20
422.29409762143678
 11
437.52695890740233
 21
419.79409762143678
  0
LINE
  8
_0-0_
  6
CONTINUOUS
 62
    7
 10
437.91945890740243
 20
424.79409762145792
 11
437.91945890740243
 21
430.18409762145779
  0
LINE
  8
_0-0_
  6
CONTINUOUS
 62
    7
 10
435.41820889030873
 20
430.18409762145779
 11
435.41820889030873
 21
433.46336158723057
  0
LINE
  8
_0-0_
  6
CONTINUOUS
 62
    7
 10
435.41820889030873
 20
433.46336158723057
 11
432.52695889030872
 21
435.13262555302526
  0
LINE
  8
_0-0_
  6
CONTINUOUS
 62
    7
 10
432.52695889030872
 20
435.13262555302526
 11
429.63570889030876
 21
433.46336158723057
  0
LINE
  8
_0-0_
  6
CONTINUOUS
 62
    7
 10
429.63570889030876
 20
433.46336158723057
 11
429.63570889030876
 21
430.18409762145779
  0
LINE
  8
_0-0_
  6
CONTINUOUS
 62
    7
 10
429.96102570543303
 20
430.02738727814449
 11
428.33070890740237
 21
430.18409762145779
  0
LINE
  8
_0-0_
  6
CONTINUOUS
 62
    7
 10
428.33070890740237
 20
430.18409762145779
 11
428.10346206230133
 21
430.18098955516189
  0
LINE
  8
_0-0_
  6
CONTINUOUS
 62
    7
 10
428.10346206230133
 20
430.18098955516189
 11
426.61661914974673
 21
430.01123885438869
  0
LINE
  8
_0-0_
  6
CONTINUOUS
 62
    7
 10
426.61661914974673
 20
430.01123885438869
 11
425.13445890740235
 21
429.61314255058596
  0
LINE
  8
_0-0_
  6
CONTINUOUS
 62
    7
 10
429.96102570543303
 20
430.02738727814449
 11
431.52695890740233
 21
429.61314255058596
  0
LINE
  8
_0-0_
  6
CENTER1
 62
    7
 10
431.52695890740233
 20
427.29409762143678
 11
431.52695890740233
 21
372.79409762145792
  0
LINE
  8
_0-0_
  6
CONTINUOUS
 62
    7
 10
433.52695889030872
 20
370.79409762143609
 11
379.52695889030923
 21
370.79409762143609
  0
LINE
  8
_0-0_
  6
CENTER1
 62
    7
 10
380.52695889030923
 20
368.36909762143569
 11
380.52695889030923
 21
391.21909762143605
  0
LINE
  8
_0-0_
  6
CONTINUOUS
 62
    7
 10
380.52695889030923
 20
383.13262555302504
 11
377.63570889030916
 21
381.46336158723057
  0
LINE
  8
_0-0_
  6
CONTINUOUS
 62
    7
 10
377.63570889030916
 20
381.46336158723057
 11
377.63570889030916
 21
378.1248336556414
  0
LINE
  8
_0-0_
  6
CONTINUOUS
 62
    7
 10
377.63570889030916
 20
378.1248336556414
 11
380.52695889030923
 21
376.45556968984693
  0
LINE
  8
_0-0_
  6
CONTINUOUS
 62
    7
 10
380.52695889030923
 20
376.45556968984693
 11
383.41820889030913
 21
378.1248336556414
  0
LINE
  8
_0-0_
  6
CONTINUOUS
 62
    7
 10
383.41820889030913
 20
378.1248336556414
 11
383.41820889030913
 21
381.46336158723057
  0
LINE
  8
_0-0_
  6
CONTINUOUS
 62
    7
 10
383.41820889030913
 20
381.46336158723057
 11
380.52695889030923
 21
383.13262555302504
  0
LINE
  8
_0-0_
  6
CONTINUOUS
 62
    7
 10
371.52695889030923
 20
378.79409762143609
 11
371.52695889030923
 21
432.79409762143632
  0
LINE
  8
_0-0_
  6
CENTER1
 62
    7
 10
375.77695889030912
 20
460.79409762143609
 11
392.27695889030917
 21
460.79409762143609
  0
LINE
  8
_0-0_
  6
CONTINUOUS
 62
    7
 10
386.52695889030917
 20
459.35072191476343
 11
386.52695889030917
 21
462.23747332810876
  0
LINE
  8
_0-0_
  6
CONTINUOUS
 62
    7
 10
386.52695889030917
 20
462.23747332810876
 11
384.02695889030917
 21
463.68084903478143
  0
LINE
  8
_0-0_
  6
CONTINUOUS
 62
    7
 10
384.02695889030917
 20
463.68084903478143
 11
381.52695889030917
 21
462.23747332810876
  0
LINE
  8
_0-0_
  6
CONTINUOUS
 62
    7
 10
381.52695889030917
 20
462.23747332810876
 11
381.52695889030917
 21
459.35072191476343
  0
LINE
  8
_0-0_
  6
CONTINUOUS
 62
    7
 10
381.52695889030917
 20
459.35072191476343
 11
384.02695889030917
 21
457.90734620809076
  0
LINE
  8
_0-0_
  6
CONTINUOUS
 62
    7
 10
384.02695889030917
 20
457.90734620809076
 11
386.52695889030917
 21
459.35072191476343
  0
LINE
  8
_0-0_
  6
CENTER1
 62
    7
 10
384.02695889030917
 20
452.54409762143609
 11
384.02695889030917
 21
469.04409762143609
  0
LINE
  8
_0-0_
  6
CENTER1
 62
    7
 10
349.40886812445399
 20
456.79409762143655
 11
296.44504965616454
 21
456.79409762143655
  0
LINE
  8
_0-0_
  6
CONTINUOUS
 62
    7
 10
306.52695889030912
 20
468.24136803844044
 11
306.52695889030906
 21
476.79409762143632
  0
LINE
  8
_0-0_
  6
CONTINUOUS
 62
    7
 10
306.52695889030906
 20
476.79409762143632
 11
471.52695889030912
 21
476.79409762143632
  0
LINE
  8
_0-0_
  6
CONTINUOUS
 62
    7
 10
471.52695889030912
 20
476.79409762143609
 11
471.52695889030912
 21
408.79409762143609
  0
LINE
  8
_0-0_
  6
CONTINUOUS
 62
    7
 10
468.59802670217465
 20
401.72302980957079
 11
410.59802670217465
 21
343.72302980957079
  0
LINE
  8
_0-0_
  6
CONTINUOUS
 62
    7
 10
403.52695889030917
 20
340.79409762143609
 11
343.15860085422338
 21
340.79409762143609
  0
LINE
  8
_0-0_
  6
CENTER1
 62
    7
 10
343.27695889030912
 20
353.29409762143609
 11
359.77695889030917
 21
353.29409762143609
  0
LINE
  8
_0-0_
  6
CONTINUOUS
 62
    7
 10
354.02695889030917
 20
351.85072191476343
 11
354.02695889030917
 21
354.73747332810876
  0
LINE
  8
_0-0_
  6
CONTINUOUS
 62
    7
 10
354.02695889030917
 20
354.73747332810876
 11
351.52695889030917
 21
356.18084903478143
  0
LINE
  8
_0-0_
  6
CONTINUOUS
 62
    7
 10
351.52695889030917
 20
356.18084903478143
 11
349.02695889030917
 21
354.73747332810876
  0
LINE
  8
_0-0_
  6
CONTINUOUS
 62
    7
 10
349.02695889030917
 20
354.73747332810876
 11
349.02695889030917
 21
351.85072191476343
  0
LINE
  8
_0-0_
  6
CONTINUOUS
 62
    7
 10
349.02695889030917
 20
351.85072191476343
 11
351.52695889030917
 21
350.40734620809076
  0
LINE
  8
_0-0_
  6
CONTINUOUS
 62
    7
 10
351.52695889030917
 20
350.40734620809076
 11
354.02695889030917
 21
351.85072191476343
  0
LINE
  8
_0-0_
  6
CENTER1
 62
    7
 10
351.52695889030917
 20
345.04409762143609
 11
351.52695889030917
 21
361.54409762143609
  0
LINE
  8
_0-0_
  6
CONTINUOUS
 62
    7
 10
333.51306561314198
 20
348.15522477246122
 11
307.15608932196119
 21
444.49451742298379
  0
LINE
  8
_0-0_
  6
CONTINUOUS
 62
    7
 10
306.52695889030906
 20
473.59409762143628
 11
312.07523091730758
 21
473.59409762143628
  0
LINE
  8
_0-0_
  6
CENTER1
 62
    7
 10
406.52695889030815
 20
435.29409762143632
 11
406.52695889030815
 21
376.29409762143609
  0
LINE
  8
_0-0_
  6
CONTINUOUS
 62
    7
 10
399.41371023625663
 20
382.34944591607632
 11
398.39002229087862
 21
382.6847864508959
  0
LINE
  8
_0-0_
  6
CONTINUOUS
 62
    7
 10
398.39002229087862
 20
382.6847864508959
 11
397.19459296068146
 21
383.14112990955459
  0
LINE
  8
_0-0_
  6
CONTINUOUS
 62
    7
 10
397.19459296068146
 20
383.14112990955459
 11
395.60368447568555
 21
383.86393400912266
  0
LINE
  8
_0-0_
  6
CONTINUOUS
 62
    7
 10
395.60368447568555
 20
383.86393400912266
 11
393.98165304734454
 21
384.7497325488921
  0
LINE
  8
_0-0_
  6
CONTINUOUS
 62
    7
 10
393.98165304734454
 20
384.7497325488921
 11
392.31573133823986
 21
385.83686806762967
  0
LINE
  8
_0-0_
  6
CONTINUOUS
 62
    7
 10
392.31573133823986
 20
385.83686806762967
 11
390.75345619841187
 21
387.04718820071457
  0
LINE
  8
_0-0_
  6
CONTINUOUS
 62
    7
 10
390.75345619841187
 20
390.45797644205254
 11
392.38791608002566
 21
388.93920312728392
  0
LINE
  8
_0-0_
  6
CONTINUOUS
 62
    7
 10
392.38791608002566
 20
388.93920312728392
 11
393.67880994402003
 21
387.93639428887286
  0
LINE
  8
_0-0_
  6
CONTINUOUS
 62
    7
 10
393.67880994402003
 20
387.93639428887286
 11
394.99537176267665
 21
387.05850320017908
  0
LINE
  8
_0-0_
  6
CONTINUOUS
 62
    7
 10
394.99537176267665
 20
387.05850320017908
 11
396.25629097153075
 21
386.33931239332105
  0
LINE
  8
_0-0_
  6
CONTINUOUS
 62
    7
 10
396.25629097153075
 20
386.33931239332105
 11
397.44729173810725
 21
385.7551444450537
  0
LINE
  8
_0-0_
  6
CONTINUOUS
 62
    7
 10
397.44729173810725
 20
385.7551444450537
 11
398.51555121298003
 21
385.30482394539808
  0
LINE
  8
_0-0_
  6
CONTINUOUS
 62
    7
 10
398.51555121298003
 20
385.30482394539808
 11
399.41371023625663
 21
384.97579573137727
  0
LINE
  8
_0-0_
  6
CENTER1
 62
    7
 10
391.95195889030936
 20
379.79409762143587
 11
369.10195889030905
 21
379.79409762143587
  0
LINE
  8
_0-0_
  6
CENTER1
 62
    7
 10
377.02695889030815
 20
405.79409762143609
 11
436.02695889030826
 21
405.79409762143609
  0
LINE
  8
_0-0_
  6
CONTINUOUS
 62
    7
 10
437.52695890740233
 20
391.79409762143678
 11
437.52695890740233
 21
389.29409762143678
  0
LINE
  8
_0-0_
  6
CONTINUOUS
 62
    7
 10
439.22353665118516
 20
389.29409762143655
 11
439.22353665118516
 21
391.79409762143678
  0
LINE
  8
_0-0_
  6
CONTINUOUS
 62
    7
 10
441.52695889030872
 20
391.79409762143678
 11
441.52695889030872
 21
378.79409762143609
  0
LINE
  8
_0-0_
  6
CENTER1
 62
    7
 10
443.95195889030884
 20
379.79409762143587
 11
421.10195889030865
 21
379.79409762143587
  0
LINE
  8
_0-0_
  6
CONTINUOUS
 62
    7
 10
425.09445890740255
 20
380.1740976214362
 11
437.95945890740222
 21
380.1740976214362
  0
LINE
  8
_0-0_
  6
CONTINUOUS
 62
    7
 10
437.95945890740222
 20
380.1740976214362
 11
437.95945890740222
 21
386.79409762143632
  0
LINE
  8
_0-0_
  6
CONTINUOUS
 62
    7
 10
437.95945890740245
 20
386.21956989466526
 11
436.38372714022717
 21
386.63640668934977
  0
LINE
  8
_0-0_
  6
CONTINUOUS
 62
    7
 10
436.38372714022717
 20
386.63640668934977
 11
434.74320890740233
 21
386.79409762143632
  0
LINE
  8
_0-0_
  6
CONTINUOUS
 62
    7
 10
434.74320890740233
 20
386.79409762143632
 11
434.51453912862712
 21
386.79097008028862
  0
LINE
  8
_0-0_
  6
CONTINUOUS
 62
    7
 10
434.51453912862712
 20
386.79097008028862
 11
433.01839302410332
 21
386.62015712181756
  0
LINE
  8
_0-0_
  6
CONTINUOUS
 62
    7
 10
433.01839302410332
 20
386.62015712181756
 11
431.52695890740216
 21
386.21956989466526
  0
LINE
  8
_0-0_
  6
CONTINUOUS
 62
    7
 10
431.52695890740216
 20
386.21956989466526
 11
431.52695890740216
 21
380.74862534820727
  0
LINE
  8
_0-0_
  6
CONTINUOUS
 62
    7
 10
431.52695890740216
 20
380.74862534820727
 11
433.10269067457756
 21
380.33178855352276
  0
LINE
  8
_0-0_
  6
CONTINUOUS
 62
    7
 10
433.10269067457756
 20
380.33178855352276
 11
434.74320890740233
 21
380.1740976214362
  0
LINE
  8
_0-0_
  6
CONTINUOUS
 62
    7
 10
434.74320890740233
 20
380.1740976214362
 11
434.97187868617772
 21
380.17722516258391
  0
LINE
  8
_0-0_
  6
CONTINUOUS
 62
    7
 10
434.97187868617772
 20
380.17722516258391
 11
436.46802479070135
 21
380.34803812105497
  0
LINE
  8
_0-0_
  6
CONTINUOUS
 62
    7
 10
436.46802479070135
 20
380.34803812105497
 11
437.95945890740245
 21
380.74862534820727
  0
LINE
  8
_0-0_
  6
CONTINUOUS
 62
    7
 10
437.52695890740233
 20
380.1740976214362
 11
437.52695890740233
 21
379.67409762143643
  0
LINE
  8
_0-0_
  6
CONTINUOUS
 62
    7
 10
436.02695890740233
 20
378.17409762143643
 11
427.02695901682546
 21
378.17409762143643
  0
LINE
  8
_0-0_
  6
CONTINUOUS
 62
    7
 10
427.52892436194776
 20
378.17409762143643
 11
427.52895890740223
 21
377.79409762145792
  0
LINE
  8
_0-0_
  6
CONTINUOUS
 62
    7
 10
427.52895890740223
 20
377.79409762145792
 11
435.52495890740255
 21
377.79409762145792
  0
LINE
  8
_0-0_
  6
CONTINUOUS
 62
    7
 10
435.52495890740255
 20
377.79409762145792
 11
435.52499345285713
 21
378.17409762143643
  0
LINE
  8
_0-0_
  6
CONTINUOUS
 62
    7
 10
434.84535727520893
 20
377.79409762145792
 11
432.52695889030872
 21
376.45556968984693
  0
LINE
  8
_0-0_
  6
CONTINUOUS
 62
    7
 10
432.52695889030872
 20
376.45556968984693
 11
430.20856050540851
 21
377.79409762145792
  0
LINE
  8
_0-0_
  6
CONTINUOUS
 62
    7
 10
430.03552479070123
 20
380.34803812105497
 11
428.53937868617771
 21
380.17722516258391
  0
LINE
  8
_0-0_
  6
CONTINUOUS
 62
    7
 10
428.53937868617771
 20
380.17722516258391
 11
428.31070890740256
 21
380.1740976214362
  0
LINE
  8
_0-0_
  6
CONTINUOUS
 62
    7
 10
428.31070890740256
 20
380.1740976214362
 11
426.67019067457755
 21
380.33178855352276
  0
LINE
  8
_0-0_
  6
CONTINUOUS
 62
    7
 10
426.67019067457755
 20
380.33178855352276
 11
425.09445890740233
 21
380.74862534820727
  0
LINE
  8
_0-0_
  6
CONTINUOUS
 62
    7
 10
425.09445890740255
 20
380.1740976214362
 11
425.09445890740255
 21
386.79409762143632
  0
LINE
  8
_0-0_
  6
CONTINUOUS
 62
    7
 10
425.09445890740233
 20
386.21956989466526
 11
426.58589302410343
 21
386.62015712181756
  0
LINE
  8
_0-0_
  6
CONTINUOUS
 62
    7
 10
426.58589302410343
 20
386.62015712181756
 11
428.08203912862712
 21
386.79097008028862
  0
LINE
  8
_0-0_
  6
CONTINUOUS
 62
    7
 10
428.08203912862712
 20
386.79097008028862
 11
428.31070890740256
 21
386.79409762143632
  0
LINE
  8
_0-0_
  6
CONTINUOUS
 62
    7
 10
428.31070890740256
 20
386.79409762143632
 11
429.39159468847743
 21
386.72483532193587
  0
LINE
  8
_0-0_
  6
CONTINUOUS
 62
    7
 10
429.39159468847743
 20
386.72483532193587
 11
429.95122714022705
 21
386.63640668934977
  0
LINE
  8
_0-0_
  6
CONTINUOUS
 62
    7
 10
429.95122714022705
 20
386.63640668934977
 11
431.52695890740216
 21
386.21956989466526
  0
LINE
  8
_0-0_
  6
CONTINUOUS
 62
    7
 10
431.52695890740216
 20
380.74862534820727
 11
430.03552479070123
 21
380.34803812105497
  0
LINE
  8
_0-0_
  6
CONTINUOUS
 62
    7
 10
425.52695890740233
 20
380.1740976214362
 11
425.52695890740233
 21
379.67409762143643
  0
LINE
  8
_0-0_
  6
CONTINUOUS
 62
    7
 10
425.52695890740233
 20
389.29409762143678
 11
425.52695890740233
 21
391.79409762143678
  0
LINE
  8
_0-0_
  6
CONTINUOUS
 62
    7
 10
419.66525463946988
 20
391.79409762143678
 11
419.66525463946988
 21
388.14798799898517
  0
LINE
  8
_0-0_
  6
CONTINUOUS
 62
    7
 10
419.66525463946988
 20
388.14798799898517
 11
418.45431958550193
 21
387.3079388304177
  0
LINE
  8
_0-0_
  6
CONTINUOUS
 62
    7
 10
418.45431958550193
 20
387.3079388304177
 11
417.75229154147212
 21
386.87342356180716
  0
LINE
  8
_0-0_
  6
CONTINUOUS
 62
    7
 10
417.75229154147212
 20
386.87342356180716
 11
417.12338077551726
 21
386.51416392780902
  0
LINE
  8
_0-0_
  6
CONTINUOUS
 62
    7
 10
417.12338077551726
 20
383.70414870273862
 11
418.00659386217308
 21
384.14997645857216
  0
LINE
  8
_0-0_
  6
CONTINUOUS
 62
    7
 10
418.00659386217308
 20
384.14997645857216
 11
419.07912846212918
 21
384.75382578288213
  0
LINE
  8
_0-0_
  6
CONTINUOUS
 62
    7
 10
419.07912846212918
 20
384.75382578288213
 11
420.23773550374983
 21
385.49043956450623
  0
LINE
  8
_0-0_
  6
CONTINUOUS
 62
    7
 10
420.23773550374983
 20
385.49043956450623
 11
421.44757218571283
 21
386.36151418821737
  0
LINE
  8
_0-0_
  6
CONTINUOUS
 62
    7
 10
421.44757218571283
 20
386.36151418821737
 11
421.99466718856655
 21
386.79409762143655
  0
LINE
  8
_0-0_
  6
CONTINUOUS
 62
    7
 10
421.99466718856655
 20
386.79409762143655
 11
441.52695889187686
 21
386.79409762143655
  0
LINE
  8
_0-0_
  6
CONTINUOUS
 62
    7
 10
441.52695889187686
 20
389.29409762143655
 11
419.66525463946988
 21
389.29409762143655
  0
LINE
  8
_0-0_
  6
CONTINUOUS
 62
    7
 10
408.52695890740233
 20
391.79409762143678
 11
454.52695890740245
 21
391.79409762143678
  0
LINE
  8
_0-0_
  6
CONTINUOUS
 62
    7
 10
456.52695890740245
 20
393.79409762143678
 11
456.52695890740245
 21
417.79409762143678
  0
LINE
  8
_0-0_
  6
CONTINUOUS
 62
    7
 10
454.52695890740245
 20
419.79409762143678
 11
408.52695890740233
 21
419.79409762143678
  0
LINE
  8
_0-0_
  6
CONTINUOUS
 62
    7
 10
406.52695890740233
 20
417.79409762143678
 11
406.52695890740233
 21
393.79409762143678
  0
LINE
  8
_0-0_
  6
CENTER1
 62
    7
 10
432.52695889030872
 20
391.21909762143605
 11
432.52695889030872
 21
368.36909762143569
  0
LINE
  8
_0-0_
  6
CONTINUOUS
 62
    7
 10
410.59802670217465
 20
179.92266085947637
 11
468.59802670217465
 21
121.92266085947631
  0
LINE
  8
_0-0_
  6
CONTINUOUS
 62
    7
 10
471.52695889030912
 20
114.851593047611
 11
471.52695889030906
 21
46.851593047610891
  0
LINE
  8
_0-0_
  6
CONTINUOUS
 62
    7
 10
471.52695889030906
 20
46.851593047610891
 11
306.52695889030906
 21
46.851593047610891
  0
LINE
  8
_0-0_
  6
CONTINUOUS
 62
    7
 10
306.52695889030906
 20
46.851593047610891
 11
306.52695889030917
 21
75.508350007097192
  0
LINE
  8
_0-0_
  6
CONTINUOUS
 62
    7
 10
306.88142364922783
 20
78.147222856072176
 11
333.51306561314198
 21
175.49046589658599
  0
LINE
  8
_0-0_
  6
CENTER1
 62
    7
 10
343.27695889030912
 20
170.35159304761089
 11
359.77695889030917
 21
170.35159304761089
  0
LINE
  8
_0-0_
  6
CENTER1
 62
    7
 10
351.52695889030917
 20
162.10159304761089
 11
351.52695889030917
 21
178.60159304761089
  0
LINE
  8
_0-0_
  6
CONTINUOUS
 62
    7
 10
343.15860085422338
 20
182.85159304761095
 11
403.52695889030917
 21
182.85159304761095
  0
LINE
  8
_0-0_
  6
CENTER1
 62
    7
 10
394.42695889030921
 20
143.85159304761112
 11
366.6269588903092
 21
143.85159304761112
  0
LINE
  8
_0-0_
  6
CONTINUOUS
 62
    7
 10
373.27715092458175
 20
141.90901285791426
 11
378.58437870061283
 21
136.60178508188312
  0
LINE
  8
_0-0_
  6
CONTINUOUS
 62
    7
 10
378.58437870061283
 20
136.60178508188312
 11
385.83418666633941
 21
138.54436527158066
  0
LINE
  8
_0-0_
  6
CONTINUOUS
 62
    7
 10
385.83418666633941
 20
138.54436527158066
 11
387.77676685603683
 21
145.79417323730934
  0
LINE
  8
_0-0_
  6
CONTINUOUS
 62
    7
 10
387.77676685603683
 20
145.79417323730934
 11
382.46953908000563
 21
151.101401013339
  0
LINE
  8
_0-0_
  6
CONTINUOUS
 62
    7
 10
382.46953908000563
 20
151.101401013339
 11
375.21973111427894
 21
149.15882082364101
  0
LINE
  8
_0-0_
  6
CONTINUOUS
 62
    7
 10
375.21973111427894
 20
149.15882082364101
 11
373.27715092458175
 21
141.90901285791426
  0
LINE
  8
_0-0_
  6
CENTER1
 62
    7
 10
380.52695889030923
 20
129.95159304761114
 11
380.52695889030923
 21
157.7515930476111
  0
LINE
  8
_0-0_
  6
CENTER1
 62
    7
 10
432.52695889030872
 20
157.7515930476111
 11
432.52695889030872
 21
129.95159304761114
  0
LINE
  8
_0-0_
  6
CONTINUOUS
 62
    7
 10
430.58437870061232
 20
136.60178508188312
 11
425.27715092458135
 21
141.90901285791426
  0
LINE
  8
_0-0_
  6
CONTINUOUS
 62
    7
 10
425.27715092458135
 20
141.90901285791426
 11
427.21973111427855
 21
149.15882082364101
  0
LINE
  8
_0-0_
  6
CONTINUOUS
 62
    7
 10
427.21973111427855
 20
149.15882082364101
 11
434.46953908000523
 21
151.101401013339
  0
LINE
  8
_0-0_
  6
CONTINUOUS
 62
    7
 10
434.46953908000523
 20
151.101401013339
 11
439.77676685603643
 21
145.79417323730934
  0
LINE
  8
_0-0_
  6
CONTINUOUS
 62
    7
 10
439.77676685603643
 20
145.79417323730934
 11
437.83418666633895
 21
138.54436527158066
  0
LINE
  8
_0-0_
  6
CONTINUOUS
 62
    7
 10
437.83418666633895
 20
138.54436527158066
 11
430.58437870061232
 21
136.60178508188312
  0
LINE
  8
_0-0_
  6
CENTER1
 62
    7
 10
418.62695889030874
 20
143.85159304761112
 11
446.42695889030875
 21
143.85159304761112
  0
LINE
  8
_0-0_
  6
CENTER1
 62
    7
 10
446.42695889030875
 20
91.851593047611004
 11
418.62695889030874
 21
91.851593047611004
  0
LINE
  8
_0-0_
  6
CONTINUOUS
 62
    7
 10
425.27715092458135
 20
89.909012857913922
 11
427.21973111427855
 21
97.158820823640781
  0
LINE
  8
_0-0_
  6
CONTINUOUS
 62
    7
 10
427.21973111427855
 20
97.158820823640781
 11
434.46953908000523
 21
99.101401013338773
  0
LINE
  8
_0-0_
  6
CONTINUOUS
 62
    7
 10
434.46953908000523
 20
99.101401013338773
 11
439.77676685603643
 21
93.79417323730911
  0
LINE
  8
_0-0_
  6
CONTINUOUS
 62
    7
 10
439.77676685603643
 20
93.79417323730911
 11
437.83418666633895
 21
86.544365271580318
  0
LINE
  8
_0-0_
  6
CONTINUOUS
 62
    7
 10
437.83418666633895
 20
86.544365271580318
 11
430.58437870061232
 21
84.601785081883008
  0
LINE
  8
_0-0_
  6
CONTINUOUS
 62
    7
 10
430.58437870061232
 20
84.601785081883008
 11
425.27715092458135
 21
89.909012857913922
  0
LINE
  8
_0-0_
  6
CENTER1
 62
    7
 10
432.52695889030872
 20
77.9515930476108
 11
432.52695889030872
 21
105.75159304761087
  0
LINE
  8
_0-0_
  6
CENTER1
 62
    7
 10
394.42695889030921
 20
91.851593047611004
 11
366.6269588903092
 21
91.851593047611004
  0
LINE
  8
_0-0_
  6
CONTINUOUS
 62
    7
 10
373.27715092458175
 20
89.909012857913922
 11
375.21973111427894
 21
97.158820823640781
  0
LINE
  8
_0-0_
  6
CONTINUOUS
 62
    7
 10
375.21973111427894
 20
97.158820823640781
 11
382.46953908000563
 21
99.101401013338773
  0
LINE
  8
_0-0_
  6
CONTINUOUS
 62
    7
 10
382.46953908000563
 20
99.101401013338773
 11
387.77676685603683
 21
93.79417323730911
  0
LINE
  8
_0-0_
  6
CONTINUOUS
 62
    7
 10
387.77676685603683
 20
93.79417323730911
 11
385.83418666633935
 21
86.544365271580318
  0
LINE
  8
_0-0_
  6
CONTINUOUS
 62
    7
 10
385.83418666633935
 20
86.544365271580318
 11
378.58437870061272
 21
84.601785081883008
  0
LINE
  8
_0-0_
  6
CONTINUOUS
 62
    7
 10
378.58437870061272
 20
84.601785081883008
 11
373.27715092458175
 21
89.909012857913922
  0
LINE
  8
_0-0_
  6
CENTER1
 62
    7
 10
359.77695889030917
 20
95.351593047611004
 11
343.27695889030912
 21
95.351593047611004
  0
LINE
  8
_0-0_
  6
CENTER1
 62
    7
 10
351.52695889030917
 20
87.101593047611004
 11
351.52695889030917
 21
103.601593047611
  0
LINE
  8
_0-0_
  6
CENTER1
 62
    7
 10
380.52695889030923
 20
105.75159304761087
 11
380.52695889030923
 21
77.9515930476108
  0
LINE
  8
_0-0_
  6
CENTER1
 62
    7
 10
384.02695889030917
 20
71.101593047610891
 11
384.02695889030917
 21
54.601593047610891
  0
LINE
  8
_0-0_
  6
CENTER1
 62
    7
 10
392.27695889030917
 20
62.851593047610891
 11
375.77695889030912
 21
62.851593047610891
  0
LINE
  8
_0-0_
  6
CENTER1
 62
    7
 10
349.40886812445399
 20
66.851593047610663
 11
296.44504965616454
 21
66.851593047610663
  0
LINE
  8
_0-0_
  6
CENTER1
 62
    7
 10
322.92695889030927
 20
40.36968381346594
 11
322.92695889030927
 21
93.333502281755386
  0
LINE
  8
_0-0_
  6
CENTER1
 62
    7
 10
459.02695889030912
 20
71.101593047610891
 11
459.02695889030912
 21
54.601593047610891
  0
LINE
  8
_0-0_
  6
CENTER1
 62
    7
 10
450.77695889030912
 20
62.851593047610891
 11
467.27695889030912
 21
62.851593047610891
  0
LINE
  8
_0-0_
  6
CENTER1
 62
    7
 10
550.07777750740297
 20
62.851593047610891
 11
566.57777750740297
 21
62.851593047610891
  0
LINE
  8
_0-0_
  6
CENTER1
 62
    7
 10
558.32777750740297
 20
54.601593047610891
 11
558.32777750740297
 21
71.101593047610891
  0
LINE
  8
_0-0_
  6
CENTER1
 62
    7
 10
584.8277775074032
 20
77.9515930476108
 11
584.8277775074032
 21
105.75159304761087
  0
LINE
  8
_0-0_
  6
CONTINUOUS
 62
    7
 10
582.8851973177068
 20
99.101401013338773
 11
577.57796954167566
 21
93.79417323730911
  0
LINE
  8
_0-0_
  6
CONTINUOUS
 62
    7
 10
577.57796954167566
 20
93.79417323730911
 11
579.52054973137297
 21
86.544365271580318
  0
LINE
  8
_0-0_
  6
CONTINUOUS
 62
    7
 10
579.52054973137297
 20
86.544365271580318
 11
586.77035769709983
 21
84.601785081883008
  0
LINE
  8
_0-0_
  6
CONTINUOUS
 62
    7
 10
586.77035769709983
 20
84.601785081883008
 11
592.07758547313074
 21
89.909012857913922
  0
LINE
  8
_0-0_
  6
CONTINUOUS
 62
    7
 10
592.07758547313074
 20
89.909012857913922
 11
590.13500528343354
 21
97.158820823640781
  0
LINE
  8
_0-0_
  6
CONTINUOUS
 62
    7
 10
590.13500528343354
 20
97.158820823640781
 11
582.8851973177068
 21
99.101401013338773
  0
LINE
  8
_0-0_
  6
CENTER1
 62
    7
 10
570.92777750740333
 20
91.851593047611004
 11
598.72777750740306
 21
91.851593047611004
  0
LINE
  8
_0-0_
  6
CENTER1
 62
    7
 10
622.92777750740288
 20
91.851593047611004
 11
650.72777750740283
 21
91.851593047611004
  0
LINE
  8
_0-0_
  6
CONTINUOUS
 62
    7
 10
644.07758547313028
 20
89.909012857913922
 11
642.13500528343297
 21
97.158820823640781
  0
LINE
  8
_0-0_
  6
CONTINUOUS
 62
    7
 10
642.13500528343297
 20
97.158820823640781
 11
634.88519731770634
 21
99.101401013338773
  0
LINE
  8
_0-0_
  6
CONTINUOUS
 62
    7
 10
634.88519731770634
 20
99.101401013338773
 11
629.5779695416752
 21
93.79417323730911
  0
LINE
  8
_0-0_
  6
CONTINUOUS
 62
    7
 10
629.5779695416752
 20
93.79417323730911
 11
631.52054973137251
 21
86.544365271580318
  0
LINE
  8
_0-0_
  6
CONTINUOUS
 62
    7
 10
631.52054973137251
 20
86.544365271580318
 11
638.77035769709914
 21
84.601785081883008
  0
LINE
  8
_0-0_
  6
CONTINUOUS
 62
    7
 10
638.77035769709914
 20
84.601785081883008
 11
644.07758547313028
 21
89.909012857913922
  0
LINE
  8
_0-0_
  6
CENTER1
 62
    7
 10
657.57777750740297
 20
95.351593047610777
 11
674.07777750740297
 21
95.351593047610777
  0
LINE
  8
_0-0_
  6
CENTER1
 62
    7
 10
665.82777750740297
 20
87.101593047610777
 11
665.82777750740297
 21
103.60159304761078
  0
LINE
  8
_0-0_
  6
CENTER1
 62
    7
 10
636.82777750740297
 20
105.75159304761087
 11
636.82777750740297
 21
77.9515930476108
  0
LINE
  8
_0-0_
  6
CENTER1
 62
    7
 10
633.32777750740286
 20
71.101593047610891
 11
633.32777750740286
 21
54.601593047610891
  0
LINE
  8
_0-0_
  6
CENTER1
 62
    7
 10
641.57777750740274
 20
62.851593047610891
 11
625.07777750740286
 21
62.851593047610891
  0
LINE
  8
_0-0_
  6
CENTER1
 62
    7
 10
667.94586827325816
 20
66.851593047610663
 11
720.9096867415476
 21
66.851593047610663
  0
LINE
  8
_0-0_
  6
CONTINUOUS
 62
    7
 10
710.82777750740297
 20
75.508350007097079
 11
710.82777750740297
 21
46.851593047610891
  0
LINE
  8
_0-0_
  6
CONTINUOUS
 62
    7
 10
710.82777750740297
 20
46.851593047610891
 11
545.82777750740297
 21
46.851593047610891
  0
LINE
  8
_0-0_
  6
CONTINUOUS
 62
    7
 10
545.82777750740297
 20
46.851593047610891
 11
545.82777750740297
 21
114.851593047611
  0
LINE
  8
_0-0_
  6
CONTINUOUS
 62
    7
 10
548.75670969553744
 20
121.92266085947631
 11
606.75670969553732
 21
179.92266085947631
  0
LINE
  8
_0-0_
  6
CONTINUOUS
 62
    7
 10
613.82777750740286
 20
182.85159304761089
 11
674.19613554348871
 21
182.85159304761089
  0
LINE
  8
_0-0_
  6
CENTER1
 62
    7
 10
674.07777750740297
 20
170.35159304761089
 11
657.57777750740297
 21
170.35159304761089
  0
LINE
  8
_0-0_
  6
CENTER1
 62
    7
 10
665.82777750740297
 20
162.10159304761089
 11
665.82777750740297
 21
178.60159304761089
  0
LINE
  8
_0-0_
  6
CONTINUOUS
 62
    7
 10
683.84167078457017
 20
175.49046589658593
 11
710.4733127484842
 21
78.147222856072176
  0
LINE
  8
_0-0_
  6
CENTER1
 62
    7
 10
694.42777750740288
 20
93.333502281755386
 11
694.42777750740288
 21
40.36968381346594
  0
LINE
  8
_0-0_
  6
CENTER1
 62
    7
 10
636.82777750740297
 20
129.95159304761114
 11
636.82777750740297
 21
157.7515930476111
  0
LINE
  8
_0-0_
  6
CONTINUOUS
 62
    7
 10
634.88519731770634
 20
151.101401013339
 11
629.5779695416752
 21
145.79417323730945
  0
LINE
  8
_0-0_
  6
CONTINUOUS
 62
    7
 10
629.5779695416752
 20
145.79417323730945
 11
631.52054973137263
 21
138.54436527158066
  0
LINE
  8
_0-0_
  6
CONTINUOUS
 62
    7
 10
631.52054973137263
 20
138.54436527158066
 11
638.77035769709914
 21
136.60178508188312
  0
LINE
  8
_0-0_
  6
CONTINUOUS
 62
    7
 10
638.77035769709914
 20
136.60178508188312
 11
644.07758547313028
 21
141.90901285791426
  0
LINE
  8
_0-0_
  6
CONTINUOUS
 62
    7
 10
644.07758547313028
 20
141.90901285791426
 11
642.13500528343297
 21
149.15882082364101
  0
LINE
  8
_0-0_
  6
CONTINUOUS
 62
    7
 10
642.13500528343297
 20
149.15882082364101
 11
634.88519731770634
 21
151.101401013339
  0
LINE
  8
_0-0_
  6
CENTER1
 62
    7
 10
622.92777750740288
 20
143.85159304761112
 11
650.72777750740283
 21
143.85159304761112
  0
LINE
  8
_0-0_
  6
CENTER1
 62
    7
 10
598.72777750740329
 20
143.85159304761112
 11
570.92777750740333
 21
143.85159304761112
  0
LINE
  8
_0-0_
  6
CONTINUOUS
 62
    7
 10
577.57796954167566
 20
145.79417323730945
 11
582.8851973177068
 21
151.101401013339
  0
LINE
  8
_0-0_
  6
CONTINUOUS
 62
    7
 10
582.8851973177068
 20
151.101401013339
 11
590.13500528343354
 21
149.15882082364101
  0
LINE
  8
_0-0_
  6
CONTINUOUS
 62
    7
 10
590.13500528343354
 20
149.15882082364101
 11
592.07758547313074
 21
141.90901285791426
  0
LINE
  8
_0-0_
  6
CONTINUOUS
 62
    7
 10
592.07758547313074
 20
141.90901285791426
 11
586.77035769709983
 21
136.60178508188312
  0
LINE
  8
_0-0_
  6
CONTINUOUS
 62
    7
 10
586.77035769709983
 20
136.60178508188312
 11
579.52054973137297
 21
138.54436527158066
  0
LINE
  8
_0-0_
  6
CONTINUOUS
 62
    7
 10
579.52054973137297
 20
138.54436527158066
 11
577.57796954167566
 21
145.79417323730945
  0
LINE
  8
_0-0_
  6
CENTER1
 62
    7
 10
584.8277775074032
 20
157.7515930476111
 11
584.8277775074032
 21
129.95159304761114
  0
LINE
  8
_0-0_
  6
CONTINUOUS
 62
    7
 10
828.17053411583515
 20
625.48924070591829
 11
828.17053411583515
 21
622.49180209734436
  0
LINE
  8
_0-0_
  6
CONTINUOUS
 62
    7
 10
828.17053411583515
 20
622.49180209734436
 11
828.14519703618942
 21
622.26720865731022
  0
LINE
  8
_0-0_
  6
CONTINUOUS
 62
    7
 10
828.14519703618942
 20
622.26720865731022
 11
828.01646601160655
 21
621.95700271949636
  0
LINE
  8
_0-0_
  6
CONTINUOUS
 62
    7
 10
828.01646601160655
 20
621.95700271949636
 11
827.85301361031588
 21
621.75907404777786
  0
LINE
  8
_0-0_
  6
CONTINUOUS
 62
    7
 10
827.85301361031588
 20
621.75907404777786
 11
827.79293153901017
 21
621.70718127837836
  0
LINE
  8
_0-0_
  6
CONTINUOUS
 62
    7
 10
827.79293153901017
 20
621.70718127837836
 11
827.76527239605298
 21
621.68592060351534
  0
LINE
  8
_0-0_
  6
CONTINUOUS
 62
    7
 10
827.76527239605298
 20
621.68592060351534
 11
827.49992161795319
 21
621.54527892610054
  0
LINE
  8
_0-0_
  6
CONTINUOUS
 62
    7
 10
827.49992161795319
 20
621.54527892610054
 11
827.39474823591593
 21
621.51482019666946
  0
LINE
  8
_0-0_
  6
CONTINUOUS
 62
    7
 10
827.39474823591593
 20
621.51482019666946
 11
827.17053411583515
 21
621.48924070591829
  0
LINE
  8
_0-0_
  6
CONTINUOUS
 62
    7
 10
827.17053411583515
 20
621.48924070591829
 11
819.18370113533001
 21
621.48924070591829
  0
LINE
  8
_0-0_
  6
CONTINUOUS
 62
    7
 10
819.18370113533001
 20
621.48924070591829
 11
819.02952900531591
 21
621.50152383328805
  0
LINE
  8
_0-0_
  6
CONTINUOUS
 62
    7
 10
819.03384108909972
 20
621.50084365278576
 11
818.79012404174443
 21
621.55302211743401
  0
LINE
  8
_0-0_
  6
CONTINUOUS
 62
    7
 10
818.79012404174443
 20
621.55302211743401
 11
818.55902029733068
 21
621.65052183191392
  0
LINE
  8
_0-0_
  6
CONTINUOUS
 62
    7
 10
818.55902029733068
 20
621.65052183191392
 11
818.35098971932871
 21
621.78838220542275
  0
LINE
  8
_0-0_
  6
CONTINUOUS
 62
    7
 10
818.35098971932871
 20
621.78838220542275
 11
818.17394072497245
 21
621.95978139174485
  0
LINE
  8
_0-0_
  6
CONTINUOUS
 62
    7
 10
818.1845787096064
 20
621.947521901237
 11
818.2118220033841
 21
621.9255285587617
  0
LINE
  8
_0-0_
  6
CONTINUOUS
 62
    7
 10
818.2118220033841
 20
621.9255285587617
 11
818.357025211733
 21
621.90014120116734
  0
LINE
  8
_0-0_
  6
CONTINUOUS
 62
    7
 10
818.35702521173323
 20
621.90014120116689
 11
818.35731715377574
 21
621.9001528033848
  0
LINE
  8
_0-0_
  6
CONTINUOUS
 62
    7
 10
818.35731715377574
 20
621.9001528033848
 11
827.10787469005709
 21
621.9001528033848
  0
LINE
  8
_0-0_
  6
CONTINUOUS
 62
    7
 10
827.10787469005709
 20
621.90015280338253
 11
827.10839839095559
 21
621.90014120116712
  0
LINE
  8
_0-0_
  6
CONTINUOUS
 62
    7
 10
827.10839839095559
 20
621.90014120116712
 11
827.44226479951283
 21
621.92552855876488
  0
LINE
  8
_0-0_
  6
CONTINUOUS
 62
    7
 10
827.44226479951283
 20
621.92552855876488
 11
827.74549563241965
 21
622.02807089814746
  0
LINE
  8
_0-0_
  6
CONTINUOUS
 62
    7
 10
827.74549563241965
 20
622.02807089814746
 11
827.98390474717473
 21
622.19615391717889
  0
LINE
  8
_0-0_
  6
CONTINUOUS
 62
    7
 10
827.98390474717473
 20
622.19615391717889
 11
828.1306142856015
 21
622.41071920325589
  0
LINE
  8
_0-0_
  6
CONTINUOUS
 62
    7
 10
828.1306142856015
 20
622.41071920325589
 11
828.1691659197412
 21
622.57212254785713
  0
LINE
  8
_0-0_
  6
CONTINUOUS
 62
    7
 10
828.1691659197412
 20
622.57212254785713
 11
828.17053411583515
 21
622.60920032602849
  0
LINE
  8
_0-0_
  6
CONTINUOUS
 62
    7
 10
827.8530089740882
 20
621.75898078105115
 11
827.76532971870779
 21
621.686503841084
  0
LINE
  8
_0-0_
  6
CONTINUOUS
 62
    7
 10
827.76532971870779
 20
621.686503841084
 11
827.73593132610051
 21
621.66575000383909
  0
LINE
  8
_0-0_
  6
CONTINUOUS
 62
    7
 10
827.73593132610051
 20
621.66575000383909
 11
827.46267199126487
 21
621.53640512391053
  0
LINE
  8
_0-0_
  6
CONTINUOUS
 62
    7
 10
827.46267199126487
 20
621.53640512391053
 11
827.39354069869808
 21
621.51863711867213
  0
LINE
  8
_0-0_
  6
CONTINUOUS
 62
    7
 10
827.39354069869808
 20
621.51863711867213
 11
827.16165052641281
 21
621.49600363327295
  0
LINE
  8
_0-0_
  6
CONTINUOUS
 62
    7
 10
827.12074975720907
 20
624.40244913441097
 11
827.11981661687673
 21
624.40246587586944
  0
LINE
  8
_0-0_
  6
CONTINUOUS
 62
    7
 10
827.11981661687673
 20
624.40246587586898
 11
816.14211341690168
 21
624.40246587586921
  0
LINE
  8
_0-0_
  6
CONTINUOUS
 62
    7
 10
816.14211341690168
 20
624.40246587586921
 11
816.14160357724973
 21
624.40244913440984
  0
LINE
  8
_0-0_
  6
CONTINUOUS
 62
    7
 10
816.14160357724859
 20
624.4024491344112
 11
815.99885629087635
 21
624.43110229619469
  0
LINE
  8
_0-0_
  6
CONTINUOUS
 62
    7
 10
815.99885629087635
 20
624.43110229619469
 11
815.97586129645003
 21
624.45024919015623
  0
LINE
  8
_0-0_
  6
CONTINUOUS
 62
    7
 10
815.99206397105525
 20
624.43283956709342
 11
815.81585072576877
 21
624.66063299487678
  0
LINE
  8
_0-0_
  6
CONTINUOUS
 62
    7
 10
815.81585072576877
 20
624.66063299487678
 11
815.68435273535431
 21
624.92259203281583
  0
LINE
  8
_0-0_
  6
CONTINUOUS
 62
    7
 10
815.68435273535431
 20
624.92259203281583
 11
815.60427570914931
 21
625.20296124488846
  0
LINE
  8
_0-0_
  6
CONTINUOUS
 62
    7
 10
815.60427570914931
 20
625.20296124488846
 11
815.5772154889811
 21
625.48924070591761
  0
LINE
  8
_0-0_
  6
CONTINUOUS
 62
    7
 10
815.95482670154854
 20
624.47399828476091
 11
818.2006862546682
 21
621.92927003601358
  0
LINE
  8
_0-0_
  6
CONTINUOUS
 62
    7
 10
817.17053411583515
 20
623.09651009986987
 11
817.17053411583515
 21
609.396347487105
  0
LINE
  8
_0-0_
  6
CONTINUOUS
 62
    7
 10
817.17053411583515
 20
609.396347487105
 11
839.17053411583515
 21
609.39634748710478
  0
LINE
  8
_0-0_
  6
CONTINUOUS
 62
    7
 10
839.17053411583515
 20
609.39634748710478
 11
839.17053411583515
 21
621.48924070591829
  0
LINE
  8
_0-0_
  6
CONTINUOUS
 62
    7
 10
839.17053411583515
 20
621.48924070591829
 11
838.15736709634029
 21
621.48924070591829
  0
LINE
  8
_0-0_
  6
CONTINUOUS
 62
    7
 10
838.15736709634029
 20
621.48924070591829
 11
838.25175247599873
 21
621.49319379271151
  0
LINE
  8
_0-0_
  6
CONTINUOUS
 62
    7
 10
838.25175247599873
 20
621.49319379271151
 11
838.31701519854323
 21
621.50058174429341
  0
LINE
  8
_0-0_
  6
CONTINUOUS
 62
    7
 10
838.31883574405538
 20
621.50084299708351
 11
838.25088337255102
 21
621.49636517058138
  0
LINE
  8
_0-0_
  6
CONTINUOUS
 62
    7
 10
838.25088337255102
 20
621.49636517058138
 11
838.05351192279613
 21
621.50872576243501
  0
LINE
  8
_0-0_
  6
CONTINUOUS
 62
    7
 10
838.05354176867809
 20
621.50872440627677
 11
838.26180904633713
 21
621.49487752630944
  0
LINE
  8
_0-0_
  6
CONTINUOUS
 62
    7
 10
838.08296387095766
 20
621.50455180448898
 11
838.0632604238649
 21
621.51363640311911
  0
LINE
  8
_0-0_
  6
CONTINUOUS
 62
    7
 10
838.0632604238649
 20
621.51363640311911
 11
837.92354487993384
 21
621.64116311801035
  0
LINE
  8
_0-0_
  6
CONTINUOUS
 62
    7
 10
837.92354487993384
 20
621.64116311801035
 11
837.80483238864372
 21
621.86456784373922
  0
LINE
  8
_0-0_
  6
CONTINUOUS
 62
    7
 10
837.80483238864372
 20
621.86456784373922
 11
837.72490386818868
 21
622.15946278771548
  0
LINE
  8
_0-0_
  6
CONTINUOUS
 62
    7
 10
837.72490386818868
 20
622.15946278771548
 11
837.696813557464
 21
622.49180209734436
  0
LINE
  8
_0-0_
  6
CONTINUOUS
 62
    7
 10
837.696813557464
 20
622.49180209734436
 11
837.69681355746411
 21
625.48924070591829
  0
LINE
  8
_0-0_
  6
CONTINUOUS
 62
    7
 10
840.12505679821595
 20
625.12269776633048
 11
840.14736536912005
 21
625.09609679770188
  0
LINE
  8
_0-0_
  6
CONTINUOUS
 62
    7
 10
840.14736536912005
 20
625.09609679770188
 11
840.30366717974528
 21
624.92908023686618
  0
LINE
  8
_0-0_
  6
CONTINUOUS
 62
    7
 10
840.30366717974528
 20
624.92908023686618
 11
840.5574224226558
 21
624.70997469496388
  0
LINE
  8
_0-0_
  6
CONTINUOUS
 62
    7
 10
840.5574224226558
 20
624.70997469496388
 11
840.81895858544669
 21
624.53757555409106
  0
LINE
  8
_0-0_
  6
CONTINUOUS
 62
    7
 10
840.81895858544669
 20
624.53757555409106
 11
841.05860527202003
 21
624.43110229619401
  0
LINE
  8
_0-0_
  6
CONTINUOUS
 62
    7
 10
841.05860527202003
 20
624.43110229619401
 11
841.24924901304848
 21
624.40244913441143
  0
LINE
  8
_0-0_
  6
CONTINUOUS
 62
    7
 10
841.24924901304666
 20
624.40244913440961
 11
841.24967231372739
 21
624.40246587586898
  0
LINE
  8
_0-0_
  6
CONTINUOUS
 62
    7
 10
841.24967231372739
 20
624.40246587586898
 11
842.70442021631811
 21
624.40246587586898
  0
LINE
  8
_0-0_
  6
CONTINUOUS
 62
    7
 10
842.70442021631811
 20
624.40246587586898
 11
840.1625636744817
 21
621.9001528033848
  0
LINE
  8
_0-0_
  6
CONTINUOUS
 62
    7
 10
840.1625636744817
 20
621.9001528033848
 11
839.04641050367297
 21
621.9001528033848
  0
LINE
  8
_0-0_
  6
CONTINUOUS
 62
    7
 10
839.04641050367297
 20
621.9001528033848
 11
839.04617874481539
 21
621.9001412011653
  0
LINE
  8
_0-0_
  6
CONTINUOUS
 62
    7
 10
839.0461787448171
 20
621.90014120116712
 11
838.85751554461058
 21
621.92552855876374
  0
LINE
  8
_0-0_
  6
CONTINUOUS
 62
    7
 10
838.85751554461058
 20
621.92552855876374
 11
838.61810632360493
 21
622.0280708981461
  0
LINE
  8
_0-0_
  6
CONTINUOUS
 62
    7
 10
838.61810632360493
 20
622.0280708981461
 11
838.35489519234545
 21
622.19615391718116
  0
LINE
  8
_0-0_
  6
CONTINUOUS
 62
    7
 10
838.35489519234545
 20
622.19615391718116
 11
838.0974601869076
 21
622.41071920325817
  0
LINE
  8
_0-0_
  6
CONTINUOUS
 62
    7
 10
838.0974601869076
 20
622.41071920325817
 11
837.93941366265176
 21
622.57212254680121
  0
LINE
  8
_0-0_
  6
CONTINUOUS
 62
    7
 10
837.93941366265176
 20
622.57212254680121
 11
837.90679334462675
 21
622.6092003258243
  0
LINE
  8
_0-0_
  6
CONTINUOUS
 62
    7
 10
844.17053411583515
 20
622.98924070591852
 11
914.17053411583538
 21
622.98924070591806
  0
LINE
  8
_0-0_
  6
CONTINUOUS
 62
    7
 10
914.17053411583538
 20
622.98924070591806
 11
914.17053411583549
 21
625.48924070591806
  0
LINE
  8
_0-0_
  6
CONTINUOUS
 62
    7
 10
914.07053411583547
 20
628.68924070591834
 11
914.07053411583547
 21
629.88924070591838
  0
LINE
  8
_0-0_
  6
CONTINUOUS
 62
    7
 10
914.07053411583547
 20
629.88924070591838
 11
896.27053411583552
 21
629.88924070591838
  0
LINE
  8
_0-0_
  6
CONTINUOUS
 62
    7
 10
896.27053411583552
 20
629.88924070591838
 11
896.27053411583552
 21
628.68924070591856
  0
LINE
  8
_0-0_
  6
CONTINUOUS
 62
    7
 10
898.67053411583549
 20
629.88924070591838
 11
898.67053411583549
 21
631.02506574432982
  0
LINE
  8
_0-0_
  6
CONTINUOUS
 62
    7
 10
898.67053411583549
 20
631.02506574432982
 11
898.67063971735229
 21
631.08924070591843
  0
LINE
  8
_0-0_
  6
CONTINUOUS
 62
    7
 10
897.92072615010841
 20
631.08924070589023
 11
912.42034208156372
 21
631.08924070589023
  0
LINE
  8
_0-0_
  6
CONTINUOUS
 62
    7
 10
912.42034208156372
 20
631.08924070589023
 11
912.42034208156338
 21
636.89321406845147
  0
LINE
  8
_0-0_
  6
CONTINUOUS
 62
    7
 10
912.42034208156338
 20
636.89321406845147
 11
911.96993729777637
 21
637.29800472875627
  0
LINE
  8
_0-0_
  6
CONTINUOUS
 62
    7
 10
911.96993729777637
 20
637.29800472875627
 11
911.90063122898584
 21
637.34092363762647
  0
LINE
  8
_0-0_
  6
CONTINUOUS
 62
    7
 10
911.90063122898584
 20
637.34092363762647
 11
911.51810951085361
 21
637.47061024709205
  0
LINE
  8
_0-0_
  6
CONTINUOUS
 62
    7
 10
911.51810951085361
 20
637.47061024709205
 11
910.98653322614769
 21
637.33452586045905
  0
LINE
  8
_0-0_
  6
CONTINUOUS
 62
    7
 10
910.98653322614769
 20
637.33452586045905
 11
910.47776189186538
 21
636.89321406845147
  0
LINE
  8
_0-0_
  6
CONTINUOUS
 62
    7
 10
910.47776189186538
 20
636.89321406845147
 11
910.47776189186629
 21
631.08924070589023
  0
LINE
  8
_0-0_
  6
CONTINUOUS
 62
    7
 10
911.67053411583549
 20
631.08924070591843
 11
911.67053411583549
 21
629.88924070591838
  0
LINE
  8
_0-0_
  6
CONTINUOUS
 62
    7
 10
911.59553411583556
 20
622.98924070591852
 11
911.59553411583579
 21
615.87424070591851
  0
LINE
  8
_0-0_
  6
CONTINUOUS
 62
    7
 10
911.59553411583579
 20
615.87424070591851
 11
910.79553411583572
 21
615.07424070591833
  0
LINE
  8
_0-0_
  6
CONTINUOUS
 62
    7
 10
910.79553411583572
 20
615.07424070591833
 11
899.54553411583538
 21
615.07424070591833
  0
LINE
  8
_0-0_
  6
CONTINUOUS
 62
    7
 10
899.54553411583538
 20
615.07424070591833
 11
898.74553411583543
 21
615.87424070591828
  0
LINE
  8
_0-0_
  6
CONTINUOUS
 62
    7
 10
898.74553411583543
 20
615.87424070591828
 11
898.74553411583543
 21
622.98924070591829
  0
LINE
  8
_0-0_
  6
CONTINUOUS
 62
    7
 10
898.74553411583543
 20
622.18924070591856
 11
859.59553411583545
 21
622.18924070591856
  0
LINE
  8
_0-0_
  6
CONTINUOUS
 62
    7
 10
859.59553411583545
 20
622.98924070591829
 11
859.59553411583545
 21
615.87424070591828
  0
LINE
  8
_0-0_
  6
CONTINUOUS
 62
    7
 10
859.59553411583545
 20
615.87424070591828
 11
858.79553411583549
 21
615.0742407059181
  0
LINE
  8
_0-0_
  6
CONTINUOUS
 62
    7
 10
858.79553411583549
 20
615.0742407059181
 11
847.54553411583515
 21
615.0742407059181
  0
LINE
  8
_0-0_
  6
CONTINUOUS
 62
    7
 10
847.54553411583515
 20
615.0742407059181
 11
846.7455341158352
 21
615.87424070591806
  0
LINE
  8
_0-0_
  6
CONTINUOUS
 62
    7
 10
846.7455341158352
 20
615.87424070591806
 11
846.7455341158352
 21
622.98924070591806
  0
LINE
  8
_0-0_
  6
CONTINUOUS
 62
    7
 10
844.17053411583515
 20
622.98924070591852
 11
844.17053411583515
 21
625.48924070591852
  0
LINE
  8
_0-0_
  6
CONTINUOUS
 62
    7
 10
845.92072615010738
 20
636.89321406845124
 11
846.86977546086723
 21
637.22400317774964
  0
LINE
  8
_0-0_
  6
CONTINUOUS
 62
    7
 10
846.86977546086723
 20
637.22400317774964
 11
847.84494912920218
 21
637.42680959521476
  0
LINE
  8
_0-0_
  6
CONTINUOUS
 62
    7
 10
847.84494912920218
 20
637.42680959521476
 11
849.18673444227829
 21
637.44060613562306
  0
LINE
  8
_0-0_
  6
CONTINUOUS
 62
    7
 10
849.18673444227829
 20
637.44060613562306
 11
850.54849346059768
 21
637.14224560625371
  0
LINE
  8
_0-0_
  6
CONTINUOUS
 62
    7
 10
850.54849346059768
 20
637.14224560625371
 11
851.2279539261383
 21
636.89321406845124
  0
LINE
  8
_0-0_
  6
CONTINUOUS
 62
    7
 10
851.2279539261383
 20
636.89321406845124
 11
853.12671439511132
 21
637.33452586045905
  0
LINE
  8
_0-0_
  6
CONTINUOUS
 62
    7
 10
853.12671439511132
 20
637.33452586045905
 11
855.11058409773227
 21
637.47061024709205
  0
LINE
  8
_0-0_
  6
CONTINUOUS
 62
    7
 10
855.11058409773227
 20
637.47061024709205
 11
856.79682835479957
 21
637.29800472875604
  0
LINE
  8
_0-0_
  6
CONTINUOUS
 62
    7
 10
856.79682835479957
 20
637.29800472875604
 11
858.47776189186516
 21
636.89321406845124
  0
LINE
  8
_0-0_
  6
CONTINUOUS
 62
    7
 10
858.47776189186516
 20
636.89321406845124
 11
858.47776189186607
 21
631.08924070589001
  0
LINE
  8
_0-0_
  6
CONTINUOUS
 62
    7
 10
859.67053411583538
 20
631.0892407059182
 11
859.67053411583538
 21
629.88924070591816
  0
LINE
  8
_0-0_
  6
CONTINUOUS
 62
    7
 10
860.42034208156338
 20
631.08924070589001
 11
860.42034208156315
 21
636.89321406845124
  0
LINE
  8
_0-0_
  6
CONTINUOUS
 62
    7
 10
860.42034208156315
 20
636.89321406845124
 11
859.96993729777614
 21
637.29800472875581
  0
LINE
  8
_0-0_
  6
CONTINUOUS
 62
    7
 10
859.96993729777614
 20
637.29800472875581
 11
859.9006312289855
 21
637.34092363762602
  0
LINE
  8
_0-0_
  6
CONTINUOUS
 62
    7
 10
859.9006312289855
 20
637.34092363762602
 11
859.51810951085338
 21
637.47061024709183
  0
LINE
  8
_0-0_
  6
CONTINUOUS
 62
    7
 10
859.51810951085338
 20
637.47061024709183
 11
858.98653322614746
 21
637.33452586045883
  0
LINE
  8
_0-0_
  6
CONTINUOUS
 62
    7
 10
858.98653322614746
 20
637.33452586045883
 11
858.47776189186516
 21
636.89321406845124
  0
LINE
  8
_0-0_
  6
CONTINUOUS
 62
    7
 10
859.47053411583511
 20
637.58924070589001
 11
846.8705341158352
 21
637.58924070589001
  0
LINE
  8
_0-0_
  6
CONTINUOUS
 62
    7
 10
846.8705341158352
 20
637.58924070589001
 11
846.4338914690095
 21
637.33714495620552
  0
LINE
  8
_0-0_
  6
CONTINUOUS
 62
    7
 10
846.44043700268617
 20
637.34092363762693
 11
846.37113093389553
 21
637.29800472875672
  0
LINE
  8
_0-0_
  6
CONTINUOUS
 62
    7
 10
846.37113093389553
 20
637.29800472875672
 11
845.92072615010738
 21
636.89321406845124
  0
LINE
  8
_0-0_
  6
CONTINUOUS
 62
    7
 10
845.92072615010738
 20
636.89321406845124
 11
845.92072615010807
 21
631.08924070589001
  0
LINE
  8
_0-0_
  6
CONTINUOUS
 62
    7
 10
845.92072615010807
 20
631.08924070589001
 11
860.42034208156338
 21
631.08924070589001
  0
LINE
  8
_0-0_
  6
CONTINUOUS
 62
    7
 10
862.07053411583524
 20
629.88924070591816
 11
844.27053411583518
 21
629.88924070591816
  0
LINE
  8
_0-0_
  6
CONTINUOUS
 62
    7
 10
844.27053411583518
 20
629.88924070591816
 11
844.27053411583518
 21
628.68924070591811
  0
LINE
  8
_0-0_
  6
CONTINUOUS
 62
    7
 10
808.17053411583515
 20
624.93924070591834
 11
808.17053411583515
 21
613.68924070591834
  0
LINE
  8
_0-0_
  6
CONTINUOUS
 62
    7
 10
808.17053411583515
 20
613.68924070591834
 11
811.37053411583508
 21
613.68924070591834
  0
LINE
  8
_0-0_
  6
CONTINUOUS
 62
    7
 10
811.37053411583508
 20
613.68924070591834
 11
811.37053411583508
 21
624.98924070591829
  0
LINE
  8
_0-0_
  6
CONTINUOUS
 62
    7
 10
811.87053411583508
 20
625.48924070591829
 11
944.17053411583527
 21
625.48924070591784
  0
LINE
  8
_0-0_
  6
CONTINUOUS
 62
    7
 10
944.17053411583527
 20
625.48924070591784
 11
944.17053411583527
 21
628.68924070591765
  0
LINE
  8
_0-0_
  6
CONTINUOUS
 62
    7
 10
944.17053411583527
 20
628.68924070591765
 11
811.92053411583515
 21
628.68924070591834
  0
LINE
  8
_0-0_
  6
CONTINUOUS
 62
    7
 10
827.12074975720907
 20
624.40244913441097
 11
827.45414078460885
 21
624.43110229619469
  0
LINE
  8
_0-0_
  6
CONTINUOUS
 62
    7
 10
827.45414078460885
 20
624.43110229619469
 11
827.75555729668895
 21
624.53757555409152
  0
LINE
  8
_0-0_
  6
CONTINUOUS
 62
    7
 10
827.75555729668895
 20
624.53757555409152
 11
827.99102108768909
 21
624.70997469496592
  0
LINE
  8
_0-0_
  6
CONTINUOUS
 62
    7
 10
827.99102108768909
 20
624.70997469496592
 11
828.13398987044491
 21
624.92908023686982
  0
LINE
  8
_0-0_
  6
CONTINUOUS
 62
    7
 10
828.13398987044491
 20
624.92908023686982
 11
828.16985841624148
 21
625.09609679767527
  0
LINE
  8
_0-0_
  6
CONTINUOUS
 62
    7
 10
828.16985841624148
 20
625.09609679767527
 11
828.17053411583515
 21
625.12269776643348
  0
LINE
  8
_0-0_
  6
CONTINUOUS
 62
    7
 10
838.46342733464883
 20
608.68924070591856
 11
839.17053411583515
 21
609.39634748710478
  0
LINE
  8
_0-0_
  6
CONTINUOUS
 62
    7
 10
838.46342733464883
 20
608.68924070591856
 11
817.87764089702148
 21
608.68924070591856
  0
LINE
  8
_0-0_
  6
CONTINUOUS
 62
    7
 10
817.87764089702148
 20
608.68924070591856
 11
817.17053411583515
 21
609.396347487105
  0
LINE
  8
_0-0_
  6
CONTINUOUS
 62
    7
 10
855.72588241047549
 20
602.48924070591875
 11
854.81624198527572
 21
594.78991910754075
  0
LINE
  8
_0-0_
  6
CONTINUOUS
 62
    7
 10
854.81624198527572
 20
594.78991910754075
 11
854.74190191609091
 21
586.93210065411063
  0
LINE
  8
_0-0_
  6
CONTINUOUS
 62
    7
 10
854.74190191609091
 20
586.93210065411063
 11
855.5054119089823
 21
579.18529178484141
  0
LINE
  8
_0-0_
  6
CONTINUOUS
 62
    7
 10
855.5054119089823
 20
579.18529178484141
 11
857.08058519713836
 21
571.815191546611
  0
LINE
  8
_0-0_
  6
CONTINUOUS
 62
    7
 10
857.08058519713825
 20
571.81519154661032
 11
857.48891122405234
 21
570.61773693368195
  0
LINE
  8
_0-0_
  6
CONTINUOUS
 62
    7
 10
857.48891122405234
 20
570.61773693368195
 11
858.22839074075944
 21
569.25151140519347
  0
LINE
  8
_0-0_
  6
CONTINUOUS
 62
    7
 10
858.22839074075944
 20
569.25151140519347
 11
859.14273608292865
 21
568.24033221925856
  0
LINE
  8
_0-0_
  6
CONTINUOUS
 62
    7
 10
859.14273608292865
 20
568.24033221925856
 11
860.17053411583504
 21
567.56080208332151
  0
LINE
  8
_0-0_
  6
CONTINUOUS
 62
    7
 10
860.17053411583504
 20
567.56080208332151
 11
860.17053411583504
 21
565.48924070156386
  0
LINE
  8
_0-0_
  6
CONTINUOUS
 62
    7
 10
860.17053411583504
 20
565.48924070156386
 11
862.67053411583515
 21
565.48924070156386
  0
LINE
  8
_0-0_
  6
CONTINUOUS
 62
    7
 10
862.67053411583515
 20
565.48924070156386
 11
862.67053411583515
 21
607.39212674905593
  0
LINE
  8
_0-0_
  6
CONTINUOUS
 62
    7
 10
862.39760869179463
 20
607.36935387323115
 11
863.83441293645171
 21
607.48924070591852
  0
LINE
  8
_0-0_
  6
CONTINUOUS
 62
    7
 10
862.39760869179463
 20
607.36935387323115
 11
861.13394347703525
 21
606.97128011728887
  0
LINE
  8
_0-0_
  6
CONTINUOUS
 62
    7
 10
861.13394347703525
 20
606.97128011728887
 11
860.25480290207793
 21
606.39738472053887
  0
LINE
  8
_0-0_
  6
CONTINUOUS
 62
    7
 10
860.25480290207793
 20
606.39738472053887
 11
859.52518918700207
 21
605.58441647243626
  0
LINE
  8
_0-0_
  6
CONTINUOUS
 62
    7
 10
859.52518918700207
 20
605.58441647243626
 11
858.95004514936602
 21
604.52234348248044
  0
LINE
  8
_0-0_
  6
CONTINUOUS
 62
    7
 10
858.95004514936602
 20
604.52234348248044
 11
858.52200131232814
 21
603.23925061558202
  0
LINE
  8
_0-0_
  6
CONTINUOUS
 62
    7
 10
858.52200131232814
 20
603.23925061558202
 11
858.35223222577656
 21
602.48924070591897
  0
LINE
  8
_0-0_
  6
CONTINUOUS
 62
    7
 10
858.35223222577645
 20
602.48924070591875
 11
857.33218284168538
 21
594.77950706414913
  0
LINE
  8
_0-0_
  6
CONTINUOUS
 62
    7
 10
857.33218284168538
 20
594.77950706414913
 11
857.25307003160594
 21
586.87111161659914
  0
LINE
  8
_0-0_
  6
CONTINUOUS
 62
    7
 10
857.25307003160594
 20
586.87111161659914
 11
858.11830248402134
 21
579.1047988830785
  0
LINE
  8
_0-0_
  6
CONTINUOUS
 62
    7
 10
858.11830248402134
 20
579.1047988830785
 11
859.89060042220854
 21
571.815191546611
  0
LINE
  8
_0-0_
  6
CONTINUOUS
 62
    7
 10
859.89060042220808
 20
571.81519154661078
 11
860.39161964995742
 21
570.55212721637258
  0
LINE
  8
_0-0_
  6
CONTINUOUS
 62
    7
 10
860.39161964995742
 20
570.55212721637258
 11
861.06587380964083
 21
569.44418064564024
  0
LINE
  8
_0-0_
  6
CONTINUOUS
 62
    7
 10
861.06587380964083
 20
569.44418064564024
 11
861.52442449338434
 21
568.90536069837412
  0
LINE
  8
_0-0_
  6
CONTINUOUS
 62
    7
 10
861.52442449338434
 20
568.90536069837412
 11
861.52442449338434
 21
607.09428757447517
  0
LINE
  8
_0-0_
  6
CONTINUOUS
 62
    7
 10
860.42362469511374
 20
607.48924070591852
 11
859.33947345928777
 21
607.39262200156031
  0
LINE
  8
_0-0_
  6
CONTINUOUS
 62
    7
 10
859.33947345928777
 20
607.39262200156031
 11
858.41883088427289
 21
607.10279076729466
  0
LINE
  8
_0-0_
  6
CONTINUOUS
 62
    7
 10
858.41883088427289
 20
607.10279076729466
 11
857.6163431136581
 21
606.59841304283054
  0
LINE
  8
_0-0_
  6
CONTINUOUS
 62
    7
 10
857.6163431136581
 20
606.59841304283054
 11
856.95981727195908
 21
605.88290129311645
  0
LINE
  8
_0-0_
  6
CONTINUOUS
 62
    7
 10
856.95981727195908
 20
605.88290129311645
 11
856.42921281848214
 21
604.95004966429042
  0
LINE
  8
_0-0_
  6
CONTINUOUS
 62
    7
 10
856.42921281848214
 20
604.95004966429042
 11
856.02210303583115
 21
603.80830115830827
  0
LINE
  8
_0-0_
  6
CONTINUOUS
 62
    7
 10
856.02210303583115
 20
603.80830115830827
 11
855.72588241047538
 21
602.48924070591897
  0
LINE
  8
_0-0_
  6
CONTINUOUS
 62
    7
 10
860.42362469511374
 20
607.48924070591875
 11
897.91744353655702
 21
607.48924070591875
  0
LINE
  8
_0-0_
  6
CONTINUOUS
 62
    7
 10
897.91744353655702
 20
607.48924070591852
 11
899.12776366964192
 21
607.36645166789958
  0
LINE
  8
_0-0_
  6
CONTINUOUS
 62
    7
 10
899.12776366964192
 20
607.36645166789958
 11
900.21489918837938
 21
606.95384556320369
  0
LINE
  8
_0-0_
  6
CONTINUOUS
 62
    7
 10
900.21489918837938
 20
606.95384556320369
 11
901.10069772814893
 21
606.2342556091844
  0
LINE
  8
_0-0_
  6
CONTINUOUS
 62
    7
 10
901.10069772814893
 20
606.2342556091844
 11
901.82350182771688
 21
605.13853853053888
  0
LINE
  8
_0-0_
  6
CONTINUOUS
 62
    7
 10
901.82350182771688
 20
605.13853853053888
 11
902.27984528637569
 21
603.94546702749335
  0
LINE
  8
_0-0_
  6
CONTINUOUS
 62
    7
 10
902.27984528637569
 20
603.94546702749335
 11
902.61518582119538
 21
602.48924070591875
  0
LINE
  8
_0-0_
  6
CONTINUOUS
 62
    7
 10
902.61518582119515
 20
602.48924070591875
 11
903.52482624639515
 21
594.78991910754075
  0
LINE
  8
_0-0_
  6
CONTINUOUS
 62
    7
 10
903.52482624639515
 20
594.78991910754075
 11
903.59916631557985
 21
586.93210065411063
  0
LINE
  8
_0-0_
  6
CONTINUOUS
 62
    7
 10
903.59916631557985
 20
586.93210065411063
 11
902.83565632268846
 21
579.18529178484141
  0
LINE
  8
_0-0_
  6
CONTINUOUS
 62
    7
 10
902.83565632268846
 20
579.18529178484141
 11
901.26048303453251
 21
571.815191546611
  0
LINE
  8
_0-0_
  6
CONTINUOUS
 62
    7
 10
901.26048303453285
 20
571.81519154661078
 11
900.81465527869932
 21
570.52888626898289
  0
LINE
  8
_0-0_
  6
CONTINUOUS
 62
    7
 10
900.81465527869932
 20
570.52888626898289
 11
900.21080595438934
 21
569.39565014661321
  0
LINE
  8
_0-0_
  6
CONTINUOUS
 62
    7
 10
900.21080595438934
 20
569.39565014661321
 11
899.48480352208139
 21
568.50381978677456
  0
LINE
  8
_0-0_
  6
CONTINUOUS
 62
    7
 10
899.48480352208139
 20
568.50381978677456
 11
898.6031175490541
 21
567.80416713819318
  0
LINE
  8
_0-0_
  6
CONTINUOUS
 62
    7
 10
898.6031175490541
 20
567.80416713819318
 11
898.17053411583515
 21
567.56080208332105
  0
LINE
  8
_0-0_
  6
CONTINUOUS
 62
    7
 10
898.17053411583515
 20
567.56080208332105
 11
898.17053411583515
 21
565.48924070156386
  0
LINE
  8
_0-0_
  6
CONTINUOUS
 62
    7
 10
898.17053411583515
 20
565.48924070156386
 11
895.67053411583515
 21
565.48924070156386
  0
LINE
  8
_0-0_
  6
CONTINUOUS
 62
    7
 10
895.67053411583515
 20
565.48924070156386
 11
895.67053411583515
 21
607.3861870655121
  0
LINE
  8
_0-0_
  6
CONTINUOUS
 62
    7
 10
896.02542860998756
 20
607.35476354535285
 11
897.02823744839873
 21
607.05123439571548
  0
LINE
  8
_0-0_
  6
CONTINUOUS
 62
    7
 10
897.02823744839873
 20
607.05123439571548
 11
897.9061285370924
 21
606.54496554414413
  0
LINE
  8
_0-0_
  6
CONTINUOUS
 62
    7
 10
897.9061285370924
 20
606.54496554414413
 11
898.62531934395054
 21
605.83783849767997
  0
LINE
  8
_0-0_
  6
CONTINUOUS
 62
    7
 10
898.62531934395054
 20
605.83783849767997
 11
899.20948729221789
 21
604.91841063044649
  0
LINE
  8
_0-0_
  6
CONTINUOUS
 62
    7
 10
899.20948729221789
 20
604.91841063044649
 11
899.65980779187339
 21
603.79210285113936
  0
LINE
  8
_0-0_
  6
CONTINUOUS
 62
    7
 10
899.65980779187339
 20
603.79210285113936
 11
899.98883600589443
 21
602.48924070591897
  0
LINE
  8
_0-0_
  6
CONTINUOUS
 62
    7
 10
899.98883600589431
 20
602.48924070591875
 11
901.00888538998549
 21
594.77950706414913
  0
LINE
  8
_0-0_
  6
CONTINUOUS
 62
    7
 10
901.00888538998549
 20
594.77950706414913
 11
901.08799820006482
 21
586.87111161659914
  0
LINE
  8
_0-0_
  6
CONTINUOUS
 62
    7
 10
901.08799820006482
 20
586.87111161659914
 11
900.22276574764942
 21
579.10479888307827
  0
LINE
  8
_0-0_
  6
CONTINUOUS
 62
    7
 10
900.22276574764942
 20
579.10479888307827
 11
898.45046780946222
 21
571.815191546611
  0
LINE
  8
_0-0_
  6
CONTINUOUS
 62
    7
 10
898.45046780946245
 20
571.815191546611
 11
898.09120817546409
 21
570.8572115828083
  0
LINE
  8
_0-0_
  6
CONTINUOUS
 62
    7
 10
898.09120817546409
 20
570.8572115828083
 11
897.65669290685378
 21
570.01216734478271
  0
LINE
  8
_0-0_
  6
CONTINUOUS
 62
    7
 10
897.65669290685378
 20
570.01216734478271
 11
896.81664373828642
 21
568.90536069837367
  0
LINE
  8
_0-0_
  6
CONTINUOUS
 62
    7
 10
896.81664373828642
 20
568.90536069837367
 11
896.81664373828642
 21
607.11527936265134
  0
LINE
  8
_0-0_
  6
CONTINUOUS
 62
    7
 10
896.02542860998756
 20
607.35476354535285
 11
894.50665529521905
 21
607.48924070591875
  0
LINE
  8
_0-0_
  6
CONTINUOUS
 62
    7
 10
895.67053411583515
 20
605.92450408003219
 11
862.67053411583515
 21
605.92450408003219
  0
LINE
  8
_0-0_
  6
CONTINUOUS
 62
    7
 10
867.17053411583515
 20
600.48924068603969
 11
891.17053411583515
 21
600.48924068603947
  0
LINE
  8
_0-0_
  6
CONTINUOUS
 62
    7
 10
893.17053411583515
 20
598.48924067917687
 11
893.17053411583493
 21
552.48924068603947
  0
LINE
  8
_0-0_
  6
CONTINUOUS
 62
    7
 10
891.17053411583493
 20
550.48924068603947
 11
867.17053411545896
 21
550.4892406905617
  0
LINE
  8
_0-0_
  6
CONTINUOUS
 62
    7
 10
865.17053411583493
 20
552.48924068603947
 11
865.17053411583515
 21
598.4892406791771
  0
LINE
  8
_0-0_
  6
CONTINUOUS
 62
    7
 10
865.17053411583504
 20
581.48924068603969
 11
862.67053411583504
 21
581.48924068603969
  0
LINE
  8
_0-0_
  6
CONTINUOUS
 62
    7
 10
854.7836421821097
 20
581.15650910692329
 11
854.95339288288278
 21
582.0149382627294
  0
LINE
  8
_0-0_
  6
CONTINUOUS
 62
    7
 10
854.95339288288278
 20
582.0149382627294
 11
855.09561892220336
 21
582.37393313856569
  0
LINE
  8
_0-0_
  6
CONTINUOUS
 62
    7
 10
855.08383838127497
 20
582.40707908397121
 11
854.78053411581368
 21
581.88174068603962
  0
LINE
  8
_0-0_
  6
CONTINUOUS
 62
    7
 10
854.78053411581368
 20
581.88174068603962
 11
854.78053411581368
 21
569.09674068603977
  0
LINE
  8
_0-0_
  6
CONTINUOUS
 62
    7
 10
854.78053411581368
 20
569.09674068603977
 11
855.35148918668563
 21
568.10781749445027
  0
LINE
  8
_0-0_
  6
CONTINUOUS
 62
    7
 10
855.35148918668563
 20
568.10781749445027
 11
859.34316630123112
 21
568.10781749445027
  0
LINE
  8
_0-0_
  6
CONTINUOUS
 62
    7
 10
861.52442449338434
 20
568.90536069837412
 11
862.67053411583515
 21
568.90536069837412
  0
LINE
  8
_0-0_
  6
CONTINUOUS
 62
    7
 10
862.67053411583493
 20
569.48924068603969
 11
865.17053411583493
 21
569.48924068603969
  0
LINE
  8
_0-0_
  6
CONTINUOUS
 62
    7
 10
857.08626701132368
 20
571.79852909024498
 11
855.35148918668563
 21
571.79852909024498
  0
LINE
  8
_0-0_
  6
CONTINUOUS
 62
    7
 10
855.35148918668563
 20
571.79852909024498
 11
855.10940199576351
 21
572.73116142041272
  0
LINE
  8
_0-0_
  6
CONTINUOUS
 62
    7
 10
855.10940199576351
 20
572.73116142041272
 11
854.86760504767756
 21
574.09250655641927
  0
LINE
  8
_0-0_
  6
CONTINUOUS
 62
    7
 10
854.86760504767756
 20
574.09250655641927
 11
854.78053411581368
 21
575.48924068603969
  0
LINE
  8
_0-0_
  6
CONTINUOUS
 62
    7
 10
854.78053411581368
 20
575.48924068603969
 11
854.82581216874723
 21
576.49363090712632
  0
LINE
  8
_0-0_
  6
CONTINUOUS
 62
    7
 10
854.82581216874723
 20
576.49363090712632
 11
855.02271078932881
 21
577.84270072747267
  0
LINE
  8
_0-0_
  6
CONTINUOUS
 62
    7
 10
855.02271078932881
 20
577.84270072747267
 11
855.35148918668563
 21
579.1799522818344
  0
LINE
  8
_0-0_
  6
CONTINUOUS
 62
    7
 10
855.35148918668563
 20
579.1799522818344
 11
854.93724445912687
 21
580.08404423752427
  0
LINE
  8
_0-0_
  6
CONTINUOUS
 62
    7
 10
854.93724445912687
 20
580.08404423752427
 11
854.78053411581368
 21
581.02530807973176
  0
LINE
  8
_0-0_
  6
CONTINUOUS
 62
    7
 10
854.78053411581368
 20
581.02530807973176
 11
854.7836421821097
 21
581.15650910692329
  0
LINE
  8
_0-0_
  6
CONTINUOUS
 62
    7
 10
855.35148918668563
 20
579.1799522818344
 11
855.50623817972996
 21
579.1799522818344
  0
LINE
  8
_0-0_
  6
CENTER1
 62
    7
 10
857.67053411583504
 20
575.48924068603969
 11
912.17053411581367
 21
575.48924068603947
  0
LINE
  8
_0-0_
  6
CONTINUOUS
 62
    7
 10
904.79053411583527
 20
575.48924068603947
 11
904.70291835217245
 21
576.89471464595886
  0
LINE
  8
_0-0_
  6
CONTINUOUS
 62
    7
 10
904.70291835217245
 20
576.89471464595886
 11
904.45960840010935
 21
578.26457817155301
  0
LINE
  8
_0-0_
  6
CONTINUOUS
 62
    7
 10
904.45960840010935
 20
578.26457817155301
 11
904.2160063890642
 21
579.20304629260204
  0
LINE
  8
_0-0_
  6
CONTINUOUS
 62
    7
 10
904.2160063890642
 20
579.20304629260204
 11
904.61659361621651
 21
580.06412618135801
  0
LINE
  8
_0-0_
  6
CONTINUOUS
 62
    7
 10
904.61659361621651
 20
580.06412618135801
 11
904.78740657468757
 21
580.92792653755146
  0
LINE
  8
_0-0_
  6
CONTINUOUS
 62
    7
 10
904.78740657468757
 20
580.92792653755146
 11
904.79053411583527
 21
581.05994909588276
  0
LINE
  8
_0-0_
  6
CONTINUOUS
 62
    7
 10
904.79053411583527
 20
581.05994909588276
 11
904.63284318374861
 21
582.00710273921482
  0
LINE
  8
_0-0_
  6
CONTINUOUS
 62
    7
 10
904.63284318374861
 20
582.00710273921482
 11
904.2160063890642
 21
582.91685189916393
  0
LINE
  8
_0-0_
  6
CONTINUOUS
 62
    7
 10
904.2160063890642
 20
582.91685189916393
 11
904.79053411583527
 21
581.92174068603936
  0
LINE
  8
_0-0_
  6
CONTINUOUS
 62
    7
 10
904.79053411583527
 20
581.92174068603936
 11
904.79053411583527
 21
569.0567406860398
  0
LINE
  8
_0-0_
  6
CONTINUOUS
 62
    7
 10
904.79053411583527
 20
569.0567406860398
 11
904.2160063890642
 21
568.06162947291523
  0
LINE
  8
_0-0_
  6
CONTINUOUS
 62
    7
 10
904.2160063890642
 20
568.06162947291523
 11
904.61659361621662
 21
568.92270936167097
  0
LINE
  8
_0-0_
  6
CONTINUOUS
 62
    7
 10
904.61659361621662
 20
568.92270936167097
 11
904.78740657468757
 21
569.78650971786465
  0
LINE
  8
_0-0_
  6
CONTINUOUS
 62
    7
 10
904.78740657468757
 20
569.78650971786465
 11
904.79053411583527
 21
569.9185322761964
  0
LINE
  8
_0-0_
  6
CONTINUOUS
 62
    7
 10
904.79053411583527
 20
569.9185322761964
 11
904.63284318374872
 21
570.865685919528
  0
LINE
  8
_0-0_
  6
CONTINUOUS
 62
    7
 10
904.63284318374872
 20
570.865685919528
 11
904.2160063890642
 21
571.77543507947757
  0
LINE
  8
_0-0_
  6
CONTINUOUS
 62
    7
 10
904.2160063890642
 20
571.77543507947757
 11
904.54684206227466
 21
573.12105426186804
  0
LINE
  8
_0-0_
  6
CONTINUOUS
 62
    7
 10
904.54684206227466
 20
573.12105426186804
 11
904.74497274305531
 21
574.47856566106657
  0
LINE
  8
_0-0_
  6
CONTINUOUS
 62
    7
 10
904.74497274305531
 20
574.47856566106657
 11
904.79053411583527
 21
575.48924068603947
  0
LINE
  8
_0-0_
  6
CONTINUOUS
 62
    7
 10
904.2160063890642
 20
571.77543507947757
 11
901.24670361775668
 21
571.77543507947735
  0
LINE
  8
_0-0_
  6
CONTINUOUS
 62
    7
 10
906.79053411583504
 20
571.49120614058484
 11
907.17053411581378
 21
571.49124068603942
  0
LINE
  8
_0-0_
  6
CONTINUOUS
 62
    7
 10
907.17053411581378
 20
571.49124068603942
 11
907.17053411581378
 21
579.48724068603974
  0
LINE
  8
_0-0_
  6
CONTINUOUS
 62
    7
 10
907.17053411581378
 20
579.48724068603974
 11
906.79053411583504
 21
579.48727523149432
  0
LINE
  8
_0-0_
  6
CONTINUOUS
 62
    7
 10
906.79053411583504
 20
579.98924068603969
 11
906.79053411583504
 21
570.98924068603969
  0
LINE
  8
_0-0_
  6
CONTINUOUS
 62
    7
 10
905.29053411583504
 20
569.48924068603969
 11
904.79053411583527
 21
569.48924068603969
  0
LINE
  8
_0-0_
  6
CONTINUOUS
 62
    7
 10
904.2160063890642
 20
568.06162947291523
 11
898.92756558704491
 21
568.061629472915
  0
LINE
  8
_0-0_
  6
CONTINUOUS
 62
    7
 10
896.81664373828642
 20
568.90536069837367
 11
895.67053411583515
 21
568.90536069837412
  0
LINE
  8
_0-0_
  6
CONTINUOUS
 62
    7
 10
895.67053411583493
 20
569.48924068603947
 11
893.17053411583493
 21
569.48924068603947
  0
LINE
  8
_0-0_
  6
CONTINUOUS
 62
    7
 10
893.17053411583504
 20
581.48924068603947
 11
895.67053411583504
 21
581.48924068603947
  0
LINE
  8
_0-0_
  6
CONTINUOUS
 62
    7
 10
903.31012970663744
 20
582.91685189916416
 11
904.2160063890642
 21
582.91685189916393
  0
LINE
  8
_0-0_
  6
CONTINUOUS
 62
    7
 10
904.79053411583527
 20
581.48924068603969
 11
905.29053411583504
 21
581.48924068603969
  0
LINE
  8
_0-0_
  6
CONTINUOUS
 62
    7
 10
904.2160063890642
 20
579.20304629260204
 11
902.8384006803343
 21
579.20304629260181
  0
LINE
  8
_0-0_
  6
CONTINUOUS
 62
    7
 10
903.67053411583538
 20
590.16873263022967
 11
903.67053411583538
 21
612.48924070591852
  0
LINE
  8
_0-0_
  6
CENTER1
 62
    7
 10
905.17053411583549
 20
610.07424070591833
 11
905.17053411583549
 21
643.98924070591852
  0
LINE
  8
_0-0_
  6
CONTINUOUS
 62
    7
 10
905.12671439511155
 20
637.33452586045928
 11
903.22795392613864
 21
636.8932140684517
  0
LINE
  8
_0-0_
  6
CONTINUOUS
 62
    7
 10
903.22795392613864
 20
636.8932140684517
 11
902.54849346059791
 21
637.14224560625394
  0
LINE
  8
_0-0_
  6
CONTINUOUS
 62
    7
 10
902.54849346059791
 20
637.14224560625394
 11
901.18673444227852
 21
637.44060613562328
  0
LINE
  8
_0-0_
  6
CONTINUOUS
 62
    7
 10
901.18673444227852
 20
637.44060613562328
 11
899.8449491292024
 21
637.42680959521499
  0
LINE
  8
_0-0_
  6
CONTINUOUS
 62
    7
 10
899.8449491292024
 20
637.42680959521499
 11
898.86977546086746
 21
637.22400317775009
  0
LINE
  8
_0-0_
  6
CONTINUOUS
 62
    7
 10
898.86977546086746
 20
637.22400317775009
 11
897.9207261501075
 21
636.89321406845147
  0
LINE
  8
_0-0_
  6
CONTINUOUS
 62
    7
 10
897.9207261501075
 20
636.89321406845147
 11
898.37113093389576
 21
637.29800472875695
  0
LINE
  8
_0-0_
  6
CONTINUOUS
 62
    7
 10
898.37113093389576
 20
637.29800472875695
 11
898.44043700268628
 21
637.34092363762716
  0
LINE
  8
_0-0_
  6
CONTINUOUS
 62
    7
 10
898.43389146900984
 20
637.33714495620575
 11
898.87053411583543
 21
637.58924070589023
  0
LINE
  8
_0-0_
  6
CONTINUOUS
 62
    7
 10
898.87053411583543
 20
637.58924070589023
 11
911.47053411583545
 21
637.58924070589023
  0
LINE
  8
_0-0_
  6
CONTINUOUS
 62
    7
 10
911.47053411583545
 20
637.58924070589023
 11
911.9071767626624
 21
637.33714495620507
  0
LINE
  8
_0-0_
  6
CONTINUOUS
 62
    7
 10
910.47776189186538
 20
636.89321406845147
 11
908.79682835479991
 21
637.29800472875627
  0
LINE
  8
_0-0_
  6
CONTINUOUS
 62
    7
 10
908.79682835479991
 20
637.29800472875627
 11
907.1105840977325
 21
637.47061024709228
  0
LINE
  8
_0-0_
  6
CONTINUOUS
 62
    7
 10
907.1105840977325
 20
637.47061024709228
 11
905.12671439511155
 21
637.33452586045928
  0
LINE
  8
_0-0_
  6
CONTINUOUS
 62
    7
 10
903.22795392613864
 20
636.8932140684517
 11
903.22795392613864
 21
631.08924070589023
  0
LINE
  8
_0-0_
  6
CONTINUOUS
 62
    7
 10
897.92072615010841
 20
631.08924070589023
 11
897.9207261501075
 21
636.89321406845147
  0
LINE
  8
_0-0_
  6
CONTINUOUS
 62
    7
 10
901.17235911583532
 20
637.58924070589023
 11
901.17253411583533
 21
638.98924070591829
  0
LINE
  8
_0-0_
  6
CONTINUOUS
 62
    7
 10
901.17253411583533
 20
638.98924070591829
 11
909.16853411583566
 21
638.98924070591852
  0
LINE
  8
_0-0_
  6
CONTINUOUS
 62
    7
 10
909.16853411583566
 20
638.98924070591852
 11
909.16870911583555
 21
637.58924070589023
  0
LINE
  8
_0-0_
  6
CONTINUOUS
 62
    7
 10
911.59553411583579
 20
615.87424070591851
 11
898.74553411583543
 21
615.87424070591828
  0
LINE
  8
_0-0_
  6
CONTINUOUS
 62
    7
 10
899.13053411583542
 20
615.48924070591829
 11
859.21053411583557
 21
615.48924070591829
  0
LINE
  8
_0-0_
  6
CONTINUOUS
 62
    7
 10
859.59553411583545
 20
615.87424070591828
 11
846.7455341158352
 21
615.87424070591806
  0
LINE
  8
_0-0_
  6
CONTINUOUS
 62
    7
 10
854.67053411583538
 20
612.48924070591852
 11
854.67053411583538
 21
590.16873263022967
  0
LINE
  8
_0-0_
  6
CONTINUOUS
 62
    7
 10
855.35148918668563
 20
571.79852909024498
 11
854.95339288288278
 21
570.94280347534527
  0
LINE
  8
_0-0_
  6
CONTINUOUS
 62
    7
 10
854.95339288288278
 20
570.94280347534527
 11
854.7836421821097
 21
570.08437431953917
  0
LINE
  8
_0-0_
  6
CONTINUOUS
 62
    7
 10
854.7836421821097
 20
570.08437431953917
 11
854.78053411581368
 21
569.95317329234763
  0
LINE
  8
_0-0_
  6
CONTINUOUS
 62
    7
 10
854.78053411581368
 20
569.95317329234763
 11
854.93724445912687
 21
569.01190945014037
  0
LINE
  8
_0-0_
  6
CONTINUOUS
 62
    7
 10
854.93724445912687
 20
569.01190945014037
 11
855.35148918668563
 21
568.10781749445027
  0
LINE
  8
_0-0_
  6
CENTER1
 62
    7
 10
879.17053411583538
 20
585.16873263022967
 11
879.17053411583538
 21
620.0742407059181
  0
LINE
  8
_0-0_
  6
CONTINUOUS
 62
    7
 10
859.59553411583545
 20
619.78924070591825
 11
898.74553411583543
 21
619.78924070591825
  0
LINE
  8
_0-0_
  6
CONTINUOUS
 62
    7
 10
862.07053411583524
 20
628.68924070591811
 11
862.07053411583524
 21
629.88924070591816
  0
LINE
  8
_0-0_
  6
CONTINUOUS
 62
    7
 10
859.90717676266217
 20
637.33714495620484
 11
859.47053411583511
 21
637.58924070589001
  0
LINE
  8
_0-0_
  6
CONTINUOUS
 62
    7
 10
857.16870911583533
 20
637.58924070589001
 11
857.16853411583543
 21
638.98924070591806
  0
LINE
  8
_0-0_
  6
CONTINUOUS
 62
    7
 10
857.16853411583543
 20
638.98924070591806
 11
849.17253411583499
 21
638.98924070591806
  0
LINE
  8
_0-0_
  6
CONTINUOUS
 62
    7
 10
849.17253411583499
 20
638.98924070591806
 11
849.17235911583498
 21
637.58924070589001
  0
LINE
  8
_0-0_
  6
CONTINUOUS
 62
    7
 10
851.2279539261383
 20
636.89321406845124
 11
851.2279539261383
 21
631.08924070589001
  0
LINE
  8
_0-0_
  6
CONTINUOUS
 62
    7
 10
846.67063971735195
 20
631.0892407059182
 11
846.67053411583538
 21
631.02506574432959
  0
LINE
  8
_0-0_
  6
CONTINUOUS
 62
    7
 10
846.67053411583515
 20
631.02506574432959
 11
846.67053411583515
 21
629.88924070591816
  0
LINE
  8
_0-0_
  6
CENTER1
 62
    7
 10
853.17053411583515
 20
643.98924070591806
 11
853.17053411583538
 21
610.0742407059181
  0
CIRCLE
  8
_0-0_
  6
CONTINUOUS
 62
    7
 10
432.52695889030895
 20
143.851593047611
 40
6.2999999999999998
  0
CIRCLE
  8
_0-0_
  6
CONTINUOUS
 62
    7
 10
432.52695889030895
 20
143.851593047611
 40
4
  0
CIRCLE
  8
_0-0_
  6
CONTINUOUS
 62
    7
 10
432.52695889030895
 20
91.851593047610777
 40
6.2999999999999998
  0
CIRCLE
  8
_0-0_
  6
CONTINUOUS
 62
    7
 10
432.52695889030895
 20
91.851593047610777
 40
4
  0
CIRCLE
  8
_0-0_
  6
CONTINUOUS
 62
    7
 10
380.5269588903094
 20
143.851593047611
 40
6.2999999999999998
  0
CIRCLE
  8
_0-0_
  6
CONTINUOUS
 62
    7
 10
380.5269588903094
 20
143.851593047611
 40
4
  0
CIRCLE
  8
_0-0_
  6
CONTINUOUS
 62
    7
 10
380.5269588903094
 20
91.851593047610777
 40
6.2999999999999998
  0
CIRCLE
  8
_0-0_
  6
CONTINUOUS
 62
    7
 10
380.5269588903094
 20
91.851593047610777
 40
4
  0
CIRCLE
  8
_0-0_
  6
CONTINUOUS
 62
    7
 10
432.52695889030872
 20
143.85159304761112
 40
8.9000000000000004
  0
CIRCLE
  8
_0-0_
  6
CONTINUOUS
 62
    7
 10
432.52695889030872
 20
91.851593047611004
 40
8.9000000000000004
  0
CIRCLE
  8
_0-0_
  6
CONTINUOUS
 62
    7
 10
380.52695889030923
 20
143.85159304761112
 40
8.9000000000000004
  0
CIRCLE
  8
_0-0_
  6
CONTINUOUS
 62
    7
 10
380.52695889030923
 20
91.851593047611004
 40
8.9000000000000004
  0
CIRCLE
  8
_0-0_
  6
CONTINUOUS
 62
    7
 10
432.52695889030872
 20
143.85159304761112
 40
3.9980000000001681
  0
CIRCLE
  8
_0-0_
  6
CONTINUOUS
 62
    7
 10
432.52695889030872
 20
91.851593047610777
 40
3.9980000000001681
  0
CIRCLE
  8
_0-0_
  6
CONTINUOUS
 62
    7
 10
380.52695889030923
 20
143.85159304761112
 40
3.9980000000001681
  0
CIRCLE
  8
_0-0_
  6
CONTINUOUS
 62
    7
 10
380.52695889030917
 20
91.851593047610777
 40
3.9980000000001681
  0
CIRCLE
  8
_0-0_
  6
CONTINUOUS
 62
    7
 10
322.92695889030927
 20
66.851593047610436
 40
7.0999999046325692
  0
CIRCLE
  8
_0-0_
  6
CONTINUOUS
 62
    7
 10
322.92695889030927
 20
66.851593047610436
 40
8.0000000000000071
  0
ARC
  8
_0-0_
  6
CONTINUOUS
 62
    7
 10
322.92695889030927
 20
66.851593047610663
 40
42.5
 50
41.49692594567486
 51
48.302388516895483
  0
ARC
  8
_0-0_
  6
CONTINUOUS
 62
    7
 10
316.52695889030906
 20
75.508350007097079
 40
9.9999999999999147
 50
164.69915442754939
 51
179.99999999999949
  0
ARC
  8
_0-0_
  6
CONTINUOUS
 62
    7
 10
343.15860085422304
 20
172.85159304761117
 40
9.9999999999997584
 50
90
 51
164.69915442755109
  0
ARC
  8
_0-0_
  6
CONTINUOUS
 62
    7
 10
403.52695889030883
 20
172.85159304760998
 40
10.000000000000902
 50
45.000000000002359
 51
90
  0
ARC
  8
_0-0_
  6
CONTINUOUS
 62
    7
 10
461.52695889030963
 20
114.851593047611
 40
9.9999999999993978
 50
0
 51
45.000000000002068
  0
CIRCLE
  8
_0-0_
  6
CONTINUOUS
 62
    7
 10
351.52695889030917
 20
170.35159304761089
 40
3.2500000000000027
  0
CIRCLE
  8
_0-0_
  6
CONTINUOUS
 62
    7
 10
351.52695889030917
 20
95.351593047611004
 40
3.2500000000000027
  0
CIRCLE
  8
_0-0_
  6
CONTINUOUS
 62
    7
 10
384.02695889030917
 20
62.851593047610891
 40
3.2500000000000027
  0
CIRCLE
  8
_0-0_
  6
CONTINUOUS
 62
    7
 10
459.02695889030912
 20
62.851593047610891
 40
3.2500000000000027
  0
CIRCLE
  8
_0-0_
  6
CONTINUOUS
 62
    7
 10
322.92695889030915
 20
66.851593047610891
 40
10.000000000000011
  0
CIRCLE
  8
_0-0_
  6
CONTINUOUS
 62
    7
 10
584.82777750740297
 20
143.851593047611
 40
6.2999999999999998
  0
CIRCLE
  8
_0-0_
  6
CONTINUOUS
 62
    7
 10
584.82777750740297
 20
143.851593047611
 40
4
  0
CIRCLE
  8
_0-0_
  6
CONTINUOUS
 62
    7
 10
584.82777750740297
 20
91.851593047610777
 40
6.2999999999999998
  0
CIRCLE
  8
_0-0_
  6
CONTINUOUS
 62
    7
 10
584.82777750740297
 20
91.851593047610777
 40
4
  0
CIRCLE
  8
_0-0_
  6
CONTINUOUS
 62
    7
 10
636.82777750740252
 20
143.851593047611
 40
6.2999999999999998
  0
CIRCLE
  8
_0-0_
  6
CONTINUOUS
 62
    7
 10
636.82777750740252
 20
143.851593047611
 40
4
  0
CIRCLE
  8
_0-0_
  6
CONTINUOUS
 62
    7
 10
636.82777750740252
 20
91.851593047610777
 40
6.2999999999999998
  0
CIRCLE
  8
_0-0_
  6
CONTINUOUS
 62
    7
 10
636.82777750740252
 20
91.851593047610777
 40
4
  0
CIRCLE
  8
_0-0_
  6
CONTINUOUS
 62
    7
 10
584.8277775074032
 20
143.85159304761112
 40
8.9000000000000004
  0
CIRCLE
  8
_0-0_
  6
CONTINUOUS
 62
    7
 10
584.8277775074032
 20
91.851593047611004
 40
8.9000000000000004
  0
CIRCLE
  8
_0-0_
  6
CONTINUOUS
 62
    7
 10
636.82777750740297
 20
143.85159304761112
 40
8.9000000000000004
  0
CIRCLE
  8
_0-0_
  6
CONTINUOUS
 62
    7
 10
636.82777750740297
 20
91.851593047611004
 40
8.9000000000000004
  0
CIRCLE
  8
_0-0_
  6
CONTINUOUS
 62
    7
 10
584.82777750740343
 20
143.85159304761112
 40
3.9980000000001681
  0
CIRCLE
  8
_0-0_
  6
CONTINUOUS
 62
    7
 10
584.82777750740343
 20
91.851593047610777
 40
3.9980000000001681
  0
CIRCLE
  8
_0-0_
  6
CONTINUOUS
 62
    7
 10
636.82777750740297
 20
143.85159304761112
 40
3.9980000000001681
  0
CIRCLE
  8
_0-0_
  6
CONTINUOUS
 62
    7
 10
636.82777750740297
 20
91.851593047610777
 40
3.9980000000001681
  0
CIRCLE
  8
_0-0_
  6
CONTINUOUS
 62
    7
 10
694.42777750740288
 20
66.851593047610436
 40
7.0999999046325692
  0
CIRCLE
  8
_0-0_
  6
CONTINUOUS
 62
    7
 10
694.42777750740288
 20
66.851593047610436
 40
8.0000000000000071
  0
ARC
  8
_0-0_
  6
CONTINUOUS
 62
    7
 10
694.42777750740288
 20
66.851593047610663
 40
42.5
 50
131.69761148281111
 51
138.5030740546334
  0
ARC
  8
_0-0_
  6
CONTINUOUS
 62
    7
 10
555.82777750740252
 20
114.851593047611
 40
9.9999999999993978
 50
134.99999999999818
 51
180.00000000000068
  0
ARC
  8
_0-0_
  6
CONTINUOUS
 62
    7
 10
613.8277775074032
 20
172.85159304760998
 40
10.000000000000902
 50
90
 51
134.99999999999781
  0
ARC
  8
_0-0_
  6
CONTINUOUS
 62
    7
 10
674.19613554348894
 20
172.85159304761112
 40
9.9999999999997584
 50
15.30084557244875
 51
90
  0
ARC
  8
_0-0_
  6
CONTINUOUS
 62
    7
 10
700.82777750740297
 20
75.508350007097079
 40
9.9999999999999147
 50
0
 51
15.300845572450081
  0
CIRCLE
  8
_0-0_
  6
CONTINUOUS
 62
    7
 10
665.82777750740297
 20
170.35159304761089
 40
3.2500000000000027
  0
CIRCLE
  8
_0-0_
  6
CONTINUOUS
 62
    7
 10
665.82777750740297
 20
95.351593047610777
 40
3.2500000000000027
  0
CIRCLE
  8
_0-0_
  6
CONTINUOUS
 62
    7
 10
633.32777750740286
 20
62.851593047610891
 40
3.2500000000000027
  0
CIRCLE
  8
_0-0_
  6
CONTINUOUS
 62
    7
 10
558.32777750740297
 20
62.851593047610891
 40
3.2500000000000027
  0
CIRCLE
  8
_0-0_
  6
CONTINUOUS
 62
    7
 10
694.42777750740288
 20
66.851593047610891
 40
10.000000000000011
  0
ARC
  8
_0-0_
  6
CONTINUOUS
 62
    7
 10
428.02695884204513
 20
612.4892406576547
 40
3.0000000482631952
 50
359.99999879258212
 51
23.578176952452726
  0
ARC
  8
_0-0_
  6
CONTINUOUS
 62
    7
 10
385.02695893857134
 20
612.4892406576547
 40
3.0000000482631952
 50
156.4218209183702
 51
179.99999907824102
  0
ARC
  8
_0-0_
  6
CONTINUOUS
 62
    7
 10
431.52695890740165
 20
575.48924068603867
 40
9.9999999844754832
 50
256.99999987894819
 51
4.3829442103331546
  0
ARC
  8
_0-0_
  6
CONTINUOUS
 62
    7
 10
425.78363481336214
 20
576.81519154661078
 40
10.000000000000352
 50
247.73463768097773
 51
257.00000000000057
  0
ARC
  8
_0-0_
  6
CONTINUOUS
 62
    7
 10
431.52695890740245
 20
575.48924068603912
 40
6.3925000000000223
 50
180
 51
239.99999999999989
  0
ARC
  8
_0-0_
  6
CONTINUOUS
 62
    7
 10
431.52695890740245
 20
575.48924068603912
 40
6.3925000000000232
 50
300.00000000000551
 51
0.000000000003066
  0
ARC
  8
_0-0_
  6
CONTINUOUS
 62
    7
 10
431.52695890740245
 20
575.48924068603912
 40
6.3925000000000223
 50
239.99999999999955
 51
299.99999999999955
  0
ARC
  8
_0-0_
  6
CONTINUOUS
 62
    7
 10
431.52695890740245
 20
575.48924068603912
 40
6.3925000000000223
 50
59.99999999999978
 51
120.00000000000011
  0
ARC
  8
_0-0_
  6
CONTINUOUS
 62
    7
 10
431.52695890740245
 20
575.48924068603912
 40
6.3925000000000223
 50
120.00000000000182
 51
180.00000000000102
  0
ARC
  8
_0-0_
  6
CONTINUOUS
 62
    7
 10
431.52695890740245
 20
575.48924068603912
 40
6.3925000000000223
 50
0
 51
59.999999999999893
  0
ARC
  8
_0-0_
  6
CONTINUOUS
 62
    7
 10
431.52695890740245
 20
575.48924068603912
 40
25.000000000000007
 50
154.92024037006064
 51
70.804765892004866
  0
ARC
  8
_0-0_
  6
CONTINUOUS
 62
    7
 10
431.52695890740245
 20
575.48924068603912
 40
18.000000000000011
 50
172.65992151976329
 51
60.633955794929875
  0
ARC
  8
_0-0_
  6
CONTINUOUS
 62
    7
 10
312.52695889030934
 20
619.68924070591765
 40
6
 50
180.00000000000037
 51
270
  0
ARC
  8
_0-0_
  6
CONTINUOUS
 62
    7
 10
465.52695889030923
 20
619.68924070591765
 40
6
 50
270
 51
0
  0
ARC
  8
_0-0_
  6
CONTINUOUS
 62
    7
 10
632.32777745914041
 20
612.48924065765482
 40
3.0000000482631952
 50
359.99999879258161
 51
23.578176952452328
  0
ARC
  8
_0-0_
  6
CONTINUOUS
 62
    7
 10
589.32777755566667
 20
612.48924065765482
 40
3.0000000482631952
 50
156.4218209183714
 51
179.9999990782417
  0
ARC
  8
_0-0_
  6
CONTINUOUS
 62
    7
 10
585.82777749031027
 20
575.48924068603878
 40
9.9999999844754832
 50
175.61705578966689
 51
283.00000012105249
  0
ARC
  8
_0-0_
  6
CONTINUOUS
 62
    7
 10
591.57110158434966
 20
576.815191546611
 40
10.000000000000352
 50
282.99999999999949
 51
292.26536231902247
  0
ARC
  8
_0-0_
  6
CONTINUOUS
 62
    7
 10
585.82777749030947
 20
575.48924068603924
 40
6.3925000000000223
 50
120.0000000000002
 51
180.00000000000011
  0
ARC
  8
_0-0_
  6
CONTINUOUS
 62
    7
 10
585.82777749030947
 20
575.48924068603924
 40
6.3925000000000223
 50
59.99999999999978
 51
120.00000000000033
  0
ARC
  8
_0-0_
  6
CONTINUOUS
 62
    7
 10
585.82777749030947
 20
575.48924068603924
 40
6.3925000000000223
 50
0
 51
59.999999999999893
  0
ARC
  8
_0-0_
  6
CONTINUOUS
 62
    7
 10
585.82777749030947
 20
575.48924068603924
 40
6.3925000000000223
 50
300.00000000000011
 51
0.0000000000002289
  0
ARC
  8
_0-0_
  6
CONTINUOUS
 62
    7
 10
585.82777749030947
 20
575.48924068603924
 40
6.3925000000000223
 50
239.99999999999852
 51
299.99999999999858
  0
ARC
  8
_0-0_
  6
CONTINUOUS
 62
    7
 10
585.82777749030947
 20
575.48924068603924
 40
6.3925000000000232
 50
180.0000000000002
 51
240
  0
ARC
  8
_0-0_
  6
CONTINUOUS
 62
    7
 10
585.82777749030947
 20
575.48924068603924
 40
25.000000000000007
 50
109.195234107996
 51
25.079759629940327
  0
ARC
  8
_0-0_
  6
CONTINUOUS
 62
    7
 10
585.82777749030947
 20
575.48924068603924
 40
18.000000000000011
 50
119.36604420507149
 51
7.3400784802383328
  0
ARC
  8
_0-0_
  6
CONTINUOUS
 62
    7
 10
551.82777750740297
 20
619.68924070591765
 40
6
 50
179.99999999999986
 51
270
  0
ARC
  8
_0-0_
  6
CONTINUOUS
 62
    7
 10
704.82777750740274
 20
619.68924070591788
 40
6
 50
270
 51
0.0000000000000636
  0
ARC
  8
_0-0_
  6
CONTINUOUS
 62
    7
 10
900.67053406757213
 20
612.48924065765527
 40
3.0000000482631952
 50
359.99999879258161
 51
59.50423244874542
  0
ARC
  8
_0-0_
  6
CONTINUOUS
 62
    7
 10
857.67053416409863
 20
612.48924065765527
 40
3.0000000482631952
 50
120.4957654220875
 51
179.99999907824173
  0
ARC
  8
_0-0_
  6
CONTINUOUS
 62
    7
 10
905.29053411583504
 20
570.98924068603969
 40
1.4999999999999969
 50
270
 51
359.99999999999892
  0
ARC
  8
_0-0_
  6
CONTINUOUS
 62
    7
 10
905.29053411583504
 20
579.98924068603969
 40
1.4999999999999969
 50
0
 51
90
  0
ARC
  8
_0-0_
  6
CONTINUOUS
 62
    7
 10
867.17053411583515
 20
598.48924068603969
 40
1.999999999999972
 50
90
 51
180
  0
ARC
  8
_0-0_
  6
CONTINUOUS
 62
    7
 10
891.17053411583493
 20
552.48924068603947
 40
1.999999999999974
 50
270
 51
0.0000000000003943
  0
ARC
  8
_0-0_
  6
CONTINUOUS
 62
    7
 10
891.17053411583515
 20
598.48924068603969
 40
1.999999999999974
 50
0.0000000000004071
 51
90
  0
ARC
  8
_0-0_
  6
CONTINUOUS
 62
    7
 10
841.67053411583538
 20
625.48924070591852
 40
1.5000000000001017
 50
313.57135438020873
 51
359.99999999999187
  0
ARC
  8
_0-0_
  6
CONTINUOUS
 62
    7
 10
839.17053411583538
 20
622.89218236203078
 40
1.402941656112497
 50
270
 51
315.00000000001
  0
ARC
  8
_0-0_
  6
CONTINUOUS
 62
    7
 10
811.8705341158344
 20
624.98924070591897
 40
0.4999999999993343
 50
90
 51
180.00000000007
  0
ARC
  8
_0-0_
  6
CONTINUOUS
 62
    7
 10
811.92053411583515
 20
624.93924070591834
 40
3.7499999999999991
 50
90
 51
179.9999999999998
  0
ARC
  8
_0-0_
  6
CONTINUOUS
 62
    7
 10
159.68420225070622
 20
612.48924065765527
 40
3.0000000482631952
 50
359.99999879258212
 51
59.504232448737064
  0
ARC
  8
_0-0_
  6
CONTINUOUS
 62
    7
 10
116.68420234723271
 20
612.48924065765527
 40
3.0000000482631952
 50
120.49576542207669
 51
179.99999907824102
  0
ARC
  8
_0-0_
  6
CONTINUOUS
 62
    7
 10
112.06420229896969
 20
579.98924068603969
 40
1.4999999999999969
 50
90
 51
180
  0
ARC
  8
_0-0_
  6
CONTINUOUS
 62
    7
 10
112.06420229896969
 20
570.98924068603969
 40
1.4999999999999969
 50
180
 51
270
  0
ARC
  8
_0-0_
  6
CONTINUOUS
 62
    7
 10
150.18420229896992
 20
598.48924068603969
 40
1.999999999999972
 50
0
 51
90
  0
ARC
  8
_0-0_
  6
CONTINUOUS
 62
    7
 10
126.18420229896992
 20
598.48924068603969
 40
1.999999999999974
 50
90
 51
180
  0
ARC
  8
_0-0_
  6
CONTINUOUS
 62
    7
 10
126.18420229896992
 20
552.48924068603969
 40
1.999999999999974
 50
180
 51
270
  0
ARC
  8
_0-0_
  6
CONTINUOUS
 62
    7
 10
175.68420229896935
 20
625.48924070591852
 40
1.5000000000001017
 50
180
 51
226.42864561978371
  0
ARC
  8
_0-0_
  6
CONTINUOUS
 62
    7
 10
178.18420229896935
 20
622.89218236203078
 40
1.402941656112497
 50
224.99999999998849
 51
270
  0
ARC
  8
_0-0_
  6
CONTINUOUS
 62
    7
 10
205.48420229897022
 20
624.98924070591886
 40
0.4999999999993343
 50
359.99999999999682
 51
90.000000000149811
  0
ARC
  8
_0-0_
  6
CONTINUOUS
 62
    7
 10
205.43420229896935
 20
624.93924070591822
 40
3.7499999999999991
 50
0
 51
90
  0
ARC
  8
_0-0_
  6
CONTINUOUS
 62
    7
 10
379.52695889030923
 20
432.79409762143632
 40
8.0000000000000249
 50
90
 51
180.0000000000006
  0
ARC
  8
_0-0_
  6
CONTINUOUS
 62
    7
 10
433.52695889030872
 20
432.79409762143632
 40
7.9999999999999964
 50
0
 51
90
  0
ARC
  8
_0-0_
  6
CONTINUOUS
 62
    7
 10
379.52695889030923
 20
378.79409762143609
 40
8
 50
179.9999999999998
 51
270
  0
ARC
  8
_0-0_
  6
CONTINUOUS
 62
    7
 10
433.52695889030872
 20
378.79409762143609
 40
7.9999999999999929
 50
270
 51
0
  0
ARC
  8
_0-0_
  6
CONTINUOUS
 62
    7
 10
406.52695889030815
 20
405.79409762143609
 40
22.000000000000036
 50
251.13560202195978
 51
298.79358388637422
  0
ARC
  8
_0-0_
  6
CONTINUOUS
 62
    7
 10
406.52695889030815
 20
405.79409762143609
 40
24.50000000000005
 50
253.12188638007831
 51
295.62676718614188
  0
ARC
  8
_0-0_
  6
CONTINUOUS
 62
    7
 10
406.52695889030815
 20
405.79409762143609
 40
22.000000000000036
 50
61.206416113625608
 51
108.8643979780402
  0
ARC
  8
_0-0_
  6
CONTINUOUS
 62
    7
 10
406.52695889030815
 20
405.79409762143609
 40
24.50000000000005
 50
64.373232813858138
 51
106.87811361992169
  0
ARC
  8
_0-0_
  6
CONTINUOUS
 62
    7
 10
406.52695889030815
 20
405.79409762143609
 40
22.000000000000036
 50
135.80548912543719
 51
224.19451087456289
  0
ARC
  8
_0-0_
  6
CONTINUOUS
 62
    7
 10
406.52695889030815
 20
405.79409762143609
 40
24.50000000000005
 50
130.07699383465493
 51
229.92300616534504
  0
ARC
  8
_0-0_
  6
CONTINUOUS
 62
    7
 10
406.52695889030815
 20
405.79409762143609
 40
19.499999999999961
 50
47.642165468083967
 51
312.35783453191624
  0
ARC
  8
_0-0_
  6
CONTINUOUS
 62
    7
 10
427.02695890740233
 20
379.67409762143643
 40
1.4999999999999969
 50
180
 51
270
  0
ARC
  8
_0-0_
  6
CONTINUOUS
 62
    7
 10
436.02695890740233
 20
379.67409762143643
 40
1.4999999999999969
 50
270
 51
359.99999999999937
  0
ARC
  8
_0-0_
  6
CONTINUOUS
 62
    7
 10
408.52695890740233
 20
417.79409762143678
 40
1.999999999999972
 50
90
 51
180
  0
ARC
  8
_0-0_
  6
CONTINUOUS
 62
    7
 10
454.52695890740245
 20
417.79409762143678
 40
1.999999999999972
 50
359.9999999999992
 51
89.999999999999986
  0
ARC
  8
_0-0_
  6
CONTINUOUS
 62
    7
 10
408.52695890740233
 20
393.79409762143678
 40
1.999999999999974
 50
180
 51
270
  0
ARC
  8
_0-0_
  6
CONTINUOUS
 62
    7
 10
454.52695890740245
 20
393.79409762143678
 40
1.999999999999974
 50
270
 51
359.9999999999996
  0
ARC
  8
_0-0_
  6
CONTINUOUS
 62
    7
 10
432.52695889030872
 20
379.79409762143587
 40
6.4250000000001251
 50
192.65861501582592
 51
32.271739414116013
  0
ARC
  8
_0-0_
  6
CONTINUOUS
 62
    7
 10
432.52695889030872
 20
379.79409762143587
 40
5.6250000000002132
 50
196.73825676137051
 51
15.03273849732226
  0
ARC
  8
_0-0_
  6
CONTINUOUS
 62
    7
 10
432.52695889030872
 20
431.79409762143609
 40
5.6250000000002132
 50
343.36807946473311
 51
196.63192053526652
  0
ARC
  8
_0-0_
  6
CONTINUOUS
 62
    7
 10
432.52695889030872
 20
431.79409762143609
 40
6.4250000000001251
 50
327.06623427927872
 51
194.51205271256569
  0
CIRCLE
  8
_0-0_
  6
CONTINUOUS
 62
    7
 10
380.52695889030923
 20
379.79409762143587
 40
5.6250000000002132
  0
CIRCLE
  8
_0-0_
  6
CONTINUOUS
 62
    7
 10
380.52695889030923
 20
379.79409762143587
 40
6.4250000000001251
  0
CIRCLE
  8
_0-0_
  6
CONTINUOUS
 62
    7
 10
380.52695889030917
 20
431.79409762143609
 40
6.4250000000001251
  0
CIRCLE
  8
_0-0_
  6
CONTINUOUS
 62
    7
 10
380.52695889030917
 20
431.79409762143609
 40
5.6250000000002132
  0
ARC
  8
_0-0_
  6
CONTINUOUS
 62
    7
 10
461.52695889030963
 20
408.79409762143609
 40
9.9999999999993978
 50
314.99999999999829
 51
0.0000000000004898
  0
ARC
  8
_0-0_
  6
CONTINUOUS
 62
    7
 10
403.52695889030883
 20
350.794097621437
 40
10.000000000000902
 50
270
 51
314.9999999999979
  0
ARC
  8
_0-0_
  6
CONTINUOUS
 62
    7
 10
343.15860085422304
 20
350.79409762143587
 40
9.9999999999997584
 50
195.30084557244876
 51
270
  0
ARC
  8
_0-0_
  6
CONTINUOUS
 62
    7
 10
583.8277775074032
 20
432.79409762143632
 40
7.9999999999999964
 50
90
 51
180
  0
ARC
  8
_0-0_
  6
CONTINUOUS
 62
    7
 10
637.82777750740274
 20
432.79409762143632
 40
8.0000000000000249
 50
0
 51
90
  0
ARC
  8
_0-0_
  6
CONTINUOUS
 62
    7
 10
637.82777750740274
 20
378.79409762143609
 40
8
 50
270
 51
359.99999999999972
  0
ARC
  8
_0-0_
  6
CONTINUOUS
 62
    7
 10
583.8277775074032
 20
378.79409762143587
 40
7.9999999999999929
 50
179.99999999999986
 51
270
  0
ARC
  8
_0-0_
  6
CONTINUOUS
 62
    7
 10
610.82777750740343
 20
405.79409762143609
 40
22.000000000000036
 50
241.20641611362578
 51
288.86439797804042
  0
ARC
  8
_0-0_
  6
CONTINUOUS
 62
    7
 10
610.82777750740343
 20
405.79409762143609
 40
24.50000000000005
 50
244.37323281385827
 51
286.87811361992169
  0
ARC
  8
_0-0_
  6
CONTINUOUS
 62
    7
 10
610.82777750740343
 20
405.79409762143609
 40
22.000000000000036
 50
71.135602021959542
 51
118.79358388637429
  0
ARC
  8
_0-0_
  6
CONTINUOUS
 62
    7
 10
610.82777750740343
 20
405.79409762143609
 40
24.50000000000005
 50
73.121886380078465
 51
115.6267671861419
  0
ARC
  8
_0-0_
  6
CONTINUOUS
 62
    7
 10
610.82777750740343
 20
405.79409762143609
 40
22.000000000000036
 50
315.80548912543668
 51
44.194510874562845
  0
ARC
  8
_0-0_
  6
CONTINUOUS
 62
    7
 10
610.82777750740343
 20
405.79409762143609
 40
24.50000000000005
 50
310.07699383465513
 51
49.923006165345107
  0
ARC
  8
_0-0_
  6
CONTINUOUS
 62
    7
 10
610.82777750740343
 20
405.79409762143609
 40
19.499999999999961
 50
227.64216546808399
 51
132.35783453191613
  0
ARC
  8
_0-0_
  6
CONTINUOUS
 62
    7
 10
581.32777749030947
 20
379.67409762143643
 40
1.4999999999999969
 50
179.99999999999949
 51
270
  0
ARC
  8
_0-0_
  6
CONTINUOUS
 62
    7
 10
590.32777749030947
 20
379.67409762143643
 40
1.4999999999999969
 50
270
 51
0.0000000000005597
  0
ARC
  8
_0-0_
  6
CONTINUOUS
 62
    7
 10
562.82777749030947
 20
393.79409762143655
 40
1.999999999999974
 50
179.99999999999881
 51
270
  0
ARC
  8
_0-0_
  6
CONTINUOUS
 62
    7
 10
608.82777749030947
 20
393.79409762143655
 40
1.999999999999974
 50
270
 51
0.0000000000003943
  0
ARC
  8
_0-0_
  6
CONTINUOUS
 62
    7
 10
562.82777749030947
 20
417.79409762143655
 40
1.999999999999972
 50
90
 51
180
  0
ARC
  8
_0-0_
  6
CONTINUOUS
 62
    7
 10
608.82777749030947
 20
417.79409762143655
 40
1.999999999999972
 50
0
 51
90
  0
ARC
  8
_0-0_
  6
CONTINUOUS
 62
    7
 10
584.82777750740343
 20
379.79409762143587
 40
6.4250000000001251
 50
147.72826058588481
 51
347.34138500700772
  0
ARC
  8
_0-0_
  6
CONTINUOUS
 62
    7
 10
584.82777750740343
 20
379.79409762143587
 40
5.6250000000002132
 50
164.9672615026802
 51
343.26174323862887
  0
ARC
  8
_0-0_
  6
CONTINUOUS
 62
    7
 10
584.82777750740343
 20
431.79409762143609
 40
5.6250000000002132
 50
343.36807946473232
 51
196.63192053526717
  0
ARC
  8
_0-0_
  6
CONTINUOUS
 62
    7
 10
584.82777750740343
 20
431.79409762143609
 40
6.4250000000001251
 50
345.48794728743388
 51
212.93376572072162
  0
CIRCLE
  8
_0-0_
  6
CONTINUOUS
 62
    7
 10
636.82777750740297
 20
379.79409762143587
 40
5.6250000000002132
  0
CIRCLE
  8
_0-0_
  6
CONTINUOUS
 62
    7
 10
636.82777750740297
 20
379.79409762143587
 40
6.4250000000001251
  0
CIRCLE
  8
_0-0_
  6
CONTINUOUS
 62
    7
 10
636.82777750740297
 20
431.79409762143609
 40
6.4250000000001251
  0
CIRCLE
  8
_0-0_
  6
CONTINUOUS
 62
    7
 10
636.82777750740297
 20
431.79409762143609
 40
5.6250000000002132
  0
ARC
  8
_0-0_
  6
CONTINUOUS
 62
    7
 10
674.19613554348894
 20
350.79409762143609
 40
9.9999999999997584
 50
270
 51
344.69915442755041
  0
ARC
  8
_0-0_
  6
CONTINUOUS
 62
    7
 10
613.8277775074032
 20
350.79409762143723
 40
10.000000000000902
 50
225.00000000000253
 51
270
  0
ARC
  8
_0-0_
  6
CONTINUOUS
 62
    7
 10
555.82777750740252
 20
408.79409762143609
 40
9.9999999999993978
 50
179.9999999999998
 51
225.00000000000199
  0
TEXT
  8
_0-0_
 62
    7
 10
380.24810925551054
 20
250.349131040743
 40
10
 41
1
 50
0
  1
L
  0
TEXT
  8
_0-0_
 62
    7
 10
629.77558178298307
 20
247.57660356821555
 40
10
 41
1
 50
0
  1
R
  0
ARC
  8
_0-0_
  6
CONTINUOUS
 62
    7
 10
150.18420229896878
 20
552.48924068603969
 40
1.999999999999974
 50
270
 51
0
  0
ARC
  8
_0-0_
  6
CONTINUOUS
 62
    7
 10
867.17053411583584
 20
552.48924068603947
 40
1.999999999999974
 50
179.99999999999918
 51
269.99999998920339
  0
CIRCLE
  8
_0-8_
  6
CONTINUOUS
 62
    7
 10
322.92695889030927
 20
456.79409762143655
 40
5.0499999999999998
  0
CIRCLE
  8
_0-8_
  6
CONTINUOUS
 62
    7
 10
322.92695889030927
 20
456.79409762143655
 40
8
  0
CIRCLE
  8
_0-8_
  6
CONTINUOUS
 62
    7
 10
322.92695889030927
 20
456.79409762143655
 40
6.0000000000000009
  0
CIRCLE
  8
_0-8_
  6
CONTINUOUS
 62
    7
 10
322.92695889030927
 20
456.79409762143655
 40
18.000000000000455
  0
CIRCLE
  8
_0-8_
  6
CONTINUOUS
 62
    7
 10
322.92695889030927
 20
456.79409762143655
 40
19.400000000000453
  0
CIRCLE
  8
_0-8_
  6
CONTINUOUS
 62
    7
 10
322.92695889030927
 20
456.79409762143655
 40
20.000000000000455
  0
CIRCLE
  8
_0-8_
  6
CONTINUOUS
 62
    7
 10
694.42777750740288
 20
456.79409762143655
 40
5.0499999999999998
  0
CIRCLE
  8
_0-8_
  6
CONTINUOUS
 62
    7
 10
694.42777750740288
 20
456.79409762143655
 40
8
  0
CIRCLE
  8
_0-8_
  6
CONTINUOUS
 62
    7
 10
694.42777750740288
 20
456.79409762143655
 40
6.0000000000000009
  0
CIRCLE
  8
_0-8_
  6
CONTINUOUS
 62
    7
 10
694.42777750740288
 20
456.79409762143655
 40
18.000000000000455
  0
CIRCLE
  8
_0-8_
  6
CONTINUOUS
 62
    7
 10
694.42777750740288
 20
456.79409762143655
 40
19.400000000000453
  0
CIRCLE
  8
_0-8_
  6
CONTINUOUS
 62
    7
 10
694.42777750740288
 20
456.79409762143655
 40
20.000000000000455
  0
CIRCLE
  8
_0-8_
  6
CONTINUOUS
 62
    7
 10
322.92695889030927
 20
66.851593047610663
 40
5.0499999999999998
  0
CIRCLE
  8
_0-8_
  6
CONTINUOUS
 62
    7
 10
322.92695889030927
 20
66.851593047610663
 40
6.0000000000000009
  0
CIRCLE
  8
_0-8_
  6
CONTINUOUS
 62
    7
 10
694.42777750740288
 20
66.851593047610663
 40
5.0499999999999998
  0
CIRCLE
  8
_0-8_
  6
CONTINUOUS
 62
    7
 10
694.42777750740288
 20
66.851593047610663
 40
6.0000000000000009
  0
ARC
  8
_0-8_
  6
CONTINUOUS
 62
    7
 10
322.92695889030927
 20
66.851593047610663
 40
20.000000000000455
 50
142.04960487120633
 51
214.91520624744521
  0
ARC
  8
_0-8_
  6
CONTINUOUS
 62
    7
 10
694.42777750740288
 20
66.851593047610663
 40
20.000000000000455
 50
325.08479375255445
 51
37.950395128793716
  0
CIRCLE
  8
_0-0_
  6
CONTINUOUS
 62
    7
 10
384.02695889030917
 20
460.79409762143609
 40
5
  0
CIRCLE
  8
_0-0_
  6
CONTINUOUS
 62
    7
 10
351.52695889030917
 20
428.29409762143609
 40
5
  0
CIRCLE
  8
_0-0_
  6
CONTINUOUS
 62
    7
 10
351.52695889030917
 20
353.29409762143609
 40
5
  0
CIRCLE
  8
_0-0_
  6
CONTINUOUS
 62
    7
 10
459.02695889030912
 20
460.79409762143609
 40
5
  0
CIRCLE
  8
_0-0_
  6
CONTINUOUS
 62
    7
 10
558.32777750740297
 20
460.79409762143609
 40
5
  0
CIRCLE
  8
_0-0_
  6
CONTINUOUS
 62
    7
 10
633.32777750740286
 20
460.79409762143632
 40
5
  0
CIRCLE
  8
_0-0_
  6
CONTINUOUS
 62
    7
 10
665.82777750740297
 20
428.29409762143632
 40
5
  0
CIRCLE
  8
_0-0_
  6
CONTINUOUS
 62
    7
 10
665.82777750740297
 20
353.29409762143632
 40
5
  0
TEXT
  8
_0-f_
 62
    7
 10
5.8488520785288074
 20
6.5996035617843631
 40
4.2999999999999998
 41
0.744186046511628
 50
0
  1
AS40B-M12
  0
LINE
  8
_0-9_
  6
PHANTOM1
 62
    7
 10
169.18420229896964
 20
539.18924070591765
 11
169.18420229896964
 21
534.18924070591765
  0
LINE
  8
_0-9_
  6
PHANTOM1
 62
    7
 10
209.18420229896964
 20
534.18924070591765
 11
209.18420229896964
 21
539.18924070591765
  0
LINE
  8
_0-9_
  6
PHANTOM1
 62
    7
 10
208.58420229896905
 20
534.18924070591765
 11
208.58420229896905
 21
531.68924070591765
  0
LINE
  8
_0-9_
  6
PHANTOM1
 62
    7
 10
169.78420229897023
 20
531.68924070591765
 11
169.78420229897023
 21
534.18924070591765
  0
LINE
  8
_0-9_
  6
PHANTOM1
 62
    7
 10
171.18420229896896
 20
531.68924070591765
 11
171.18420229896896
 21
528.68924070591811
  0
LINE
  8
_0-9_
  6
PHANTOM1
 62
    7
 10
171.18420229896896
 20
528.68924070591811
 11
207.18420229897032
 21
528.68924070591811
  0
LINE
  8
_0-9_
  6
PHANTOM1
 62
    7
 10
207.18420229897032
 20
528.68924070591811
 11
207.18420229897032
 21
531.68924070591765
  0
LINE
  8
_0-9_
  6
PHANTOM1
 62
    7
 10
169.18420229896964
 20
534.18924070591765
 11
169.78420229897023
 21
534.18924070591765
  0
LINE
  8
_0-9_
  6
PHANTOM1
 62
    7
 10
208.58420229896905
 20
534.18924070591765
 11
209.18420229896964
 21
534.18924070591765
  0
LINE
  8
_0-9_
  6
PHANTOM1
 62
    7
 10
208.58420229896905
 20
531.68924070591765
 11
207.18420229897032
 21
531.68924070591765
  0
LINE
  8
_0-9_
  6
PHANTOM1
 62
    7
 10
171.18420229896896
 20
531.68924070591765
 11
169.78420229897023
 21
531.68924070591765
  0
LINE
  8
_0-0_
  6
CENTER1
 62
    7
 10
189.18420229896969
 20
528.68924070591811
 11
189.18420229896992
 21
680.38924070591747
  0
LINE
  8
_0-9_
  6
PHANTOM1
 62
    7
 10
195.18420229897015
 20
679.38924070591725
 11
194.18420229896992
 21
680.38924070591747
  0
LINE
  8
_0-9_
  6
PHANTOM1
 62
    7
 10
194.18420229896992
 20
680.38924070591747
 11
184.18420229896992
 21
680.38924070591747
  0
LINE
  8
_0-9_
  6
PHANTOM1
 62
    7
 10
184.18420229896992
 20
680.38924070591747
 11
183.18420229896969
 21
679.38924070591725
  0
LINE
  8
_0-9_
  6
PHANTOM1
 62
    7
 10
195.18420229897015
 20
652.17109866819055
 11
195.18420229897015
 21
679.38924070591725
  0
LINE
  8
_0-9_
  6
PHANTOM1
 62
    7
 10
183.18420229896969
 20
679.38924070591725
 11
183.18420229896969
 21
652.17109866819055
  0
LINE
  8
_0-0_
  6
CENTER1
 62
    7
 10
322.92695889030938
 20
528.68924070591765
 11
322.92695889030938
 21
680.38924070591702
  0
LINE
  8
_0-0_
  6
CENTER1
 62
    7
 10
694.42777750740288
 20
528.68924094434362
 11
694.42777750740288
 21
680.38924094434299
  0
LINE
  8
_0-0_
  6
CENTER1
 62
    7
 10
828.17053411583493
 20
527.68924094434385
 11
828.1705341158347
 21
679.38924094434321
  0
LINE
  8
_0-8_
  6
CONTINUOUS
 62
    7
 10
195.18420229896992
 20
642.68924070591731
 11
183.18420229896947
 21
642.68924070591731
  0
LINE
  8
_0-8_
  6
CONTINUOUS
 62
    7
 10
169.18420229896969
 20
554.0892407059174
 11
209.18420229896969
 21
554.0892407059174
  0
LINE
  8
_0-8_
  6
CONTINUOUS
 62
    7
 10
207.18420229897038
 20
543.68924070591754
 11
171.18420229897015
 21
543.68924070591754
  0
LINE
  8
_0-8_
  6
CONTINUOUS
 62
    7
 10
184.18420229896969
 20
643.68924070591754
 11
194.18420229896969
 21
643.68924070591754
  0
LINE
  8
_0-8_
  6
CONTINUOUS
 62
    7
 10
194.18420229896969
 20
643.68924070591754
 11
195.18420229896992
 21
642.68924070591731
  0
LINE
  8
_0-8_
  6
CONTINUOUS
 62
    7
 10
183.18420229896947
 20
642.68924070591731
 11
184.18420229896969
 21
643.68924070591754
  0
LINE
  8
_0-8_
  6
CONTINUOUS
 62
    7
 10
209.18420229896969
 20
549.08924070591775
 11
169.18420229896969
 21
549.08924070591775
  0
LINE
  8
_0-8_
  6
CONTINUOUS
 62
    7
 10
207.18420229897038
 20
546.58924070591775
 11
207.18420229897038
 21
543.68924070591754
  0
LINE
  8
_0-8_
  6
CONTINUOUS
 62
    7
 10
171.18420229897015
 20
543.68924070591754
 11
171.18420229897015
 21
546.58924070591775
  0
LINE
  8
_0-8_
  6
CONTINUOUS
 62
    7
 10
172.18420229922049
 20
557.08924070591752
 11
206.18420229897015
 21
557.08924070591752
  0
LINE
  8
_0-8_
  6
CONTINUOUS
 62
    7
 10
201.18420229897015
 20
557.08924070591752
 11
201.18420229897015
 21
557.4892407059175
  0
LINE
  8
_0-8_
  6
CONTINUOUS
 62
    7
 10
201.18420229897015
 20
557.4892407059175
 11
177.18420229897038
 21
557.4892407059175
  0
LINE
  8
_0-8_
  6
CONTINUOUS
 62
    7
 10
177.18420229897038
 20
557.4892407059175
 11
177.18420229897038
 21
557.08924070591752
  0
LINE
  8
_0-8_
  6
CONTINUOUS
 62
    7
 10
178.21454718436758
 20
558.25560331613747
 11
178.90558945861062
 21
558.09519359931517
  0
LINE
  8
_0-8_
  6
CONTINUOUS
 62
    7
 10
178.90558945861062
 20
558.09519359931517
 11
179.59804808295235
 21
557.97469160839876
  0
LINE
  8
_0-8_
  6
CONTINUOUS
 62
    7
 10
179.59804808295235
 20
557.97469160839876
 11
180.28975455491081
 21
557.90040484772692
  0
LINE
  8
_0-8_
  6
CONTINUOUS
 62
    7
 10
180.28975455491081
 20
557.90040484772692
 11
180.98142762841849
 21
557.87637000241989
  0
LINE
  8
_0-8_
  6
CONTINUOUS
 62
    7
 10
180.98142762841849
 20
557.87637000241989
 11
181.6645999707207
 21
557.90339377587475
  0
LINE
  8
_0-8_
  6
CONTINUOUS
 62
    7
 10
181.6645999707207
 20
557.90339377587475
 11
182.34601232916975
 21
557.97901392533151
  0
LINE
  8
_0-8_
  6
CONTINUOUS
 62
    7
 10
182.34601232916975
 20
557.97901392533151
 11
183.02391394575625
 21
558.0983922605036
  0
LINE
  8
_0-8_
  6
CONTINUOUS
 62
    7
 10
183.02391394575625
 20
558.0983922605036
 11
183.69937474166863
 21
558.25560331613747
  0
LINE
  8
_0-8_
  6
CONTINUOUS
 62
    7
 10
183.69937474166863
 20
558.25560331613747
 11
186.11005871235011
 21
558.00150049936394
  0
LINE
  8
_0-8_
  6
CONTINUOUS
 62
    7
 10
186.11005871235011
 20
558.00150049936394
 11
188.52315866842832
 21
557.88226550740853
  0
LINE
  8
_0-8_
  6
CONTINUOUS
 62
    7
 10
188.52315866842832
 20
557.88226550740853
 11
190.91244094368381
 21
557.91657513688244
  0
LINE
  8
_0-8_
  6
CONTINUOUS
 62
    7
 10
190.91244094368381
 20
557.91657513688244
 11
193.28695795237127
 21
558.09519489306001
  0
LINE
  8
_0-8_
  6
CONTINUOUS
 62
    7
 10
193.28695795237127
 20
558.09519489306001
 11
194.66902985627189
 21
558.25560331613747
  0
LINE
  8
_0-8_
  6
CONTINUOUS
 62
    7
 10
194.66902985627189
 20
558.25560331613747
 11
195.36007213051607
 21
558.09519359931517
  0
LINE
  8
_0-8_
  6
CONTINUOUS
 62
    7
 10
195.36007213051607
 20
558.09519359931517
 11
196.05253075485666
 21
557.97469160839876
  0
LINE
  8
_0-8_
  6
CONTINUOUS
 62
    7
 10
196.05253075485666
 20
557.97469160839876
 11
196.74423722681513
 21
557.90040484772692
  0
LINE
  8
_0-8_
  6
CONTINUOUS
 62
    7
 10
196.74423722681513
 20
557.90040484772692
 11
197.4359103003228
 21
557.87637000241989
  0
LINE
  8
_0-8_
  6
CONTINUOUS
 62
    7
 10
197.4359103003228
 20
557.87637000241989
 11
198.11908264262502
 21
557.90339377587475
  0
LINE
  8
_0-8_
  6
CONTINUOUS
 62
    7
 10
198.11908264262502
 20
557.90339377587475
 11
198.80049500107407
 21
557.97901392533151
  0
LINE
  8
_0-8_
  6
CONTINUOUS
 62
    7
 10
198.80049500107407
 20
557.97901392533151
 11
199.47839661766056
 21
558.0983922605036
  0
LINE
  8
_0-8_
  6
CONTINUOUS
 62
    7
 10
199.47839661766056
 20
558.0983922605036
 11
200.15385741357295
 21
558.25560331613747
  0
LINE
  8
_0-8_
  6
CONTINUOUS
 62
    7
 10
200.15385741357295
 20
558.25560331613747
 11
197.18420229897038
 21
557.4892407059175
  0
LINE
  8
_0-8_
  6
CONTINUOUS
 62
    7
 10
194.66902985627189
 20
558.25560331613747
 11
194.66902985627189
 21
563.68924070591754
  0
LINE
  8
_0-8_
  6
CONTINUOUS
 62
    7
 10
200.15385741357295
 20
563.68924070591754
 11
178.21454718436758
 21
563.68924070591754
  0
LINE
  8
_0-8_
  6
CONTINUOUS
 62
    7
 10
178.21454718436758
 20
563.68924070591754
 11
178.21454718436758
 21
558.25560331613747
  0
LINE
  8
_0-8_
  6
CONTINUOUS
 62
    7
 10
178.21454718436758
 20
558.25560331613747
 11
181.18420229897015
 21
557.4892407059175
  0
LINE
  8
_0-8_
  6
CONTINUOUS
 62
    7
 10
183.69937474166863
 20
558.25560331613747
 11
183.69937474166863
 21
563.68924070591754
  0
LINE
  8
_0-8_
  6
CONTINUOUS
 62
    7
 10
200.15385741357295
 20
563.68924070591754
 11
200.15385741357295
 21
558.25560331613747
  0
ARC
  8
_0-8_
  6
CONTINUOUS
 62
    7
 10
172.18420229897038
 20
554.0892407059174
 40
2.9999999999999867
 50
89.99999999999946
 51
180.0000000000002
  0
ARC
  8
_0-8_
  6
CONTINUOUS
 62
    7
 10
206.18420229897015
 20
554.0892407059174
 40
2.9999999999999725
 50
359.99999999999977
 51
90.00000000000054
  0
LINE
  8
_0-8_
  6
CONTINUOUS
 62
    7
 10
169.18420229896969
 20
546.58924070591775
 11
169.18420229896969
 21
554.0892407059174
  0
LINE
  8
_0-8_
  6
CONTINUOUS
 62
    7
 10
169.18420229896969
 20
546.58924070591775
 11
209.18420229896969
 21
546.58924070591775
  0
LINE
  8
_0-8_
  6
CONTINUOUS
 62
    7
 10
209.18420229896969
 20
554.0892407059174
 11
209.18420229896969
 21
546.58924070591775
  0
LINE
  8
_0-8_
  6
CONTINUOUS
 62
    7
 10
183.93420229896947
 20
563.68924070591754
 11
183.93420229896947
 21
601.48924070591875
  0
LINE
  8
_0-8_
  6
CONTINUOUS
 62
    7
 10
194.43420229896992
 20
563.68924070591754
 11
194.43420229896992
 21
601.48924070591875
  0
LINE
  8
_0-8_
  6
CONTINUOUS
 62
    7
 10
180.95696078285687
 20
608.68924070591868
 11
197.41144381508252
 21
608.68924070591868
  0
ARC
  8
_0-8_
  6
CONTINUOUS
 62
    7
 10
189.18420229896969
 20
594.89349652523902
 40
13.795743942260742
 50
66.573394775390625
 51
113.4265899658203
  0
LINE
  8
_0-8_
  6
CONTINUOUS
 62
    7
 10
200.15372703521319
 20
607.55205892175377
 11
199.48630325307334
 21
608.07031442245807
  0
LINE
  8
_0-8_
  6
CONTINUOUS
 62
    7
 10
199.48630325307334
 20
608.07031442245807
 11
198.75583591683971
 21
608.43817687630894
  0
LINE
  8
_0-8_
  6
CONTINUOUS
 62
    7
 10
198.75583591683971
 20
608.43817687630894
 11
197.98451990688943
 21
608.64446896879338
  0
LINE
  8
_0-8_
  6
CONTINUOUS
 62
    7
 10
197.98451990688943
 20
608.64446896879338
 11
197.19579126988009
 21
608.68292261907027
  0
LINE
  8
_0-8_
  6
CONTINUOUS
 62
    7
 10
197.19579126988009
 20
608.68292261907027
 11
196.41361512633125
 21
608.55236943243426
  0
LINE
  8
_0-8_
  6
CONTINUOUS
 62
    7
 10
196.41361512633125
 20
608.55236943243426
 11
195.66175750256446
 21
608.25677620139822
  0
LINE
  8
_0-8_
  6
CONTINUOUS
 62
    7
 10
195.66175750256446
 20
608.25677620139822
 11
194.96306321201956
 21
607.80512437670984
  0
LINE
  8
_0-8_
  6
CONTINUOUS
 62
    7
 10
194.96306321201956
 20
607.80512437670984
 11
194.66916155465447
 21
607.55205981982806
  0
LINE
  8
_0-8_
  6
CONTINUOUS
 62
    7
 10
183.69924400298754
 20
607.55205892175377
 11
183.03182022084769
 21
608.07031442245807
  0
LINE
  8
_0-8_
  6
CONTINUOUS
 62
    7
 10
183.03182022084769
 20
608.07031442245807
 11
182.30135288461406
 21
608.43817687630894
  0
LINE
  8
_0-8_
  6
CONTINUOUS
 62
    7
 10
182.30135288461406
 20
608.43817687630894
 11
181.53003687466378
 21
608.64446896879338
  0
LINE
  8
_0-8_
  6
CONTINUOUS
 62
    7
 10
181.53003687466378
 20
608.64446896879338
 11
180.74130823765444
 21
608.68292261907027
  0
LINE
  8
_0-8_
  6
CONTINUOUS
 62
    7
 10
180.74130823765444
 20
608.68292261907027
 11
179.9591320941056
 21
608.55236943243426
  0
LINE
  8
_0-8_
  6
CONTINUOUS
 62
    7
 10
179.9591320941056
 20
608.55236943243426
 11
179.2072744703388
 21
608.25677620139822
  0
LINE
  8
_0-8_
  6
CONTINUOUS
 62
    7
 10
179.2072744703388
 20
608.25677620139822
 11
178.50858017979391
 21
607.80512437670984
  0
LINE
  8
_0-8_
  6
CONTINUOUS
 62
    7
 10
178.50858017979391
 20
607.80512437670984
 11
178.21467852242881
 21
607.55205981982806
  0
LINE
  8
_0-8_
  6
CONTINUOUS
 62
    7
 10
183.69937478050633
 20
602.62642198796198
 11
183.69937478050633
 21
607.55205942387522
  0
LINE
  8
_0-8_
  6
CONTINUOUS
 62
    7
 10
200.15385733589642
 20
607.55205942387522
 11
200.15385733589642
 21
602.62642198796198
  0
LINE
  8
_0-8_
  6
CONTINUOUS
 62
    7
 10
197.41144381508252
 20
601.48924070591875
 11
180.95696078285687
 21
601.48924070591875
  0
LINE
  8
_0-8_
  6
CONTINUOUS
 62
    7
 10
178.21454726204297
 20
602.62642198796198
 11
178.21454726204297
 21
607.55205942387522
  0
LINE
  8
_0-8_
  6
CONTINUOUS
 62
    7
 10
194.66902981743306
 20
607.55205942387522
 11
194.66902981743306
 21
602.62642198796198
  0
ARC
  8
_0-8_
  6
CONTINUOUS
 62
    7
 10
189.18420229896969
 20
615.28498488659807
 40
13.795743942260742
 50
246.57341003417969
 51
293.42660522460937
  0
LINE
  8
_0-8_
  6
CONTINUOUS
 62
    7
 10
194.66916155465447
 20
602.62642159200936
 11
195.33658544903193
 21
602.10816630988052
  0
LINE
  8
_0-8_
  6
CONTINUOUS
 62
    7
 10
195.33658544903193
 20
602.10816630988052
 11
196.06705286493286
 21
601.74030409525153
  0
LINE
  8
_0-8_
  6
CONTINUOUS
 62
    7
 10
196.06705286493286
 20
601.74030409525153
 11
196.83836891955946
 21
601.53401225536663
  0
LINE
  8
_0-8_
  6
CONTINUOUS
 62
    7
 10
196.83836891955946
 20
601.53401225536663
 11
197.62709756489659
 21
601.49555886339169
  0
LINE
  8
_0-8_
  6
CONTINUOUS
 62
    7
 10
197.62709756489659
 20
601.49555886339169
 11
198.40927368017174
 21
601.62611230618381
  0
LINE
  8
_0-8_
  6
CONTINUOUS
 62
    7
 10
198.40927368017174
 20
601.62611230618381
 11
199.16113123992238
 21
601.92170578344667
  0
LINE
  8
_0-8_
  6
CONTINUOUS
 62
    7
 10
199.16113123992238
 20
601.92170578344667
 11
199.85982543265385
 21
602.37335783695153
  0
LINE
  8
_0-8_
  6
CONTINUOUS
 62
    7
 10
199.85982543265385
 20
602.37335783695153
 11
200.15372703521319
 21
602.62642249008366
  0
LINE
  8
_0-8_
  6
CONTINUOUS
 62
    7
 10
178.21467852242881
 20
602.62642159200936
 11
178.88210241680628
 21
602.10816630988052
  0
LINE
  8
_0-8_
  6
CONTINUOUS
 62
    7
 10
178.88210241680628
 20
602.10816630988052
 11
179.61256983270721
 21
601.74030409525153
  0
LINE
  8
_0-8_
  6
CONTINUOUS
 62
    7
 10
179.61256983270721
 20
601.74030409525153
 11
180.3838858873338
 21
601.53401225536663
  0
LINE
  8
_0-8_
  6
CONTINUOUS
 62
    7
 10
180.3838858873338
 20
601.53401225536663
 11
181.17261453267093
 21
601.49555886339169
  0
LINE
  8
_0-8_
  6
CONTINUOUS
 62
    7
 10
181.17261453267093
 20
601.49555886339169
 11
181.95479064794608
 21
601.62611230618381
  0
LINE
  8
_0-8_
  6
CONTINUOUS
 62
    7
 10
181.95479064794608
 20
601.62611230618381
 11
182.70664820769673
 21
601.92170578344667
  0
LINE
  8
_0-8_
  6
CONTINUOUS
 62
    7
 10
182.70664820769673
 20
601.92170578344667
 11
183.4053424004282
 21
602.37335783695153
  0
LINE
  8
_0-8_
  6
CONTINUOUS
 62
    7
 10
183.4053424004282
 20
602.37335783695153
 11
183.69924400298754
 21
602.62642249008366
  0
LINE
  8
_0-8_
  6
CONTINUOUS
 62
    7
 10
195.18420229896992
 20
601.48924070591875
 11
195.18420229896992
 21
563.68924070591754
  0
LINE
  8
_0-8_
  6
CONTINUOUS
 62
    7
 10
183.18420229896947
 20
601.48924070591875
 11
183.18420229896947
 21
563.68924070591754
  0
LINE
  8
_0-8_
  6
CONTINUOUS
 62
    7
 10
194.43420229896992
 20
628.68924070591811
 11
194.43420229896992
 21
643.43924070591731
  0
LINE
  8
_0-8_
  6
CONTINUOUS
 62
    7
 10
183.93420229896947
 20
628.68924070591811
 11
183.93420229896947
 21
643.4392407059172
  0
LINE
  8
_0-8_
  6
CONTINUOUS
 62
    7
 10
195.18420229896992
 20
642.68924070591731
 11
195.18420229896992
 21
628.68924070591811
  0
LINE
  8
_0-8_
  6
CONTINUOUS
 62
    7
 10
183.18420229896947
 20
642.68924070591731
 11
183.18420229896947
 21
628.68924070591811
  0
LINE
  8
_0-9_
  6
PHANTOM1
 62
    7
 10
178.2145471843665
 20
595.35560331613704
 11
181.18420229896907
 21
594.5892407059174
  0
LINE
  8
_0-9_
  6
PHANTOM1
 62
    7
 10
201.18420229896907
 20
594.5892407059174
 11
201.18420229896907
 21
594.18924070591709
  0
LINE
  8
_0-9_
  6
PHANTOM1
 62
    7
 10
197.18420229897043
 20
594.5892407059174
 11
200.15385741357301
 21
595.35560331613704
  0
LINE
  8
_0-9_
  6
PHANTOM1
 62
    7
 10
177.18420229897043
 20
594.5892407059174
 11
177.18420229897043
 21
594.18924070591709
  0
LINE
  8
_0-9_
  6
PHANTOM1
 62
    7
 10
169.18420229896975
 20
591.18924070591709
 11
169.18420229896975
 21
586.18924070591709
  0
LINE
  8
_0-9_
  6
PHANTOM1
 62
    7
 10
209.18420229896975
 20
586.18924070591709
 11
209.18420229896975
 21
591.18924070591709
  0
LINE
  8
_0-9_
  6
PHANTOM1
 62
    7
 10
208.58420229896916
 20
586.18924070591709
 11
208.58420229896916
 21
583.68924070591709
  0
LINE
  8
_0-9_
  6
PHANTOM1
 62
    7
 10
169.78420229897034
 20
583.68924070591709
 11
169.78420229897034
 21
586.18924070591709
  0
LINE
  8
_0-9_
  6
PHANTOM1
 62
    7
 10
171.18420229896907
 20
583.68924070591709
 11
171.18420229896907
 21
580.68924070591754
  0
LINE
  8
_0-9_
  6
PHANTOM1
 62
    7
 10
171.18420229896907
 20
580.68924070591754
 11
207.18420229897043
 21
580.68924070591754
  0
LINE
  8
_0-9_
  6
PHANTOM1
 62
    7
 10
207.18420229897043
 20
580.68924070591754
 11
207.18420229897043
 21
583.68924070591709
  0
ARC
  8
_0-9_
  6
PHANTOM1
 62
    7
 10
172.18420229897043
 20
591.18924070591709
 40
2.9999999999999867
 50
89.99999999999946
 51
180.0000000000002
  0
ARC
  8
_0-9_
  6
PHANTOM1
 62
    7
 10
206.18420229896907
 20
591.18924070591709
 40
2.9999999999999725
 50
359.99999999999977
 51
90.00000000000054
  0
LINE
  8
_0-9_
  6
PHANTOM1
 62
    7
 10
177.18420229897043
 20
594.5892407059174
 11
181.18420229896907
 21
594.5892407059174
  0
LINE
  8
_0-9_
  6
PHANTOM1
 62
    7
 10
197.18420229897043
 20
594.5892407059174
 11
201.18420229896907
 21
594.5892407059174
  0
LINE
  8
_0-9_
  6
PHANTOM1
 62
    7
 10
172.18420229922054
 20
594.18924070591709
 11
177.18420229897043
 21
594.18924070591709
  0
LINE
  8
_0-9_
  6
PHANTOM1
 62
    7
 10
201.18420229896907
 20
594.18924070591709
 11
206.18420229896907
 21
594.18924070591709
  0
LINE
  8
_0-9_
  6
PHANTOM1
 62
    7
 10
169.18420229896975
 20
586.18924070591709
 11
169.78420229897034
 21
586.18924070591709
  0
LINE
  8
_0-9_
  6
PHANTOM1
 62
    7
 10
208.58420229896916
 20
586.18924070591709
 11
209.18420229896975
 21
586.18924070591709
  0
LINE
  8
_0-9_
  6
PHANTOM1
 62
    7
 10
208.58420229896916
 20
583.68924070591709
 11
207.18420229897043
 21
583.68924070591709
  0
LINE
  8
_0-9_
  6
PHANTOM1
 62
    7
 10
171.18420229896907
 20
583.68924070591709
 11
169.78420229897034
 21
583.68924070591709
  0
LINE
  8
_0-9_
  6
PHANTOM1
 62
    7
 10
200.15385741357301
 20
595.35560331613704
 11
200.15385741357301
 21
600.78924070591745
  0
LINE
  8
_0-9_
  6
PHANTOM1
 62
    7
 10
178.2145471843665
 20
600.78924070591745
 11
178.2145471843665
 21
595.35560331613704
  0
LINE
  8
_0-9_
  6
PHANTOM1
 62
    7
 10
302.92695889030932
 20
539.18924070591765
 11
302.92695889030932
 21
534.18924070591765
  0
LINE
  8
_0-9_
  6
PHANTOM1
 62
    7
 10
342.92695889030932
 20
534.18924070591765
 11
342.92695889030932
 21
539.18924070591765
  0
LINE
  8
_0-9_
  6
PHANTOM1
 62
    7
 10
342.32695889030873
 20
534.18924070591765
 11
342.32695889030873
 21
531.68924070591765
  0
LINE
  8
_0-9_
  6
PHANTOM1
 62
    7
 10
303.52695889030991
 20
531.68924070591765
 11
303.52695889030991
 21
534.18924070591765
  0
LINE
  8
_0-9_
  6
PHANTOM1
 62
    7
 10
304.92695889030864
 20
531.68924070591765
 11
304.92695889030864
 21
528.68924070591811
  0
LINE
  8
_0-9_
  6
PHANTOM1
 62
    7
 10
304.92695889030864
 20
528.68924070591811
 11
340.92695889031
 21
528.68924070591811
  0
LINE
  8
_0-9_
  6
PHANTOM1
 62
    7
 10
340.92695889031
 20
528.68924070591811
 11
340.92695889031
 21
531.68924070591765
  0
LINE
  8
_0-9_
  6
PHANTOM1
 62
    7
 10
302.92695889030932
 20
534.18924070591765
 11
303.52695889030991
 21
534.18924070591765
  0
LINE
  8
_0-9_
  6
PHANTOM1
 62
    7
 10
342.32695889030873
 20
534.18924070591765
 11
342.92695889030932
 21
534.18924070591765
  0
LINE
  8
_0-9_
  6
PHANTOM1
 62
    7
 10
342.32695889030873
 20
531.68924070591765
 11
340.92695889031
 21
531.68924070591765
  0
LINE
  8
_0-9_
  6
PHANTOM1
 62
    7
 10
304.92695889030864
 20
531.68924070591765
 11
303.52695889030991
 21
531.68924070591765
  0
LINE
  8
_0-9_
  6
PHANTOM1
 62
    7
 10
328.92695889030983
 20
679.38924070591725
 11
327.92695889030961
 21
680.38924070591747
  0
LINE
  8
_0-9_
  6
PHANTOM1
 62
    7
 10
327.92695889030961
 20
680.38924070591747
 11
317.92695889030961
 21
680.38924070591747
  0
LINE
  8
_0-9_
  6
PHANTOM1
 62
    7
 10
317.92695889030961
 20
680.38924070591747
 11
316.92695889030938
 21
679.38924070591725
  0
LINE
  8
_0-9_
  6
PHANTOM1
 62
    7
 10
328.92695889030983
 20
652.17109866819055
 11
328.92695889030983
 21
679.38924070591725
  0
LINE
  8
_0-9_
  6
PHANTOM1
 62
    7
 10
316.92695889030938
 20
679.38924070591725
 11
316.92695889030938
 21
652.17109866819055
  0
LINE
  8
_0-8_
  6
CONTINUOUS
 62
    7
 10
328.92695889030961
 20
642.68924070591731
 11
316.92695889030915
 21
642.68924070591731
  0
LINE
  8
_0-8_
  6
CONTINUOUS
 62
    7
 10
302.92695889030938
 20
554.0892407059174
 11
342.92695889030938
 21
554.0892407059174
  0
LINE
  8
_0-8_
  6
CONTINUOUS
 62
    7
 10
340.92695889031006
 20
543.68924070591754
 11
304.92695889030983
 21
543.68924070591754
  0
LINE
  8
_0-8_
  6
CONTINUOUS
 62
    7
 10
317.92695889030938
 20
643.68924070591754
 11
327.92695889030938
 21
643.68924070591754
  0
LINE
  8
_0-8_
  6
CONTINUOUS
 62
    7
 10
327.92695889030938
 20
643.68924070591754
 11
328.92695889030961
 21
642.68924070591731
  0
LINE
  8
_0-8_
  6
CONTINUOUS
 62
    7
 10
316.92695889030915
 20
642.68924070591731
 11
317.92695889030938
 21
643.68924070591754
  0
LINE
  8
_0-8_
  6
CONTINUOUS
 62
    7
 10
342.92695889030938
 20
549.08924070591775
 11
302.92695889030938
 21
549.08924070591775
  0
LINE
  8
_0-8_
  6
CONTINUOUS
 62
    7
 10
340.92695889031006
 20
546.58924070591775
 11
340.92695889031006
 21
543.68924070591754
  0
LINE
  8
_0-8_
  6
CONTINUOUS
 62
    7
 10
304.92695889030983
 20
543.68924070591754
 11
304.92695889030983
 21
546.58924070591775
  0
LINE
  8
_0-8_
  6
CONTINUOUS
 62
    7
 10
305.92695889056017
 20
557.08924070591752
 11
339.92695889030983
 21
557.08924070591752
  0
LINE
  8
_0-8_
  6
CONTINUOUS
 62
    7
 10
334.92695889030983
 20
557.08924070591752
 11
334.92695889030983
 21
557.4892407059175
  0
LINE
  8
_0-8_
  6
CONTINUOUS
 62
    7
 10
334.92695889030983
 20
557.4892407059175
 11
310.92695889031006
 21
557.4892407059175
  0
LINE
  8
_0-8_
  6
CONTINUOUS
 62
    7
 10
310.92695889031006
 20
557.4892407059175
 11
310.92695889031006
 21
557.08924070591752
  0
LINE
  8
_0-8_
  6
CONTINUOUS
 62
    7
 10
311.95730377570726
 20
558.25560331613747
 11
312.64834604995031
 21
558.09519359931517
  0
LINE
  8
_0-8_
  6
CONTINUOUS
 62
    7
 10
312.64834604995031
 20
558.09519359931517
 11
313.34080467429203
 21
557.97469160839876
  0
LINE
  8
_0-8_
  6
CONTINUOUS
 62
    7
 10
313.34080467429203
 20
557.97469160839876
 11
314.0325111462505
 21
557.90040484772692
  0
LINE
  8
_0-8_
  6
CONTINUOUS
 62
    7
 10
314.0325111462505
 20
557.90040484772692
 11
314.72418421975817
 21
557.87637000241989
  0
LINE
  8
_0-8_
  6
CONTINUOUS
 62
    7
 10
314.72418421975817
 20
557.87637000241989
 11
315.40735656206039
 21
557.90339377587475
  0
LINE
  8
_0-8_
  6
CONTINUOUS
 62
    7
 10
315.40735656206039
 20
557.90339377587475
 11
316.08876892050944
 21
557.97901392533151
  0
LINE
  8
_0-8_
  6
CONTINUOUS
 62
    7
 10
316.08876892050944
 20
557.97901392533151
 11
316.76667053709593
 21
558.0983922605036
  0
LINE
  8
_0-8_
  6
CONTINUOUS
 62
    7
 10
316.76667053709593
 20
558.0983922605036
 11
317.44213133300832
 21
558.25560331613747
  0
LINE
  8
_0-8_
  6
CONTINUOUS
 62
    7
 10
317.44213133300832
 20
558.25560331613747
 11
319.85281530368979
 21
558.00150049936394
  0
LINE
  8
_0-8_
  6
CONTINUOUS
 62
    7
 10
319.85281530368979
 20
558.00150049936394
 11
322.26591525976801
 21
557.88226550740853
  0
LINE
  8
_0-8_
  6
CONTINUOUS
 62
    7
 10
322.26591525976801
 20
557.88226550740853
 11
324.65519753502349
 21
557.91657513688244
  0
LINE
  8
_0-8_
  6
CONTINUOUS
 62
    7
 10
324.65519753502349
 20
557.91657513688244
 11
327.02971454371095
 21
558.09519489306001
  0
LINE
  8
_0-8_
  6
CONTINUOUS
 62
    7
 10
327.02971454371095
 20
558.09519489306001
 11
328.41178644761158
 21
558.25560331613747
  0
LINE
  8
_0-8_
  6
CONTINUOUS
 62
    7
 10
328.41178644761158
 20
558.25560331613747
 11
329.10282872185576
 21
558.09519359931517
  0
LINE
  8
_0-8_
  6
CONTINUOUS
 62
    7
 10
329.10282872185576
 20
558.09519359931517
 11
329.79528734619635
 21
557.97469160839876
  0
LINE
  8
_0-8_
  6
CONTINUOUS
 62
    7
 10
329.79528734619635
 20
557.97469160839876
 11
330.48699381815482
 21
557.90040484772692
  0
LINE
  8
_0-8_
  6
CONTINUOUS
 62
    7
 10
330.48699381815482
 20
557.90040484772692
 11
331.17866689166249
 21
557.87637000241989
  0
LINE
  8
_0-8_
  6
CONTINUOUS
 62
    7
 10
331.17866689166249
 20
557.87637000241989
 11
331.8618392339647
 21
557.90339377587475
  0
LINE
  8
_0-8_
  6
CONTINUOUS
 62
    7
 10
331.8618392339647
 20
557.90339377587475
 11
332.54325159241375
 21
557.97901392533151
  0
LINE
  8
_0-8_
  6
CONTINUOUS
 62
    7
 10
332.54325159241375
 20
557.97901392533151
 11
333.22115320900025
 21
558.0983922605036
  0
LINE
  8
_0-8_
  6
CONTINUOUS
 62
    7
 10
333.22115320900025
 20
558.0983922605036
 11
333.89661400491264
 21
558.25560331613747
  0
LINE
  8
_0-8_
  6
CONTINUOUS
 62
    7
 10
333.89661400491264
 20
558.25560331613747
 11
330.92695889031006
 21
557.4892407059175
  0
LINE
  8
_0-8_
  6
CONTINUOUS
 62
    7
 10
328.41178644761158
 20
558.25560331613747
 11
328.41178644761158
 21
563.68924070591754
  0
LINE
  8
_0-8_
  6
CONTINUOUS
 62
    7
 10
333.89661400491264
 20
563.68924070591754
 11
311.95730377570726
 21
563.68924070591754
  0
LINE
  8
_0-8_
  6
CONTINUOUS
 62
    7
 10
311.95730377570726
 20
563.68924070591754
 11
311.95730377570726
 21
558.25560331613747
  0
LINE
  8
_0-8_
  6
CONTINUOUS
 62
    7
 10
311.95730377570726
 20
558.25560331613747
 11
314.92695889030983
 21
557.4892407059175
  0
LINE
  8
_0-8_
  6
CONTINUOUS
 62
    7
 10
317.44213133300832
 20
558.25560331613747
 11
317.44213133300832
 21
563.68924070591754
  0
LINE
  8
_0-8_
  6
CONTINUOUS
 62
    7
 10
333.89661400491264
 20
563.68924070591754
 11
333.89661400491264
 21
558.25560331613747
  0
ARC
  8
_0-8_
  6
CONTINUOUS
 62
    7
 10
305.92695889031006
 20
554.0892407059174
 40
2.9999999999999867
 50
89.99999999999946
 51
180.0000000000002
  0
ARC
  8
_0-8_
  6
CONTINUOUS
 62
    7
 10
339.92695889030983
 20
554.0892407059174
 40
2.9999999999999725
 50
359.99999999999977
 51
90.00000000000054
  0
LINE
  8
_0-8_
  6
CONTINUOUS
 62
    7
 10
302.92695889030938
 20
546.58924070591775
 11
302.92695889030938
 21
554.0892407059174
  0
LINE
  8
_0-8_
  6
CONTINUOUS
 62
    7
 10
302.92695889030938
 20
546.58924070591775
 11
342.92695889030938
 21
546.58924070591775
  0
LINE
  8
_0-8_
  6
CONTINUOUS
 62
    7
 10
342.92695889030938
 20
554.0892407059174
 11
342.92695889030938
 21
546.58924070591775
  0
LINE
  8
_0-8_
  6
CONTINUOUS
 62
    7
 10
317.67695889030915
 20
563.68924070591754
 11
317.67695889030915
 21
601.48924070591875
  0
LINE
  8
_0-8_
  6
CONTINUOUS
 62
    7
 10
328.17695889030961
 20
563.68924070591754
 11
328.17695889030961
 21
601.48924070591875
  0
LINE
  8
_0-8_
  6
CONTINUOUS
 62
    7
 10
314.69971737419655
 20
608.68924070591868
 11
331.15420040642221
 21
608.68924070591868
  0
ARC
  8
_0-8_
  6
CONTINUOUS
 62
    7
 10
322.92695889030938
 20
594.89349652523902
 40
13.795743942260742
 50
66.573394775390625
 51
113.4265899658203
  0
LINE
  8
_0-8_
  6
CONTINUOUS
 62
    7
 10
333.89648362655288
 20
607.55205892175377
 11
333.22905984441303
 21
608.07031442245807
  0
LINE
  8
_0-8_
  6
CONTINUOUS
 62
    7
 10
333.22905984441303
 20
608.07031442245807
 11
332.4985925081794
 21
608.43817687630894
  0
LINE
  8
_0-8_
  6
CONTINUOUS
 62
    7
 10
332.4985925081794
 20
608.43817687630894
 11
331.72727649822912
 21
608.64446896879338
  0
LINE
  8
_0-8_
  6
CONTINUOUS
 62
    7
 10
331.72727649822912
 20
608.64446896879338
 11
330.93854786121977
 21
608.68292261907027
  0
LINE
  8
_0-8_
  6
CONTINUOUS
 62
    7
 10
330.93854786121977
 20
608.68292261907027
 11
330.15637171767094
 21
608.55236943243426
  0
LINE
  8
_0-8_
  6
CONTINUOUS
 62
    7
 10
330.15637171767094
 20
608.55236943243426
 11
329.40451409390414
 21
608.25677620139822
  0
LINE
  8
_0-8_
  6
CONTINUOUS
 62
    7
 10
329.40451409390414
 20
608.25677620139822
 11
328.70581980335925
 21
607.80512437670984
  0
LINE
  8
_0-8_
  6
CONTINUOUS
 62
    7
 10
328.70581980335925
 20
607.80512437670984
 11
328.41191814599415
 21
607.55205981982806
  0
LINE
  8
_0-8_
  6
CONTINUOUS
 62
    7
 10
317.44200059432723
 20
607.55205892175377
 11
316.77457681218738
 21
608.07031442245807
  0
LINE
  8
_0-8_
  6
CONTINUOUS
 62
    7
 10
316.77457681218738
 20
608.07031442245807
 11
316.04410947595375
 21
608.43817687630894
  0
LINE
  8
_0-8_
  6
CONTINUOUS
 62
    7
 10
316.04410947595375
 20
608.43817687630894
 11
315.27279346600346
 21
608.64446896879338
  0
LINE
  8
_0-8_
  6
CONTINUOUS
 62
    7
 10
315.27279346600346
 20
608.64446896879338
 11
314.48406482899412
 21
608.68292261907027
  0
LINE
  8
_0-8_
  6
CONTINUOUS
 62
    7
 10
314.48406482899412
 20
608.68292261907027
 11
313.70188868544528
 21
608.55236943243426
  0
LINE
  8
_0-8_
  6
CONTINUOUS
 62
    7
 10
313.70188868544528
 20
608.55236943243426
 11
312.95003106167849
 21
608.25677620139822
  0
LINE
  8
_0-8_
  6
CONTINUOUS
 62
    7
 10
312.95003106167849
 20
608.25677620139822
 11
312.25133677113359
 21
607.80512437670984
  0
LINE
  8
_0-8_
  6
CONTINUOUS
 62
    7
 10
312.25133677113359
 20
607.80512437670984
 11
311.9574351137685
 21
607.55205981982806
  0
LINE
  8
_0-8_
  6
CONTINUOUS
 62
    7
 10
317.44213137184602
 20
602.62642198796198
 11
317.44213137184602
 21
607.55205942387522
  0
LINE
  8
_0-8_
  6
CONTINUOUS
 62
    7
 10
333.8966139272361
 20
607.55205942387522
 11
333.8966139272361
 21
602.62642198796198
  0
LINE
  8
_0-8_
  6
CONTINUOUS
 62
    7
 10
331.15420040642221
 20
601.48924070591875
 11
314.69971737419655
 21
601.48924070591875
  0
LINE
  8
_0-8_
  6
CONTINUOUS
 62
    7
 10
311.95730385338265
 20
602.62642198796198
 11
311.95730385338265
 21
607.55205942387522
  0
LINE
  8
_0-8_
  6
CONTINUOUS
 62
    7
 10
328.41178640877274
 20
607.55205942387522
 11
328.41178640877274
 21
602.62642198796198
  0
ARC
  8
_0-8_
  6
CONTINUOUS
 62
    7
 10
322.92695889030938
 20
615.28498488659807
 40
13.795743942260742
 50
246.57341003417969
 51
293.42660522460937
  0
LINE
  8
_0-8_
  6
CONTINUOUS
 62
    7
 10
328.41191814599415
 20
602.62642159200936
 11
329.07934204037161
 21
602.10816630988052
  0
LINE
  8
_0-8_
  6
CONTINUOUS
 62
    7
 10
329.07934204037161
 20
602.10816630988052
 11
329.80980945627255
 21
601.74030409525153
  0
LINE
  8
_0-8_
  6
CONTINUOUS
 62
    7
 10
329.80980945627255
 20
601.74030409525153
 11
330.58112551089914
 21
601.53401225536663
  0
LINE
  8
_0-8_
  6
CONTINUOUS
 62
    7
 10
330.58112551089914
 20
601.53401225536663
 11
331.36985415623627
 21
601.49555886339169
  0
LINE
  8
_0-8_
  6
CONTINUOUS
 62
    7
 10
331.36985415623627
 20
601.49555886339169
 11
332.15203027151142
 21
601.62611230618381
  0
LINE
  8
_0-8_
  6
CONTINUOUS
 62
    7
 10
332.15203027151142
 20
601.62611230618381
 11
332.90388783126207
 21
601.92170578344667
  0
LINE
  8
_0-8_
  6
CONTINUOUS
 62
    7
 10
332.90388783126207
 20
601.92170578344667
 11
333.60258202399353
 21
602.37335783695153
  0
LINE
  8
_0-8_
  6
CONTINUOUS
 62
    7
 10
333.60258202399353
 20
602.37335783695153
 11
333.89648362655288
 21
602.62642249008366
  0
LINE
  8
_0-8_
  6
CONTINUOUS
 62
    7
 10
311.9574351137685
 20
602.62642159200936
 11
312.62485900814596
 21
602.10816630988052
  0
LINE
  8
_0-8_
  6
CONTINUOUS
 62
    7
 10
312.62485900814596
 20
602.10816630988052
 11
313.35532642404689
 21
601.74030409525153
  0
LINE
  8
_0-8_
  6
CONTINUOUS
 62
    7
 10
313.35532642404689
 20
601.74030409525153
 11
314.12664247867349
 21
601.53401225536663
  0
LINE
  8
_0-8_
  6
CONTINUOUS
 62
    7
 10
314.12664247867349
 20
601.53401225536663
 11
314.91537112401062
 21
601.49555886339169
  0
LINE
  8
_0-8_
  6
CONTINUOUS
 62
    7
 10
314.91537112401062
 20
601.49555886339169
 11
315.69754723928577
 21
601.62611230618381
  0
LINE
  8
_0-8_
  6
CONTINUOUS
 62
    7
 10
315.69754723928577
 20
601.62611230618381
 11
316.44940479903642
 21
601.92170578344667
  0
LINE
  8
_0-8_
  6
CONTINUOUS
 62
    7
 10
316.44940479903642
 20
601.92170578344667
 11
317.14809899176788
 21
602.37335783695153
  0
LINE
  8
_0-8_
  6
CONTINUOUS
 62
    7
 10
317.14809899176788
 20
602.37335783695153
 11
317.44200059432723
 21
602.62642249008366
  0
LINE
  8
_0-8_
  6
CONTINUOUS
 62
    7
 10
328.92695889030961
 20
601.48924070591875
 11
328.92695889030961
 21
563.68924070591754
  0
LINE
  8
_0-8_
  6
CONTINUOUS
 62
    7
 10
316.92695889030915
 20
601.48924070591875
 11
316.92695889030915
 21
563.68924070591754
  0
LINE
  8
_0-8_
  6
CONTINUOUS
 62
    7
 10
328.17695889030961
 20
628.68924070591811
 11
328.17695889030961
 21
643.43924070591731
  0
LINE
  8
_0-8_
  6
CONTINUOUS
 62
    7
 10
317.67695889030915
 20
628.68924070591811
 11
317.67695889030915
 21
643.4392407059172
  0
LINE
  8
_0-8_
  6
CONTINUOUS
 62
    7
 10
328.92695889030961
 20
642.68924070591731
 11
328.92695889030961
 21
628.68924070591811
  0
LINE
  8
_0-8_
  6
CONTINUOUS
 62
    7
 10
316.92695889030915
 20
642.68924070591731
 11
316.92695889030915
 21
628.68924070591811
  0
LINE
  8
_0-9_
  6
PHANTOM1
 62
    7
 10
311.95730377570618
 20
595.35560331613704
 11
314.92695889030875
 21
594.5892407059174
  0
LINE
  8
_0-9_
  6
PHANTOM1
 62
    7
 10
334.92695889030875
 20
594.5892407059174
 11
334.92695889030875
 21
594.18924070591709
  0
LINE
  8
_0-9_
  6
PHANTOM1
 62
    7
 10
330.92695889031012
 20
594.5892407059174
 11
333.89661400491269
 21
595.35560331613704
  0
LINE
  8
_0-9_
  6
PHANTOM1
 62
    7
 10
310.92695889031012
 20
594.5892407059174
 11
310.92695889031012
 21
594.18924070591709
  0
LINE
  8
_0-9_
  6
PHANTOM1
 62
    7
 10
302.92695889030944
 20
591.18924070591709
 11
302.92695889030944
 21
586.18924070591709
  0
LINE
  8
_0-9_
  6
PHANTOM1
 62
    7
 10
342.92695889030944
 20
586.18924070591709
 11
342.92695889030944
 21
591.18924070591709
  0
LINE
  8
_0-9_
  6
PHANTOM1
 62
    7
 10
342.32695889030884
 20
586.18924070591709
 11
342.32695889030884
 21
583.68924070591709
  0
LINE
  8
_0-9_
  6
PHANTOM1
 62
    7
 10
303.52695889031003
 20
583.68924070591709
 11
303.52695889031003
 21
586.18924070591709
  0
LINE
  8
_0-9_
  6
PHANTOM1
 62
    7
 10
304.92695889030875
 20
583.68924070591709
 11
304.92695889030875
 21
580.68924070591754
  0
LINE
  8
_0-9_
  6
PHANTOM1
 62
    7
 10
304.92695889030875
 20
580.68924070591754
 11
340.92695889031012
 21
580.68924070591754
  0
LINE
  8
_0-9_
  6
PHANTOM1
 62
    7
 10
340.92695889031012
 20
580.68924070591754
 11
340.92695889031012
 21
583.68924070591709
  0
ARC
  8
_0-9_
  6
PHANTOM1
 62
    7
 10
305.92695889031012
 20
591.18924070591709
 40
2.9999999999999867
 50
89.99999999999946
 51
180.0000000000002
  0
ARC
  8
_0-9_
  6
PHANTOM1
 62
    7
 10
339.92695889030875
 20
591.18924070591709
 40
2.9999999999999725
 50
359.99999999999977
 51
90.00000000000054
  0
LINE
  8
_0-9_
  6
PHANTOM1
 62
    7
 10
310.92695889031012
 20
594.5892407059174
 11
314.92695889030875
 21
594.5892407059174
  0
LINE
  8
_0-9_
  6
PHANTOM1
 62
    7
 10
330.92695889031012
 20
594.5892407059174
 11
334.92695889030875
 21
594.5892407059174
  0
LINE
  8
_0-9_
  6
PHANTOM1
 62
    7
 10
305.92695889056023
 20
594.18924070591709
 11
310.92695889031012
 21
594.18924070591709
  0
LINE
  8
_0-9_
  6
PHANTOM1
 62
    7
 10
334.92695889030875
 20
594.18924070591709
 11
339.92695889030875
 21
594.18924070591709
  0
LINE
  8
_0-9_
  6
PHANTOM1
 62
    7
 10
302.92695889030944
 20
586.18924070591709
 11
303.52695889031003
 21
586.18924070591709
  0
LINE
  8
_0-9_
  6
PHANTOM1
 62
    7
 10
342.32695889030884
 20
586.18924070591709
 11
342.92695889030944
 21
586.18924070591709
  0
LINE
  8
_0-9_
  6
PHANTOM1
 62
    7
 10
342.32695889030884
 20
583.68924070591709
 11
340.92695889031012
 21
583.68924070591709
  0
LINE
  8
_0-9_
  6
PHANTOM1
 62
    7
 10
304.92695889030875
 20
583.68924070591709
 11
303.52695889031003
 21
583.68924070591709
  0
LINE
  8
_0-9_
  6
PHANTOM1
 62
    7
 10
333.89661400491269
 20
595.35560331613704
 11
333.89661400491269
 21
600.78924070591745
  0
LINE
  8
_0-9_
  6
PHANTOM1
 62
    7
 10
311.95730377570618
 20
600.78924070591745
 11
311.95730377570618
 21
595.35560331613704
  0
LINE
  8
_0-9_
  6
PHANTOM1
 62
    7
 10
674.42777750740277
 20
539.18924070591765
 11
674.42777750740277
 21
534.18924070591765
  0
LINE
  8
_0-9_
  6
PHANTOM1
 62
    7
 10
714.42777750740277
 20
534.18924070591765
 11
714.42777750740277
 21
539.18924070591765
  0
LINE
  8
_0-9_
  6
PHANTOM1
 62
    7
 10
713.82777750740217
 20
534.18924070591765
 11
713.82777750740217
 21
531.68924070591765
  0
LINE
  8
_0-9_
  6
PHANTOM1
 62
    7
 10
675.02777750740336
 20
531.68924070591765
 11
675.02777750740336
 21
534.18924070591765
  0
LINE
  8
_0-9_
  6
PHANTOM1
 62
    7
 10
676.42777750740208
 20
531.68924070591765
 11
676.42777750740208
 21
528.68924070591811
  0
LINE
  8
_0-9_
  6
PHANTOM1
 62
    7
 10
676.42777750740208
 20
528.68924070591811
 11
712.42777750740345
 21
528.68924070591811
  0
LINE
  8
_0-9_
  6
PHANTOM1
 62
    7
 10
712.42777750740345
 20
528.68924070591811
 11
712.42777750740345
 21
531.68924070591765
  0
LINE
  8
_0-9_
  6
PHANTOM1
 62
    7
 10
674.42777750740277
 20
534.18924070591765
 11
675.02777750740336
 21
534.18924070591765
  0
LINE
  8
_0-9_
  6
PHANTOM1
 62
    7
 10
713.82777750740217
 20
534.18924070591765
 11
714.42777750740277
 21
534.18924070591765
  0
LINE
  8
_0-9_
  6
PHANTOM1
 62
    7
 10
713.82777750740217
 20
531.68924070591765
 11
712.42777750740345
 21
531.68924070591765
  0
LINE
  8
_0-9_
  6
PHANTOM1
 62
    7
 10
676.42777750740208
 20
531.68924070591765
 11
675.02777750740336
 21
531.68924070591765
  0
LINE
  8
_0-9_
  6
PHANTOM1
 62
    7
 10
700.42777750740333
 20
679.38924070591725
 11
699.42777750740311
 21
680.38924070591747
  0
LINE
  8
_0-9_
  6
PHANTOM1
 62
    7
 10
699.42777750740311
 20
680.38924070591747
 11
689.42777750740311
 21
680.38924070591747
  0
LINE
  8
_0-9_
  6
PHANTOM1
 62
    7
 10
689.42777750740311
 20
680.38924070591747
 11
688.42777750740288
 21
679.38924070591725
  0
LINE
  8
_0-9_
  6
PHANTOM1
 62
    7
 10
700.42777750740333
 20
652.17109866819055
 11
700.42777750740333
 21
679.38924070591725
  0
LINE
  8
_0-9_
  6
PHANTOM1
 62
    7
 10
688.42777750740288
 20
679.38924070591725
 11
688.42777750740288
 21
652.17109866819055
  0
LINE
  8
_0-8_
  6
CONTINUOUS
 62
    7
 10
700.42777750740311
 20
642.68924070591731
 11
688.42777750740265
 21
642.68924070591731
  0
LINE
  8
_0-8_
  6
CONTINUOUS
 62
    7
 10
674.42777750740288
 20
554.0892407059174
 11
714.42777750740288
 21
554.0892407059174
  0
LINE
  8
_0-8_
  6
CONTINUOUS
 62
    7
 10
712.42777750740356
 20
543.68924070591754
 11
676.42777750740333
 21
543.68924070591754
  0
LINE
  8
_0-8_
  6
CONTINUOUS
 62
    7
 10
689.42777750740288
 20
643.68924070591754
 11
699.42777750740288
 21
643.68924070591754
  0
LINE
  8
_0-8_
  6
CONTINUOUS
 62
    7
 10
699.42777750740288
 20
643.68924070591754
 11
700.42777750740311
 21
642.68924070591731
  0
LINE
  8
_0-8_
  6
CONTINUOUS
 62
    7
 10
688.42777750740265
 20
642.68924070591731
 11
689.42777750740288
 21
643.68924070591754
  0
LINE
  8
_0-8_
  6
CONTINUOUS
 62
    7
 10
714.42777750740288
 20
549.08924070591775
 11
674.42777750740288
 21
549.08924070591775
  0
LINE
  8
_0-8_
  6
CONTINUOUS
 62
    7
 10
712.42777750740356
 20
546.58924070591775
 11
712.42777750740356
 21
543.68924070591754
  0
LINE
  8
_0-8_
  6
CONTINUOUS
 62
    7
 10
676.42777750740333
 20
543.68924070591754
 11
676.42777750740333
 21
546.58924070591775
  0
LINE
  8
_0-8_
  6
CONTINUOUS
 62
    7
 10
677.42777750765367
 20
557.08924070591752
 11
711.42777750740333
 21
557.08924070591752
  0
LINE
  8
_0-8_
  6
CONTINUOUS
 62
    7
 10
706.42777750740333
 20
557.08924070591752
 11
706.42777750740333
 21
557.4892407059175
  0
LINE
  8
_0-8_
  6
CONTINUOUS
 62
    7
 10
706.42777750740333
 20
557.4892407059175
 11
682.42777750740356
 21
557.4892407059175
  0
LINE
  8
_0-8_
  6
CONTINUOUS
 62
    7
 10
682.42777750740356
 20
557.4892407059175
 11
682.42777750740356
 21
557.08924070591752
  0
LINE
  8
_0-8_
  6
CONTINUOUS
 62
    7
 10
683.45812239280076
 20
558.25560331613747
 11
684.14916466704381
 21
558.09519359931517
  0
LINE
  8
_0-8_
  6
CONTINUOUS
 62
    7
 10
684.14916466704381
 20
558.09519359931517
 11
684.84162329138553
 21
557.97469160839876
  0
LINE
  8
_0-8_
  6
CONTINUOUS
 62
    7
 10
684.84162329138553
 20
557.97469160839876
 11
685.533329763344
 21
557.90040484772692
  0
LINE
  8
_0-8_
  6
CONTINUOUS
 62
    7
 10
685.533329763344
 20
557.90040484772692
 11
686.22500283685167
 21
557.87637000241989
  0
LINE
  8
_0-8_
  6
CONTINUOUS
 62
    7
 10
686.22500283685167
 20
557.87637000241989
 11
686.90817517915389
 21
557.90339377587475
  0
LINE
  8
_0-8_
  6
CONTINUOUS
 62
    7
 10
686.90817517915389
 20
557.90339377587475
 11
687.58958753760294
 21
557.97901392533151
  0
LINE
  8
_0-8_
  6
CONTINUOUS
 62
    7
 10
687.58958753760294
 20
557.97901392533151
 11
688.26748915418943
 21
558.0983922605036
  0
LINE
  8
_0-8_
  6
CONTINUOUS
 62
    7
 10
688.26748915418943
 20
558.0983922605036
 11
688.94294995010182
 21
558.25560331613747
  0
LINE
  8
_0-8_
  6
CONTINUOUS
 62
    7
 10
688.94294995010182
 20
558.25560331613747
 11
691.3536339207833
 21
558.00150049936394
  0
LINE
  8
_0-8_
  6
CONTINUOUS
 62
    7
 10
691.3536339207833
 20
558.00150049936394
 11
693.76673387686151
 21
557.88226550740853
  0
LINE
  8
_0-8_
  6
CONTINUOUS
 62
    7
 10
693.76673387686151
 20
557.88226550740853
 11
696.15601615211699
 21
557.91657513688244
  0
LINE
  8
_0-8_
  6
CONTINUOUS
 62
    7
 10
696.15601615211699
 20
557.91657513688244
 11
698.53053316080445
 21
558.09519489306001
  0
LINE
  8
_0-8_
  6
CONTINUOUS
 62
    7
 10
698.53053316080445
 20
558.09519489306001
 11
699.91260506470508
 21
558.25560331613747
  0
LINE
  8
_0-8_
  6
CONTINUOUS
 62
    7
 10
699.91260506470508
 20
558.25560331613747
 11
700.60364733894926
 21
558.09519359931517
  0
LINE
  8
_0-8_
  6
CONTINUOUS
 62
    7
 10
700.60364733894926
 20
558.09519359931517
 11
701.29610596328985
 21
557.97469160839876
  0
LINE
  8
_0-8_
  6
CONTINUOUS
 62
    7
 10
701.29610596328985
 20
557.97469160839876
 11
701.98781243524832
 21
557.90040484772692
  0
LINE
  8
_0-8_
  6
CONTINUOUS
 62
    7
 10
701.98781243524832
 20
557.90040484772692
 11
702.67948550875599
 21
557.87637000241989
  0
LINE
  8
_0-8_
  6
CONTINUOUS
 62
    7
 10
702.67948550875599
 20
557.87637000241989
 11
703.3626578510582
 21
557.90339377587475
  0
LINE
  8
_0-8_
  6
CONTINUOUS
 62
    7
 10
703.3626578510582
 20
557.90339377587475
 11
704.04407020950725
 21
557.97901392533151
  0
LINE
  8
_0-8_
  6
CONTINUOUS
 62
    7
 10
704.04407020950725
 20
557.97901392533151
 11
704.72197182609375
 21
558.0983922605036
  0
LINE
  8
_0-8_
  6
CONTINUOUS
 62
    7
 10
704.72197182609375
 20
558.0983922605036
 11
705.39743262200614
 21
558.25560331613747
  0
LINE
  8
_0-8_
  6
CONTINUOUS
 62
    7
 10
705.39743262200614
 20
558.25560331613747
 11
702.42777750740356
 21
557.4892407059175
  0
LINE
  8
_0-8_
  6
CONTINUOUS
 62
    7
 10
699.91260506470508
 20
558.25560331613747
 11
699.91260506470508
 21
563.68924070591754
  0
LINE
  8
_0-8_
  6
CONTINUOUS
 62
    7
 10
705.39743262200614
 20
563.68924070591754
 11
683.45812239280076
 21
563.68924070591754
  0
LINE
  8
_0-8_
  6
CONTINUOUS
 62
    7
 10
683.45812239280076
 20
563.68924070591754
 11
683.45812239280076
 21
558.25560331613747
  0
LINE
  8
_0-8_
  6
CONTINUOUS
 62
    7
 10
683.45812239280076
 20
558.25560331613747
 11
686.42777750740333
 21
557.4892407059175
  0
LINE
  8
_0-8_
  6
CONTINUOUS
 62
    7
 10
688.94294995010182
 20
558.25560331613747
 11
688.94294995010182
 21
563.68924070591754
  0
LINE
  8
_0-8_
  6
CONTINUOUS
 62
    7
 10
705.39743262200614
 20
563.68924070591754
 11
705.39743262200614
 21
558.25560331613747
  0
ARC
  8
_0-8_
  6
CONTINUOUS
 62
    7
 10
677.42777750740356
 20
554.0892407059174
 40
2.9999999999999867
 50
89.99999999999946
 51
180.0000000000002
  0
ARC
  8
_0-8_
  6
CONTINUOUS
 62
    7
 10
711.42777750740333
 20
554.0892407059174
 40
2.9999999999999725
 50
359.99999999999977
 51
90.00000000000054
  0
LINE
  8
_0-8_
  6
CONTINUOUS
 62
    7
 10
674.42777750740288
 20
546.58924070591775
 11
674.42777750740288
 21
554.0892407059174
  0
LINE
  8
_0-8_
  6
CONTINUOUS
 62
    7
 10
674.42777750740288
 20
546.58924070591775
 11
714.42777750740288
 21
546.58924070591775
  0
LINE
  8
_0-8_
  6
CONTINUOUS
 62
    7
 10
714.42777750740288
 20
554.0892407059174
 11
714.42777750740288
 21
546.58924070591775
  0
LINE
  8
_0-8_
  6
CONTINUOUS
 62
    7
 10
689.17777750740265
 20
563.68924070591754
 11
689.17777750740265
 21
601.48924070591875
  0
LINE
  8
_0-8_
  6
CONTINUOUS
 62
    7
 10
699.67777750740311
 20
563.68924070591754
 11
699.67777750740311
 21
601.48924070591875
  0
LINE
  8
_0-8_
  6
CONTINUOUS
 62
    7
 10
686.20053599129005
 20
608.68924070591868
 11
702.65501902351571
 21
608.68924070591868
  0
ARC
  8
_0-8_
  6
CONTINUOUS
 62
    7
 10
694.42777750740288
 20
594.89349652523902
 40
13.795743942260742
 50
66.573394775390625
 51
113.4265899658203
  0
LINE
  8
_0-8_
  6
CONTINUOUS
 62
    7
 10
705.39730224364632
 20
607.55205892175377
 11
704.72987846150647
 21
608.07031442245807
  0
LINE
  8
_0-8_
  6
CONTINUOUS
 62
    7
 10
704.72987846150647
 20
608.07031442245807
 11
703.9994111252729
 21
608.43817687630894
  0
LINE
  8
_0-8_
  6
CONTINUOUS
 62
    7
 10
703.9994111252729
 20
608.43817687630894
 11
703.2280951153225
 21
608.64446896879338
  0
LINE
  8
_0-8_
  6
CONTINUOUS
 62
    7
 10
703.2280951153225
 20
608.64446896879338
 11
702.43936647831322
 21
608.68292261907027
  0
LINE
  8
_0-8_
  6
CONTINUOUS
 62
    7
 10
702.43936647831322
 20
608.68292261907027
 11
701.65719033476444
 21
608.55236943243426
  0
LINE
  8
_0-8_
  6
CONTINUOUS
 62
    7
 10
701.65719033476444
 20
608.55236943243426
 11
700.90533271099753
 21
608.25677620139822
  0
LINE
  8
_0-8_
  6
CONTINUOUS
 62
    7
 10
700.90533271099753
 20
608.25677620139822
 11
700.20663842045269
 21
607.80512437670984
  0
LINE
  8
_0-8_
  6
CONTINUOUS
 62
    7
 10
700.20663842045269
 20
607.80512437670984
 11
699.91273676308765
 21
607.55205981982806
  0
LINE
  8
_0-8_
  6
CONTINUOUS
 62
    7
 10
688.94281921142067
 20
607.55205892175377
 11
688.27539542928082
 21
608.07031442245807
  0
LINE
  8
_0-8_
  6
CONTINUOUS
 62
    7
 10
688.27539542928082
 20
608.07031442245807
 11
687.54492809304725
 21
608.43817687630894
  0
LINE
  8
_0-8_
  6
CONTINUOUS
 62
    7
 10
687.54492809304725
 20
608.43817687630894
 11
686.77361208309685
 21
608.64446896879338
  0
LINE
  8
_0-8_
  6
CONTINUOUS
 62
    7
 10
686.77361208309685
 20
608.64446896879338
 11
685.98488344608757
 21
608.68292261907027
  0
LINE
  8
_0-8_
  6
CONTINUOUS
 62
    7
 10
685.98488344608757
 20
608.68292261907027
 11
685.20270730253878
 21
608.55236943243426
  0
LINE
  8
_0-8_
  6
CONTINUOUS
 62
    7
 10
685.20270730253878
 20
608.55236943243426
 11
684.45084967877187
 21
608.25677620139822
  0
LINE
  8
_0-8_
  6
CONTINUOUS
 62
    7
 10
684.45084967877187
 20
608.25677620139822
 11
683.75215538822704
 21
607.80512437670984
  0
LINE
  8
_0-8_
  6
CONTINUOUS
 62
    7
 10
683.75215538822704
 20
607.80512437670984
 11
683.458253730862
 21
607.55205981982806
  0
LINE
  8
_0-8_
  6
CONTINUOUS
 62
    7
 10
688.94294998893952
 20
602.62642198796198
 11
688.94294998893952
 21
607.55205942387522
  0
LINE
  8
_0-8_
  6
CONTINUOUS
 62
    7
 10
705.3974325443296
 20
607.55205942387522
 11
705.3974325443296
 21
602.62642198796198
  0
LINE
  8
_0-8_
  6
CONTINUOUS
 62
    7
 10
702.65501902351571
 20
601.48924070591875
 11
686.20053599129005
 21
601.48924070591875
  0
LINE
  8
_0-8_
  6
CONTINUOUS
 62
    7
 10
683.45812247047616
 20
602.62642198796198
 11
683.45812247047616
 21
607.55205942387522
  0
LINE
  8
_0-8_
  6
CONTINUOUS
 62
    7
 10
699.91260502586624
 20
607.55205942387522
 11
699.91260502586624
 21
602.62642198796198
  0
ARC
  8
_0-8_
  6
CONTINUOUS
 62
    7
 10
694.42777750740288
 20
615.28498488659807
 40
13.795743942260742
 50
246.57341003417969
 51
293.42660522460937
  0
LINE
  8
_0-8_
  6
CONTINUOUS
 62
    7
 10
699.91273676308765
 20
602.62642159200936
 11
700.58016065746506
 21
602.10816630988052
  0
LINE
  8
_0-8_
  6
CONTINUOUS
 62
    7
 10
700.58016065746506
 20
602.10816630988052
 11
701.31062807336593
 21
601.74030409525153
  0
LINE
  8
_0-8_
  6
CONTINUOUS
 62
    7
 10
701.31062807336593
 20
601.74030409525153
 11
702.08194412799253
 21
601.53401225536663
  0
LINE
  8
_0-8_
  6
CONTINUOUS
 62
    7
 10
702.08194412799253
 20
601.53401225536663
 11
702.87067277332972
 21
601.49555886339169
  0
LINE
  8
_0-8_
  6
CONTINUOUS
 62
    7
 10
702.87067277332972
 20
601.49555886339169
 11
703.65284888860492
 21
601.62611230618381
  0
LINE
  8
_0-8_
  6
CONTINUOUS
 62
    7
 10
703.65284888860492
 20
601.62611230618381
 11
704.40470644835545
 21
601.92170578344667
  0
LINE
  8
_0-8_
  6
CONTINUOUS
 62
    7
 10
704.40470644835545
 20
601.92170578344667
 11
705.10340064108698
 21
602.37335783695153
  0
LINE
  8
_0-8_
  6
CONTINUOUS
 62
    7
 10
705.10340064108698
 20
602.37335783695153
 11
705.39730224364632
 21
602.62642249008366
  0
LINE
  8
_0-8_
  6
CONTINUOUS
 62
    7
 10
683.458253730862
 20
602.62642159200936
 11
684.1256776252394
 21
602.10816630988052
  0
LINE
  8
_0-8_
  6
CONTINUOUS
 62
    7
 10
684.1256776252394
 20
602.10816630988052
 11
684.85614504114028
 21
601.74030409525153
  0
LINE
  8
_0-8_
  6
CONTINUOUS
 62
    7
 10
684.85614504114028
 20
601.74030409525153
 11
685.62746109576688
 21
601.53401225536663
  0
LINE
  8
_0-8_
  6
CONTINUOUS
 62
    7
 10
685.62746109576688
 20
601.53401225536663
 11
686.41618974110406
 21
601.49555886339169
  0
LINE
  8
_0-8_
  6
CONTINUOUS
 62
    7
 10
686.41618974110406
 20
601.49555886339169
 11
687.19836585637927
 21
601.62611230618381
  0
LINE
  8
_0-8_
  6
CONTINUOUS
 62
    7
 10
687.19836585637927
 20
601.62611230618381
 11
687.9502234161298
 21
601.92170578344667
  0
LINE
  8
_0-8_
  6
CONTINUOUS
 62
    7
 10
687.9502234161298
 20
601.92170578344667
 11
688.64891760886132
 21
602.37335783695153
  0
LINE
  8
_0-8_
  6
CONTINUOUS
 62
    7
 10
688.64891760886132
 20
602.37335783695153
 11
688.94281921142067
 21
602.62642249008366
  0
LINE
  8
_0-8_
  6
CONTINUOUS
 62
    7
 10
700.42777750740311
 20
601.48924070591875
 11
700.42777750740311
 21
563.68924070591754
  0
LINE
  8
_0-8_
  6
CONTINUOUS
 62
    7
 10
688.42777750740265
 20
601.48924070591875
 11
688.42777750740265
 21
563.68924070591754
  0
LINE
  8
_0-8_
  6
CONTINUOUS
 62
    7
 10
699.67777750740311
 20
628.68924070591811
 11
699.67777750740311
 21
643.43924070591731
  0
LINE
  8
_0-8_
  6
CONTINUOUS
 62
    7
 10
689.17777750740265
 20
628.68924070591811
 11
689.17777750740265
 21
643.4392407059172
  0
LINE
  8
_0-8_
  6
CONTINUOUS
 62
    7
 10
700.42777750740311
 20
642.68924070591731
 11
700.42777750740311
 21
628.68924070591811
  0
LINE
  8
_0-8_
  6
CONTINUOUS
 62
    7
 10
688.42777750740265
 20
642.68924070591731
 11
688.42777750740265
 21
628.68924070591811
  0
LINE
  8
_0-9_
  6
PHANTOM1
 62
    7
 10
683.45812239279962
 20
595.35560331613704
 11
686.4277775074022
 21
594.5892407059174
  0
LINE
  8
_0-9_
  6
PHANTOM1
 62
    7
 10
706.4277775074022
 20
594.5892407059174
 11
706.4277775074022
 21
594.18924070591709
  0
LINE
  8
_0-9_
  6
PHANTOM1
 62
    7
 10
702.42777750740356
 20
594.5892407059174
 11
705.39743262200614
 21
595.35560331613704
  0
LINE
  8
_0-9_
  6
PHANTOM1
 62
    7
 10
682.42777750740356
 20
594.5892407059174
 11
682.42777750740356
 21
594.18924070591709
  0
LINE
  8
_0-9_
  6
PHANTOM1
 62
    7
 10
674.42777750740288
 20
591.18924070591709
 11
674.42777750740288
 21
586.18924070591709
  0
LINE
  8
_0-9_
  6
PHANTOM1
 62
    7
 10
714.42777750740288
 20
586.18924070591709
 11
714.42777750740288
 21
591.18924070591709
  0
LINE
  8
_0-9_
  6
PHANTOM1
 62
    7
 10
713.82777750740229
 20
586.18924070591709
 11
713.82777750740229
 21
583.68924070591709
  0
LINE
  8
_0-9_
  6
PHANTOM1
 62
    7
 10
675.02777750740347
 20
583.68924070591709
 11
675.02777750740347
 21
586.18924070591709
  0
LINE
  8
_0-9_
  6
PHANTOM1
 62
    7
 10
676.4277775074022
 20
583.68924070591709
 11
676.4277775074022
 21
580.68924070591754
  0
LINE
  8
_0-9_
  6
PHANTOM1
 62
    7
 10
676.4277775074022
 20
580.68924070591754
 11
712.42777750740356
 21
580.68924070591754
  0
LINE
  8
_0-9_
  6
PHANTOM1
 62
    7
 10
712.42777750740356
 20
580.68924070591754
 11
712.42777750740356
 21
583.68924070591709
  0
ARC
  8
_0-9_
  6
PHANTOM1
 62
    7
 10
677.42777750740356
 20
591.18924070591709
 40
2.9999999999999867
 50
89.99999999999946
 51
180.0000000000002
  0
ARC
  8
_0-9_
  6
PHANTOM1
 62
    7
 10
711.4277775074022
 20
591.18924070591709
 40
2.9999999999999725
 50
359.99999999999977
 51
90.00000000000054
  0
LINE
  8
_0-9_
  6
PHANTOM1
 62
    7
 10
682.42777750740356
 20
594.5892407059174
 11
686.4277775074022
 21
594.5892407059174
  0
LINE
  8
_0-9_
  6
PHANTOM1
 62
    7
 10
702.42777750740356
 20
594.5892407059174
 11
706.4277775074022
 21
594.5892407059174
  0
LINE
  8
_0-9_
  6
PHANTOM1
 62
    7
 10
677.42777750765367
 20
594.18924070591709
 11
682.42777750740356
 21
594.18924070591709
  0
LINE
  8
_0-9_
  6
PHANTOM1
 62
    7
 10
706.4277775074022
 20
594.18924070591709
 11
711.4277775074022
 21
594.18924070591709
  0
LINE
  8
_0-9_
  6
PHANTOM1
 62
    7
 10
674.42777750740288
 20
586.18924070591709
 11
675.02777750740347
 21
586.18924070591709
  0
LINE
  8
_0-9_
  6
PHANTOM1
 62
    7
 10
713.82777750740229
 20
586.18924070591709
 11
714.42777750740288
 21
586.18924070591709
  0
LINE
  8
_0-9_
  6
PHANTOM1
 62
    7
 10
713.82777750740229
 20
583.68924070591709
 11
712.42777750740356
 21
583.68924070591709
  0
LINE
  8
_0-9_
  6
PHANTOM1
 62
    7
 10
676.4277775074022
 20
583.68924070591709
 11
675.02777750740347
 21
583.68924070591709
  0
LINE
  8
_0-9_
  6
PHANTOM1
 62
    7
 10
705.39743262200614
 20
595.35560331613704
 11
705.39743262200614
 21
600.78924070591745
  0
LINE
  8
_0-9_
  6
PHANTOM1
 62
    7
 10
683.45812239279962
 20
600.78924070591745
 11
683.45812239279962
 21
595.35560331613704
  0
LINE
  8
_0-9_
  6
PHANTOM1
 62
    7
 10
808.1705341158347
 20
539.18924070591765
 11
808.1705341158347
 21
534.18924070591765
  0
LINE
  8
_0-9_
  6
PHANTOM1
 62
    7
 10
848.1705341158347
 20
534.18924070591765
 11
848.1705341158347
 21
539.18924070591765
  0
LINE
  8
_0-9_
  6
PHANTOM1
 62
    7
 10
847.57053411583411
 20
534.18924070591765
 11
847.57053411583411
 21
531.68924070591765
  0
LINE
  8
_0-9_
  6
PHANTOM1
 62
    7
 10
808.77053411583529
 20
531.68924070591765
 11
808.77053411583529
 21
534.18924070591765
  0
LINE
  8
_0-9_
  6
PHANTOM1
 62
    7
 10
810.17053411583402
 20
531.68924070591765
 11
810.17053411583402
 21
528.68924070591811
  0
LINE
  8
_0-9_
  6
PHANTOM1
 62
    7
 10
810.17053411583402
 20
528.68924070591811
 11
846.17053411583538
 21
528.68924070591811
  0
LINE
  8
_0-9_
  6
PHANTOM1
 62
    7
 10
846.17053411583538
 20
528.68924070591811
 11
846.17053411583538
 21
531.68924070591765
  0
LINE
  8
_0-9_
  6
PHANTOM1
 62
    7
 10
808.1705341158347
 20
534.18924070591765
 11
808.77053411583529
 21
534.18924070591765
  0
LINE
  8
_0-9_
  6
PHANTOM1
 62
    7
 10
847.57053411583411
 20
534.18924070591765
 11
848.1705341158347
 21
534.18924070591765
  0
LINE
  8
_0-9_
  6
PHANTOM1
 62
    7
 10
847.57053411583411
 20
531.68924070591765
 11
846.17053411583538
 21
531.68924070591765
  0
LINE
  8
_0-9_
  6
PHANTOM1
 62
    7
 10
810.17053411583402
 20
531.68924070591765
 11
808.77053411583529
 21
531.68924070591765
  0
LINE
  8
_0-9_
  6
PHANTOM1
 62
    7
 10
834.17053411583527
 20
679.38924070591725
 11
833.17053411583504
 21
680.38924070591747
  0
LINE
  8
_0-9_
  6
PHANTOM1
 62
    7
 10
833.17053411583504
 20
680.38924070591747
 11
823.17053411583504
 21
680.38924070591747
  0
LINE
  8
_0-9_
  6
PHANTOM1
 62
    7
 10
823.17053411583504
 20
680.38924070591747
 11
822.17053411583481
 21
679.38924070591725
  0
LINE
  8
_0-9_
  6
PHANTOM1
 62
    7
 10
834.17053411583527
 20
652.17109866819055
 11
834.17053411583527
 21
679.38924070591725
  0
LINE
  8
_0-9_
  6
PHANTOM1
 62
    7
 10
822.17053411583481
 20
679.38924070591725
 11
822.17053411583481
 21
652.17109866819055
  0
LINE
  8
_0-8_
  6
CONTINUOUS
 62
    7
 10
834.17053411583504
 20
642.68924070591731
 11
822.17053411583458
 21
642.68924070591731
  0
LINE
  8
_0-8_
  6
CONTINUOUS
 62
    7
 10
808.17053411583481
 20
554.0892407059174
 11
848.17053411583481
 21
554.0892407059174
  0
LINE
  8
_0-8_
  6
CONTINUOUS
 62
    7
 10
846.17053411583549
 20
543.68924070591754
 11
810.17053411583527
 21
543.68924070591754
  0
LINE
  8
_0-8_
  6
CONTINUOUS
 62
    7
 10
823.17053411583481
 20
643.68924070591754
 11
833.17053411583481
 21
643.68924070591754
  0
LINE
  8
_0-8_
  6
CONTINUOUS
 62
    7
 10
833.17053411583481
 20
643.68924070591754
 11
834.17053411583504
 21
642.68924070591731
  0
LINE
  8
_0-8_
  6
CONTINUOUS
 62
    7
 10
822.17053411583458
 20
642.68924070591731
 11
823.17053411583481
 21
643.68924070591754
  0
LINE
  8
_0-8_
  6
CONTINUOUS
 62
    7
 10
848.17053411583481
 20
549.08924070591775
 11
808.17053411583481
 21
549.08924070591775
  0
LINE
  8
_0-8_
  6
CONTINUOUS
 62
    7
 10
846.17053411583549
 20
546.58924070591775
 11
846.17053411583549
 21
543.68924070591754
  0
LINE
  8
_0-8_
  6
CONTINUOUS
 62
    7
 10
810.17053411583527
 20
543.68924070591754
 11
810.17053411583527
 21
546.58924070591775
  0
LINE
  8
_0-8_
  6
CONTINUOUS
 62
    7
 10
811.17053411608561
 20
557.08924070591752
 11
845.17053411583527
 21
557.08924070591752
  0
LINE
  8
_0-8_
  6
CONTINUOUS
 62
    7
 10
840.17053411583527
 20
557.08924070591752
 11
840.17053411583527
 21
557.4892407059175
  0
LINE
  8
_0-8_
  6
CONTINUOUS
 62
    7
 10
840.17053411583527
 20
557.4892407059175
 11
816.17053411583549
 21
557.4892407059175
  0
LINE
  8
_0-8_
  6
CONTINUOUS
 62
    7
 10
816.17053411583549
 20
557.4892407059175
 11
816.17053411583549
 21
557.08924070591752
  0
LINE
  8
_0-8_
  6
CONTINUOUS
 62
    7
 10
817.20087900123269
 20
558.25560331613747
 11
817.89192127547574
 21
558.09519359931517
  0
LINE
  8
_0-8_
  6
CONTINUOUS
 62
    7
 10
817.89192127547574
 20
558.09519359931517
 11
818.58437989981746
 21
557.97469160839876
  0
LINE
  8
_0-8_
  6
CONTINUOUS
 62
    7
 10
818.58437989981746
 20
557.97469160839876
 11
819.27608637177593
 21
557.90040484772692
  0
LINE
  8
_0-8_
  6
CONTINUOUS
 62
    7
 10
819.27608637177593
 20
557.90040484772692
 11
819.9677594452836
 21
557.87637000241989
  0
LINE
  8
_0-8_
  6
CONTINUOUS
 62
    7
 10
819.9677594452836
 20
557.87637000241989
 11
820.65093178758582
 21
557.90339377587475
  0
LINE
  8
_0-8_
  6
CONTINUOUS
 62
    7
 10
820.65093178758582
 20
557.90339377587475
 11
821.33234414603487
 21
557.97901392533151
  0
LINE
  8
_0-8_
  6
CONTINUOUS
 62
    7
 10
821.33234414603487
 20
557.97901392533151
 11
822.01024576262137
 21
558.0983922605036
  0
LINE
  8
_0-8_
  6
CONTINUOUS
 62
    7
 10
822.01024576262137
 20
558.0983922605036
 11
822.68570655853375
 21
558.25560331613747
  0
LINE
  8
_0-8_
  6
CONTINUOUS
 62
    7
 10
822.68570655853375
 20
558.25560331613747
 11
825.09639052921523
 21
558.00150049936394
  0
LINE
  8
_0-8_
  6
CONTINUOUS
 62
    7
 10
825.09639052921523
 20
558.00150049936394
 11
827.50949048529344
 21
557.88226550740853
  0
LINE
  8
_0-8_
  6
CONTINUOUS
 62
    7
 10
827.50949048529344
 20
557.88226550740853
 11
829.89877276054892
 21
557.91657513688244
  0
LINE
  8
_0-8_
  6
CONTINUOUS
 62
    7
 10
829.89877276054892
 20
557.91657513688244
 11
832.27328976923638
 21
558.09519489306001
  0
LINE
  8
_0-8_
  6
CONTINUOUS
 62
    7
 10
832.27328976923638
 20
558.09519489306001
 11
833.65536167313701
 21
558.25560331613747
  0
LINE
  8
_0-8_
  6
CONTINUOUS
 62
    7
 10
833.65536167313701
 20
558.25560331613747
 11
834.34640394738119
 21
558.09519359931517
  0
LINE
  8
_0-8_
  6
CONTINUOUS
 62
    7
 10
834.34640394738119
 20
558.09519359931517
 11
835.03886257172178
 21
557.97469160839876
  0
LINE
  8
_0-8_
  6
CONTINUOUS
 62
    7
 10
835.03886257172178
 20
557.97469160839876
 11
835.73056904368025
 21
557.90040484772692
  0
LINE
  8
_0-8_
  6
CONTINUOUS
 62
    7
 10
835.73056904368025
 20
557.90040484772692
 11
836.42224211718792
 21
557.87637000241989
  0
LINE
  8
_0-8_
  6
CONTINUOUS
 62
    7
 10
836.42224211718792
 20
557.87637000241989
 11
837.10541445949013
 21
557.90339377587475
  0
LINE
  8
_0-8_
  6
CONTINUOUS
 62
    7
 10
837.10541445949013
 20
557.90339377587475
 11
837.78682681793919
 21
557.97901392533151
  0
LINE
  8
_0-8_
  6
CONTINUOUS
 62
    7
 10
837.78682681793919
 20
557.97901392533151
 11
838.46472843452568
 21
558.0983922605036
  0
LINE
  8
_0-8_
  6
CONTINUOUS
 62
    7
 10
838.46472843452568
 20
558.0983922605036
 11
839.14018923043807
 21
558.25560331613747
  0
LINE
  8
_0-8_
  6
CONTINUOUS
 62
    7
 10
839.14018923043807
 20
558.25560331613747
 11
836.17053411583549
 21
557.4892407059175
  0
LINE
  8
_0-8_
  6
CONTINUOUS
 62
    7
 10
833.65536167313701
 20
558.25560331613747
 11
833.65536167313701
 21
563.68924070591754
  0
LINE
  8
_0-8_
  6
CONTINUOUS
 62
    7
 10
839.14018923043807
 20
563.68924070591754
 11
817.20087900123269
 21
563.68924070591754
  0
LINE
  8
_0-8_
  6
CONTINUOUS
 62
    7
 10
817.20087900123269
 20
563.68924070591754
 11
817.20087900123269
 21
558.25560331613747
  0
LINE
  8
_0-8_
  6
CONTINUOUS
 62
    7
 10
817.20087900123269
 20
558.25560331613747
 11
820.17053411583527
 21
557.4892407059175
  0
LINE
  8
_0-8_
  6
CONTINUOUS
 62
    7
 10
822.68570655853375
 20
558.25560331613747
 11
822.68570655853375
 21
563.68924070591754
  0
LINE
  8
_0-8_
  6
CONTINUOUS
 62
    7
 10
839.14018923043807
 20
563.68924070591754
 11
839.14018923043807
 21
558.25560331613747
  0
ARC
  8
_0-8_
  6
CONTINUOUS
 62
    7
 10
811.17053411583549
 20
554.0892407059174
 40
2.9999999999999867
 50
89.99999999999946
 51
180.0000000000002
  0
ARC
  8
_0-8_
  6
CONTINUOUS
 62
    7
 10
845.17053411583527
 20
554.0892407059174
 40
2.9999999999999725
 50
359.99999999999977
 51
90.00000000000054
  0
LINE
  8
_0-8_
  6
CONTINUOUS
 62
    7
 10
808.17053411583481
 20
546.58924070591775
 11
808.17053411583481
 21
554.0892407059174
  0
LINE
  8
_0-8_
  6
CONTINUOUS
 62
    7
 10
808.17053411583481
 20
546.58924070591775
 11
848.17053411583481
 21
546.58924070591775
  0
LINE
  8
_0-8_
  6
CONTINUOUS
 62
    7
 10
848.17053411583481
 20
554.0892407059174
 11
848.17053411583481
 21
546.58924070591775
  0
LINE
  8
_0-8_
  6
CONTINUOUS
 62
    7
 10
822.92053411583458
 20
563.68924070591754
 11
822.92053411583458
 21
601.48924070591875
  0
LINE
  8
_0-8_
  6
CONTINUOUS
 62
    7
 10
833.42053411583504
 20
563.68924070591754
 11
833.42053411583504
 21
601.48924070591875
  0
LINE
  8
_0-8_
  6
CONTINUOUS
 62
    7
 10
819.94329259972199
 20
608.68924070591868
 11
836.39777563194764
 21
608.68924070591868
  0
ARC
  8
_0-8_
  6
CONTINUOUS
 62
    7
 10
828.17053411583481
 20
594.89349652523902
 40
13.795743942260742
 50
66.573394775390625
 51
113.4265899658203
  0
LINE
  8
_0-8_
  6
CONTINUOUS
 62
    7
 10
839.14005885207825
 20
607.55205892175377
 11
838.47263506993841
 21
608.07031442245807
  0
LINE
  8
_0-8_
  6
CONTINUOUS
 62
    7
 10
838.47263506993841
 20
608.07031442245807
 11
837.74216773370483
 21
608.43817687630894
  0
LINE
  8
_0-8_
  6
CONTINUOUS
 62
    7
 10
837.74216773370483
 20
608.43817687630894
 11
836.97085172375455
 21
608.64446896879338
  0
LINE
  8
_0-8_
  6
CONTINUOUS
 62
    7
 10
836.97085172375455
 20
608.64446896879338
 11
836.18212308674515
 21
608.68292261907027
  0
LINE
  8
_0-8_
  6
CONTINUOUS
 62
    7
 10
836.18212308674515
 20
608.68292261907027
 11
835.39994694319637
 21
608.55236943243426
  0
LINE
  8
_0-8_
  6
CONTINUOUS
 62
    7
 10
835.39994694319637
 20
608.55236943243426
 11
834.64808931942957
 21
608.25677620139822
  0
LINE
  8
_0-8_
  6
CONTINUOUS
 62
    7
 10
834.64808931942957
 20
608.25677620139822
 11
833.94939502888474
 21
607.80512437670984
  0
LINE
  8
_0-8_
  6
CONTINUOUS
 62
    7
 10
833.94939502888474
 20
607.80512437670984
 11
833.65549337151958
 21
607.55205981982806
  0
LINE
  8
_0-8_
  6
CONTINUOUS
 62
    7
 10
822.6855758198526
 20
607.55205892175377
 11
822.01815203771275
 21
608.07031442245807
  0
LINE
  8
_0-8_
  6
CONTINUOUS
 62
    7
 10
822.01815203771275
 20
608.07031442245807
 11
821.28768470147918
 21
608.43817687630894
  0
LINE
  8
_0-8_
  6
CONTINUOUS
 62
    7
 10
821.28768470147918
 20
608.43817687630894
 11
820.5163686915289
 21
608.64446896879338
  0
LINE
  8
_0-8_
  6
CONTINUOUS
 62
    7
 10
820.5163686915289
 20
608.64446896879338
 11
819.7276400545195
 21
608.68292261907027
  0
LINE
  8
_0-8_
  6
CONTINUOUS
 62
    7
 10
819.7276400545195
 20
608.68292261907027
 11
818.94546391097072
 21
608.55236943243426
  0
LINE
  8
_0-8_
  6
CONTINUOUS
 62
    7
 10
818.94546391097072
 20
608.55236943243426
 11
818.19360628720392
 21
608.25677620139822
  0
LINE
  8
_0-8_
  6
CONTINUOUS
 62
    7
 10
818.19360628720392
 20
608.25677620139822
 11
817.49491199665908
 21
607.80512437670984
  0
LINE
  8
_0-8_
  6
CONTINUOUS
 62
    7
 10
817.49491199665908
 20
607.80512437670984
 11
817.20101033929393
 21
607.55205981982806
  0
LINE
  8
_0-8_
  6
CONTINUOUS
 62
    7
 10
822.68570659737145
 20
602.62642198796198
 11
822.68570659737145
 21
607.55205942387522
  0
LINE
  8
_0-8_
  6
CONTINUOUS
 62
    7
 10
839.14018915276154
 20
607.55205942387522
 11
839.14018915276154
 21
602.62642198796198
  0
LINE
  8
_0-8_
  6
CONTINUOUS
 62
    7
 10
836.39777563194764
 20
601.48924070591875
 11
819.94329259972199
 21
601.48924070591875
  0
LINE
  8
_0-8_
  6
CONTINUOUS
 62
    7
 10
817.20087907890809
 20
602.62642198796198
 11
817.20087907890809
 21
607.55205942387522
  0
LINE
  8
_0-8_
  6
CONTINUOUS
 62
    7
 10
833.65536163429817
 20
607.55205942387522
 11
833.65536163429817
 21
602.62642198796198
  0
ARC
  8
_0-8_
  6
CONTINUOUS
 62
    7
 10
828.17053411583481
 20
615.28498488659807
 40
13.795743942260742
 50
246.57341003417969
 51
293.42660522460937
  0
LINE
  8
_0-8_
  6
CONTINUOUS
 62
    7
 10
833.65549337151958
 20
602.62642159200936
 11
834.3229172658971
 21
602.10816630988052
  0
LINE
  8
_0-8_
  6
CONTINUOUS
 62
    7
 10
834.3229172658971
 20
602.10816630988052
 11
835.05338468179798
 21
601.74030409525153
  0
LINE
  8
_0-8_
  6
CONTINUOUS
 62
    7
 10
835.05338468179798
 20
601.74030409525153
 11
835.82470073642457
 21
601.53401225536663
  0
LINE
  8
_0-8_
  6
CONTINUOUS
 62
    7
 10
835.82470073642457
 20
601.53401225536663
 11
836.61342938176176
 21
601.49555886339169
  0
LINE
  8
_0-8_
  6
CONTINUOUS
 62
    7
 10
836.61342938176176
 20
601.49555886339169
 11
837.39560549703685
 21
601.62611230618381
  0
LINE
  8
_0-8_
  6
CONTINUOUS
 62
    7
 10
837.39560549703685
 20
601.62611230618381
 11
838.1474630567875
 21
601.92170578344667
  0
LINE
  8
_0-8_
  6
CONTINUOUS
 62
    7
 10
838.1474630567875
 20
601.92170578344667
 11
838.84615724951891
 21
602.37335783695153
  0
LINE
  8
_0-8_
  6
CONTINUOUS
 62
    7
 10
838.84615724951891
 20
602.37335783695153
 11
839.14005885207825
 21
602.62642249008366
  0
LINE
  8
_0-8_
  6
CONTINUOUS
 62
    7
 10
817.20101033929393
 20
602.62642159200936
 11
817.86843423367145
 21
602.10816630988052
  0
LINE
  8
_0-8_
  6
CONTINUOUS
 62
    7
 10
817.86843423367145
 20
602.10816630988052
 11
818.59890164957233
 21
601.74030409525153
  0
LINE
  8
_0-8_
  6
CONTINUOUS
 62
    7
 10
818.59890164957233
 20
601.74030409525153
 11
819.37021770419892
 21
601.53401225536663
  0
LINE
  8
_0-8_
  6
CONTINUOUS
 62
    7
 10
819.37021770419892
 20
601.53401225536663
 11
820.15894634953611
 21
601.49555886339169
  0
LINE
  8
_0-8_
  6
CONTINUOUS
 62
    7
 10
820.15894634953611
 20
601.49555886339169
 11
820.9411224648112
 21
601.62611230618381
  0
LINE
  8
_0-8_
  6
CONTINUOUS
 62
    7
 10
820.9411224648112
 20
601.62611230618381
 11
821.69298002456185
 21
601.92170578344667
  0
LINE
  8
_0-8_
  6
CONTINUOUS
 62
    7
 10
821.69298002456185
 20
601.92170578344667
 11
822.39167421729326
 21
602.37335783695153
  0
LINE
  8
_0-8_
  6
CONTINUOUS
 62
    7
 10
822.39167421729326
 20
602.37335783695153
 11
822.6855758198526
 21
602.62642249008366
  0
LINE
  8
_0-8_
  6
CONTINUOUS
 62
    7
 10
834.17053411583504
 20
601.48924070591875
 11
834.17053411583504
 21
563.68924070591754
  0
LINE
  8
_0-8_
  6
CONTINUOUS
 62
    7
 10
822.17053411583458
 20
601.48924070591875
 11
822.17053411583458
 21
563.68924070591754
  0
LINE
  8
_0-8_
  6
CONTINUOUS
 62
    7
 10
833.42053411583504
 20
628.68924070591811
 11
833.42053411583504
 21
643.43924070591731
  0
LINE
  8
_0-8_
  6
CONTINUOUS
 62
    7
 10
822.92053411583458
 20
628.68924070591811
 11
822.92053411583458
 21
643.4392407059172
  0
LINE
  8
_0-8_
  6
CONTINUOUS
 62
    7
 10
834.17053411583504
 20
642.68924070591731
 11
834.17053411583504
 21
628.68924070591811
  0
LINE
  8
_0-8_
  6
CONTINUOUS
 62
    7
 10
822.17053411583458
 20
642.68924070591731
 11
822.17053411583458
 21
628.68924070591811
  0
LINE
  8
_0-9_
  6
PHANTOM1
 62
    7
 10
817.20087900123167
 20
595.35560331613704
 11
820.17053411583424
 21
594.5892407059174
  0
LINE
  8
_0-9_
  6
PHANTOM1
 62
    7
 10
840.17053411583424
 20
594.5892407059174
 11
840.17053411583424
 21
594.18924070591709
  0
LINE
  8
_0-9_
  6
PHANTOM1
 62
    7
 10
836.17053411583561
 20
594.5892407059174
 11
839.14018923043818
 21
595.35560331613704
  0
LINE
  8
_0-9_
  6
PHANTOM1
 62
    7
 10
816.17053411583561
 20
594.5892407059174
 11
816.17053411583561
 21
594.18924070591709
  0
LINE
  8
_0-9_
  6
PHANTOM1
 62
    7
 10
808.17053411583493
 20
591.18924070591709
 11
808.17053411583493
 21
586.18924070591709
  0
LINE
  8
_0-9_
  6
PHANTOM1
 62
    7
 10
848.17053411583493
 20
586.18924070591709
 11
848.17053411583493
 21
591.18924070591709
  0
LINE
  8
_0-9_
  6
PHANTOM1
 62
    7
 10
847.57053411583433
 20
586.18924070591709
 11
847.57053411583433
 21
583.68924070591709
  0
LINE
  8
_0-9_
  6
PHANTOM1
 62
    7
 10
808.77053411583552
 20
583.68924070591709
 11
808.77053411583552
 21
586.18924070591709
  0
LINE
  8
_0-9_
  6
PHANTOM1
 62
    7
 10
810.17053411583424
 20
583.68924070591709
 11
810.17053411583424
 21
580.68924070591754
  0
LINE
  8
_0-9_
  6
PHANTOM1
 62
    7
 10
810.17053411583424
 20
580.68924070591754
 11
846.17053411583561
 21
580.68924070591754
  0
LINE
  8
_0-9_
  6
PHANTOM1
 62
    7
 10
846.17053411583561
 20
580.68924070591754
 11
846.17053411583561
 21
583.68924070591709
  0
ARC
  8
_0-9_
  6
PHANTOM1
 62
    7
 10
811.17053411583561
 20
591.18924070591709
 40
2.9999999999999867
 50
89.99999999999946
 51
180.0000000000002
  0
ARC
  8
_0-9_
  6
PHANTOM1
 62
    7
 10
845.17053411583424
 20
591.18924070591709
 40
2.9999999999999725
 50
359.99999999999977
 51
90.00000000000054
  0
LINE
  8
_0-9_
  6
PHANTOM1
 62
    7
 10
816.17053411583561
 20
594.5892407059174
 11
820.17053411583424
 21
594.5892407059174
  0
LINE
  8
_0-9_
  6
PHANTOM1
 62
    7
 10
836.17053411583561
 20
594.5892407059174
 11
840.17053411583424
 21
594.5892407059174
  0
LINE
  8
_0-9_
  6
PHANTOM1
 62
    7
 10
811.17053411608572
 20
594.18924070591709
 11
816.17053411583561
 21
594.18924070591709
  0
LINE
  8
_0-9_
  6
PHANTOM1
 62
    7
 10
840.17053411583424
 20
594.18924070591709
 11
845.17053411583424
 21
594.18924070591709
  0
LINE
  8
_0-9_
  6
PHANTOM1
 62
    7
 10
808.17053411583493
 20
586.18924070591709
 11
808.77053411583552
 21
586.18924070591709
  0
LINE
  8
_0-9_
  6
PHANTOM1
 62
    7
 10
847.57053411583433
 20
586.18924070591709
 11
848.17053411583493
 21
586.18924070591709
  0
LINE
  8
_0-9_
  6
PHANTOM1
 62
    7
 10
847.57053411583433
 20
583.68924070591709
 11
846.17053411583561
 21
583.68924070591709
  0
LINE
  8
_0-9_
  6
PHANTOM1
 62
    7
 10
810.17053411583424
 20
583.68924070591709
 11
808.77053411583552
 21
583.68924070591709
  0
LINE
  8
_0-9_
  6
PHANTOM1
 62
    7
 10
839.14018923043818
 20
595.35560331613704
 11
839.14018923043818
 21
600.78924070591745
  0
LINE
  8
_0-9_
  6
PHANTOM1
 62
    7
 10
817.20087900123167
 20
600.78924070591745
 11
817.20087900123167
 21
595.35560331613704
  0
LINE
  8
_0-1_
  6
PHANTOM1
 62
    7
 10
376.88776017042176
 20
719.37790079447859
 11
325.99383300708075
 21
733.01488747754422
  0
LINE
  8
_0-1_
  6
PHANTOM1
 62
    7
 10
331.52695889030917
 20
731.53229086551346
 11
331.52695889030917
 21
628.68924070591754
  0
LINE
  8
_0-1_
  6
PHANTOM1
 62
    7
 10
371.52695889030917
 20
628.68924070591754
 11
371.52695889030917
 21
720.81432316826852
  0
LINE
  8
_0-1_
  6
PHANTOM1
 62
    7
 10
479.50734121804373
 20
668.68924070591777
 11
371.52695889030917
 21
668.68924070591777
  0
LINE
  8
_0-1_
  6
PHANTOM1
 62
    7
 10
491.69104749396075
 20
623.2190298596995
 11
478.35845783507074
 21
672.9769318631445
  0
LINE
  8
_0-1_
  6
PHANTOM1
 62
    7
 10
331.52695889030917
 20
628.68924070591754
 11
490.22530891528868
 21
628.68924070591754
  0
LINE
  8
_0-1_
  6
PHANTOM1
 62
    7
 10
804.17053411583527
 20
628.68924070591754
 11
967.96112751462567
 21
628.68924070591754
  0
LINE
  8
_0-1_
  6
PHANTOM1
 62
    7
 10
804.17053411583527
 20
720.81432316826852
 11
804.17053411583527
 21
628.68924070591754
  0
LINE
  8
_0-1_
  6
PHANTOM1
 62
    7
 10
49.393608900179061
 20
628.68924070591754
 11
213.18420229896947
 21
628.68924070591754
  0
LINE
  8
_0-1_
  6
PHANTOM1
 62
    7
 10
213.18420229896947
 20
720.81432316826852
 11
213.18420229896947
 21
628.68924070591754
  0
LINE
  8
_0-1_
  6
PHANTOM1
 62
    7
 10
691.18857877042228
 20
719.37790079447859
 11
640.29465160708128
 21
733.01488747754422
  0
LINE
  8
_0-1_
  6
PHANTOM1
 62
    7
 10
645.8277774903097
 20
731.53229086551346
 11
645.8277774903097
 21
628.68924070591754
  0
LINE
  8
_0-1_
  6
PHANTOM1
 62
    7
 10
525.66368888665806
 20
674.15945155213603
 11
538.99627854554808
 21
624.40154954869104
  0
LINE
  8
_0-1_
  6
PHANTOM1
 62
    7
 10
645.8277774903097
 20
668.689240705918
 11
527.12942746533008
 21
668.689240705918
  0
LINE
  8
_0-1_
  6
PHANTOM1
 62
    7
 10
537.84739516257514
 20
628.68924070591777
 11
685.8277774903097
 21
628.68924070591777
  0
LINE
  8
_0-1_
  6
PHANTOM1
 62
    7
 10
685.8277774903097
 20
628.68924070591777
 11
685.8277774903097
 21
720.81432316826852
  0
ENDSEC
  0
EOF
