  0
SECTION
  2
HEADER
  9
$ACADVER
  1
AC1009
  9
$INSBASE
 10
0
 20
0
 30
0
  9
$EXTMIN
 10
0
 20
0
  9
$EXTMAX
 10
1189
 20
841
  9
$LIMMIN
 10
0
 20
0
  9
$LIMMAX
 10
1189
 20
841
  9
$LTSCALE
 40
1
  0
ENDSEC
  0
SECTION
  2
TABLES
  0
TABLE
  2
LTYPE
 70
     9
  0
LTYPE
  2
CONTINUOUS
 70
    64
  3
実線
 72
    65
 73
     0
 40
0.0
  0
LTYPE
  2
DASHED1
 70
    64
  3
--  --  --  --  --  --  --  --  
 72
    65
 73
     2
 40
2.5
 49
1.25
 49
-1.25
  0
LTYPE
  2
DASHED2
 70
    64
  3
----    ----    ----    ----    
 72
    65
 73
     2
 40
5.0
 49
2.5
 49
-2.5
  0
LTYPE
  2
DASHED3
 70
    64
  3
------  ------  ------  ------  
 72
    65
 73
     2
 40
5.0
 49
3.75
 49
-1.25
  0
LTYPE
  2
CENTER1
 70
    64
  3
----- - ----- - ----- - ----- - 
 72
    65
 73
     4
 40
10.0
 49
6.25
 49
-1.25
 49
1.25
 49
-1.25
  0
LTYPE
  2
CENTER2
 70
    64
  3
----------  --  ----------  --  
 72
    65
 73
     4
 40
20.0
 49
12.5
 49
-2.5
 49
2.5
 49
-2.5
  0
LTYPE
  2
PHANTOM1
 70
    64
  3
--- - - --- - - --- - - --- - - 
 72
    65
 73
     6
 40
10.0
 49
3.25
 49
-1.25
 49
1.25
 49
-1.25
 49
1.25
 49
-1.25
  0
LTYPE
  2
PHANTOM2
 70
    64
  3
--------  -  -  --------  -  -  
 72
    65
 73
     6
 40
20.0
 49
10.0
 49
-2.5
 49
1.25
 49
-2.5
 49
1.25
 49
-2.5
  0
LTYPE
  2
DOT
 70
    64
  3
-   -   -   -   -   -   -   -   
 72
    65
 73
     2
 40
2.5
 49
0.625
 49
-1.875
  0
LTYPE
  2
DUMMY
 70
    64
  3
ダミー
 72
    65
 73
     0
 40
0.0
  0
LTYPE
  2
RAND1
 70
    64
  3
ランダム線1
 72
    65
 73
     4
 40
10.0
 49
1.0
 49
-2.0
 49
3.0
 49
-4.0
  0
LTYPE
  2
RAND2
 70
    64
  3
ランダム線2
 72
    65
 73
     4
 40
14.0
 49
2.0
 49
-3.0
 49
4.0
 49
-5.0
  0
LTYPE
  2
RAND3
 70
    64
  3
ランダム線3
 72
    65
 73
     4
 40
18.0
 49
3.0
 49
-4.0
 49
5.0
 49
-6.0
  0
LTYPE
  2
RAND4
 70
    64
  3
ランダム線4
 72
    65
 73
     4
 40
22.0
 49
4.0
 49
-5.0
 49
6.0
 49
-7.0
  0
LTYPE
  2
RAND5
 70
    64
  3
ランダム線5
 72
    65
 73
     4
 40
26.0
 49
5.0
 49
-6.0
 49
7.0
 49
-8.0
  0
LTYPE
  2
LONG1
 70
    64
  3
----------  --  ----------  --  
 72
    65
 73
     4
 40
40.0
 49
32.5
 49
-2.5
 49
2.5
 49
-2.5
  0
LTYPE
  2
LONG2
 70
    64
  3
--------  -  -  --------  -  -  
 72
    65
 73
     6
 40
40.0
 49
30.0
 49
-2.5
 49
1.25
 49
-2.5
 49
1.25
 49
-2.5
  0
LTYPE
  2
LONG3
 70
    64
  3
+++++++++++++++..+++++++++++++++
 72
    65
 73
     2
 40
40.0
 49
37.5
 49
-2.5
  0
LTYPE
  2
LONG4
 70
    64
  3
+++++++++++++++..+++++++++++++++
 72
    65
 73
     2
 40
80.0
 49
75.0
 49
-5.0
  0
LTYPE
  2
LONG5
 70
    64
  3
----------  --  ----------  --  
 72
    65
 73
     4
 40
60.0
 49
37.5
 49
-7.5
 49
7.5
 49
-7.5
  0
LTYPE
  2
dashed
 70
   64
  3
-------   -------------   ------
 72
   65
 73
    2
 40
7.5
 49
6
 49
-1.5
  0
LTYPE
  2
dashed_spaced
 70
   64
  3
----        --------        ----
 72
   65
 73
    2
 40
12
 49
6
 49
-6
  0
LTYPE
  2
long_dashed_dotted
 70
   64
  3
------------- --- --------------
 72
   65
 73
    4
 40
15.25
 49
12
 49
-1.5
 49
0.25
 49
-1.5
  0
LTYPE
  2
long_dashed_double-dotted
 70
   64
  3
----------- --- --- ------------
 72
   65
 73
    6
 40
17
 49
12
 49
-1.5
 49
0.25
 49
-1.5
 49
0.25
 49
-1.5
  0
LTYPE
  2
long_dashed_triplicate-dotted
 70
   64
  3
--------- --- --- --- ----------
 72
   65
 73
    8
 40
18.75
 49
12
 49
-1.5
 49
0.25
 49
-1.5
 49
0.25
 49
-1.5
 49
0.25
 49
-1.5
  0
LTYPE
  2
dotted
 70
   64
  3
   -       -       -       -    
 72
   65
 73
    2
 40
1.75
 49
0.25
 49
-1.5
  0
LTYPE
  2
chain
 70
   64
  3
-------------- -- --------------
 72
   65
 73
    4
 40
18.5
 49
12
 49
-1.5
 49
3.5
 49
-1.5
  0
LTYPE
  2
chain_double_dash
 70
   64
  3
------------ -- -- -------------
 72
   65
 73
    6
 40
23.5
 49
12
 49
-1.5
 49
3.5
 49
-1.5
 49
3.5
 49
-1.5
  0
LTYPE
  2
dashed_dotted
 70
   64
  3
-----------     -     ----------
 72
   65
 73
    4
 40
9.25
 49
6
 49
-1.5
 49
0.25
 49
-1.5
  0
LTYPE
  2
double-dashed_dotted
 70
   64
  3
------   -----------   -   -----
 72
   65
 73
    6
 40
16.75
 49
6
 49
-1.5
 49
6
 49
-1.5
 49
0.25
 49
-1.5
  0
LTYPE
  2
dashed_double-dotted
 70
   64
  3
---------    -    -    ---------
 72
   65
 73
    6
 40
11
 49
6
 49
-1.5
 49
0.25
 49
-1.5
 49
0.25
 49
-1.5
  0
LTYPE
  2
double-dashed_double-dotted
 70
   64
  3
-----   ---------   -   -   ----
 72
   65
 73
    8
 40
18.5
 49
6
 49
-1.5
 49
6
 49
-1.5
 49
0.25
 49
-1.5
 49
0.25
 49
-1.5
  0
LTYPE
  2
dashed_triplicate-dotted
 70
   64
  3
-------    -    -    -    ------
 72
   65
 73
    8
 40
12.75
 49
6
 49
-1.5
 49
0.25
 49
-1.5
 49
0.25
 49
-1.5
 49
0.25
 49
-1.5
  0
LTYPE
  2
double-dashed_triplicate-dotted
 70
   64
  3
-----  ---------  -  -  -  -----
 72
   65
 73
   10
 40
20.25
 49
6
 49
-1.5
 49
6
 49
-1.5
 49
0.25
 49
-1.5
 49
0.25
 49
-1.5
 49
0.25
 49
-1.5
  0
LTYPE
  2
undefined
 70
   64
  3
--------------------------------
 72
   65
 73
    0
 40
0
  0
ENDTAB
  0
TABLE
  2
STYLE
  5
3
100
AcDbSymbolTable
 70
     1
  0
STYLE
  5
10
100
AcDbSymbolTableRecord
100
AcDbTextStyleTableRecord
  2
STANDARD
 70
     0
 40
0.0
 41
1.0
 50
0.0
 71
     0
 42
0.2
  3
txt
  4
bigfont.shx
  0
STYLE
  5
26
100
AcDbSymbolTableRecord
100
AcDbTextStyleTableRecord
  2
TATEGAKI
 70
    68
 40
0.0
 41
1.0
 50
0.0
 71
     0
 42
1.0
  3
txt
  4
bigfont.shx
  0
ENDTAB
  0
TABLE
  2
LAYER
 70
    3
  0
LAYER
  2
_0-0_
 70
   64
 62
    7
  6
CONTINUOUS
  0
LAYER
  2
_0-1_
 70
   64
 62
    7
  6
CONTINUOUS
  0
LAYER
  2
ADD_LINE
 70
   64
 62
    7
  6
CONTINUOUS
  0
ENDTAB
  0
ENDSEC
  0
SECTION
  2
BLOCKS
  0
ENDSEC
  0
SECTION
  2
ENTITIES
  0
LINE
  8
_0-0_
  6
CONTINUOUS
 62
    7
 10
41.282935259782562
 20
147.50789344777104
 11
13.562060600755785
 21
118.72038079192816
  0
LINE
  8
_0-0_
  6
CONTINUOUS
 62
    7
 10
86.182935259782198
 20
78.486056805713361
 11
86.182935259782198
 21
85.529730089826899
  0
LINE
  8
_0-0_
  6
CONTINUOUS
 62
    7
 10
86.432935259782198
 20
85.962742791718938
 11
92.532935259781652
 21
89.484579433776162
  0
LINE
  8
_0-0_
  6
CONTINUOUS
 62
    7
 10
93.032935259782562
 20
89.484579433776162
 11
99.132935259782016
 21
85.962742791718938
  0
LINE
  8
_0-0_
  6
CONTINUOUS
 62
    7
 10
99.382935259782016
 20
85.529730089826899
 11
99.382935259782016
 21
78.486056805713361
  0
LINE
  8
_0-0_
  6
CONTINUOUS
 62
    7
 10
99.132935259782016
 20
78.053044103821321
 11
93.032935259782562
 21
74.531207461764552
  0
LINE
  8
_0-0_
  6
CONTINUOUS
 62
    7
 10
92.532935259781652
 20
74.531207461764552
 11
86.432935259782198
 21
78.053044103821321
  0
LINE
  8
_0-0_
  6
CONTINUOUS
 62
    7
 10
172.38293525978202
 20
85.529730089826899
 11
172.38293525978202
 21
78.486056805713361
  0
LINE
  8
_0-0_
  6
CONTINUOUS
 62
    7
 10
172.13293525978202
 20
78.053044103821321
 11
166.03293525978165
 21
74.531207461764552
  0
LINE
  8
_0-0_
  6
CONTINUOUS
 62
    7
 10
165.53293525978165
 20
74.531207461764552
 11
159.4329352597822
 21
78.053044103821321
  0
LINE
  8
_0-0_
  6
CONTINUOUS
 62
    7
 10
159.1829352597822
 20
78.486056805713361
 11
159.1829352597822
 21
85.529730089826899
  0
LINE
  8
_0-0_
  6
CONTINUOUS
 62
    7
 10
159.4329352597822
 20
85.962742791718938
 11
165.53293525978165
 21
89.484579433776162
  0
LINE
  8
_0-0_
  6
CONTINUOUS
 62
    7
 10
166.03293525978165
 20
89.484579433776162
 11
172.13293525978202
 21
85.962742791718938
  0
LINE
  8
_0-0_
  6
CONTINUOUS
 62
    7
 10
166.30248788148288
 20
52.031207461765462
 11
172.40248788148233
 21
55.553044103821321
  0
LINE
  8
_0-0_
  6
CONTINUOUS
 62
    7
 10
172.65248788148233
 20
55.986056805713361
 11
172.65248788148233
 21
63.029730089826899
  0
LINE
  8
_0-0_
  6
CONTINUOUS
 62
    7
 10
172.40248788148233
 20
63.462742791718938
 11
166.30248788148288
 21
66.984579433776162
  0
LINE
  8
_0-0_
  6
CONTINUOUS
 62
    7
 10
165.80248788148197
 20
66.984579433776162
 11
159.70248788148251
 21
63.462742791718938
  0
LINE
  8
_0-0_
  6
CONTINUOUS
 62
    7
 10
159.45248788148251
 20
63.029730089826899
 11
159.45248788148251
 21
55.986056805713361
  0
LINE
  8
_0-0_
  6
CONTINUOUS
 62
    7
 10
159.70248788148251
 20
55.553044103821321
 11
165.80248788148197
 21
52.031207461765462
  0
LINE
  8
_0-0_
  6
CONTINUOUS
 62
    7
 10
166.03293525978165
 20
29.531207461764552
 11
172.13293525978202
 21
33.053044103821321
  0
LINE
  8
_0-0_
  6
CONTINUOUS
 62
    7
 10
172.38293525978202
 20
33.486056805713361
 11
172.38293525978202
 21
40.529730089826899
  0
LINE
  8
_0-0_
  6
CONTINUOUS
 62
    7
 10
172.13293525978202
 20
40.962742791718938
 11
166.03293525978165
 21
44.484579433775707
  0
LINE
  8
_0-0_
  6
CONTINUOUS
 62
    7
 10
165.53293525978165
 20
44.484579433775707
 11
159.4329352597822
 21
40.962742791718938
  0
LINE
  8
_0-0_
  6
CONTINUOUS
 62
    7
 10
159.1829352597822
 20
40.529730089826899
 11
159.1829352597822
 21
33.486056805713361
  0
LINE
  8
_0-0_
  6
CONTINUOUS
 62
    7
 10
159.4329352597822
 20
33.053044103821321
 11
165.53293525978165
 21
29.531207461764552
  0
LINE
  8
_0-0_
  6
CONTINUOUS
 62
    7
 10
158.13293525978202
 20
26.962742791719847
 11
152.03293525978165
 21
30.484579433775707
  0
LINE
  8
_0-0_
  6
CONTINUOUS
 62
    7
 10
151.53293525978256
 20
30.484579433775707
 11
145.4329352597822
 21
26.962742791719847
  0
LINE
  8
_0-0_
  6
CONTINUOUS
 62
    7
 10
145.1829352597822
 20
26.529730089826899
 11
145.1829352597822
 21
19.486056805713361
  0
LINE
  8
_0-0_
  6
CONTINUOUS
 62
    7
 10
145.4329352597822
 20
19.053044103821321
 11
151.53293525978256
 21
15.531207461764552
  0
LINE
  8
_0-0_
  6
CONTINUOUS
 62
    7
 10
152.03293525978165
 20
15.531207461764552
 11
158.13293525978202
 21
19.053044103821321
  0
LINE
  8
_0-0_
  6
CONTINUOUS
 62
    7
 10
158.38293525978202
 20
19.486056805713361
 11
158.38293525978202
 21
26.529730089826899
  0
LINE
  8
_0-0_
  6
CONTINUOUS
 62
    7
 10
122.6829352597822
 20
26.260177468126585
 11
122.6829352597822
 21
19.216504184013047
  0
LINE
  8
_0-0_
  6
CONTINUOUS
 62
    7
 10
122.9329352597822
 20
18.783491482120098
 11
129.03293525978256
 21
15.261654840064239
  0
LINE
  8
_0-0_
  6
CONTINUOUS
 62
    7
 10
129.53293525978165
 20
15.261654840064239
 11
135.63293525978202
 21
18.783491482120098
  0
LINE
  8
_0-0_
  6
CONTINUOUS
 62
    7
 10
135.88293525978202
 20
19.216504184013047
 11
135.88293525978202
 21
26.260177468126585
  0
LINE
  8
_0-0_
  6
CONTINUOUS
 62
    7
 10
135.63293525978202
 20
26.693190170018624
 11
129.53293525978165
 21
30.215026812075394
  0
LINE
  8
_0-0_
  6
CONTINUOUS
 62
    7
 10
129.03293525978256
 20
30.215026812075394
 11
122.9329352597822
 21
26.693190170018624
  0
LINE
  8
_0-0_
  6
CONTINUOUS
 62
    7
 10
113.38293525978202
 20
26.529730089826899
 11
113.38293525978202
 21
19.486056805713361
  0
LINE
  8
_0-0_
  6
CONTINUOUS
 62
    7
 10
113.13293525978202
 20
19.053044103821321
 11
107.03293525978165
 21
15.531207461764552
  0
LINE
  8
_0-0_
  6
CONTINUOUS
 62
    7
 10
106.53293525978256
 20
15.531207461764552
 11
100.4329352597822
 21
19.053044103821321
  0
LINE
  8
_0-0_
  6
CONTINUOUS
 62
    7
 10
100.1829352597822
 20
19.486056805713361
 11
100.1829352597822
 21
26.529730089826899
  0
LINE
  8
_0-0_
  6
CONTINUOUS
 62
    7
 10
100.4329352597822
 20
26.962742791719847
 11
106.53293525978256
 21
30.484579433775707
  0
LINE
  8
_0-0_
  6
CONTINUOUS
 62
    7
 10
107.03293525978165
 20
30.484579433775707
 11
113.13293525978202
 21
26.962742791719847
  0
LINE
  8
_0-0_
  6
CONTINUOUS
 62
    7
 10
99.132935259782016
 20
33.053044103821321
 11
93.032935259782562
 21
29.531207461764552
  0
LINE
  8
_0-0_
  6
CONTINUOUS
 62
    7
 10
92.532935259781652
 20
29.531207461764552
 11
86.432935259782198
 21
33.053044103821321
  0
LINE
  8
_0-0_
  6
CONTINUOUS
 62
    7
 10
86.182935259782198
 20
33.486056805713361
 11
86.182935259782198
 21
40.529730089826899
  0
LINE
  8
_0-0_
  6
CONTINUOUS
 62
    7
 10
86.432935259782198
 20
40.962742791718938
 11
92.532935259781652
 21
44.484579433775707
  0
LINE
  8
_0-0_
  6
CONTINUOUS
 62
    7
 10
93.032935259782562
 20
44.484579433775707
 11
99.132935259782016
 21
40.962742791718938
  0
LINE
  8
_0-0_
  6
CONTINUOUS
 62
    7
 10
99.382935259782016
 20
40.529730089826899
 11
99.382935259782016
 21
33.486056805713361
  0
LINE
  8
_0-0_
  6
CONTINUOUS
 62
    7
 10
92.263382638082248
 20
66.984579433776162
 11
86.163382638081885
 21
63.462742791718938
  0
LINE
  8
_0-0_
  6
CONTINUOUS
 62
    7
 10
85.913382638080975
 20
63.029730089826899
 11
85.913382638080975
 21
55.986056805713361
  0
LINE
  8
_0-0_
  6
CONTINUOUS
 62
    7
 10
86.163382638081885
 20
55.553044103821321
 11
92.263382638082248
 21
52.031207461765462
  0
LINE
  8
_0-0_
  6
CONTINUOUS
 62
    7
 10
92.763382638081339
 20
52.031207461764552
 11
98.863382638081703
 21
55.553044103821321
  0
LINE
  8
_0-0_
  6
CONTINUOUS
 62
    7
 10
99.113382638081703
 20
55.986056805713361
 11
99.113382638081703
 21
63.029730089826899
  0
LINE
  8
_0-0_
  6
CONTINUOUS
 62
    7
 10
98.863382638081703
 20
63.462742791718938
 11
92.763382638081339
 21
66.984579433776162
  0
LINE
  8
_0-0_
  6
CONTINUOUS
 62
    7
 10
100.1829352597822
 20
92.486056805713361
 11
100.1829352597822
 21
99.529730089826899
  0
LINE
  8
_0-0_
  6
CONTINUOUS
 62
    7
 10
100.4329352597822
 20
99.962742791719393
 11
106.53293525978256
 21
103.48457943377662
  0
LINE
  8
_0-0_
  6
CONTINUOUS
 62
    7
 10
107.03293525978165
 20
103.48457943377662
 11
113.13293525978202
 21
99.962742791719393
  0
LINE
  8
_0-0_
  6
CONTINUOUS
 62
    7
 10
113.38293525978202
 20
99.529730089826899
 11
113.38293525978202
 21
92.486056805713361
  0
LINE
  8
_0-0_
  6
CONTINUOUS
 62
    7
 10
113.13293525978202
 20
92.053044103821321
 11
107.03293525978165
 21
88.531207461764552
  0
LINE
  8
_0-0_
  6
CONTINUOUS
 62
    7
 10
106.53293525978256
 20
88.531207461764552
 11
100.4329352597822
 21
92.053044103821321
  0
LINE
  8
_0-0_
  6
CONTINUOUS
 62
    7
 10
135.88293525978202
 20
99.799282711527212
 11
135.88293525978202
 21
92.755609427413674
  0
LINE
  8
_0-0_
  6
CONTINUOUS
 62
    7
 10
135.63293525978202
 20
92.322596725521635
 11
129.53293525978165
 21
88.800760083464866
  0
LINE
  8
_0-0_
  6
CONTINUOUS
 62
    7
 10
129.03293525978256
 20
88.800760083464866
 11
122.9329352597822
 21
92.322596725521635
  0
LINE
  8
_0-0_
  6
CONTINUOUS
 62
    7
 10
122.6829352597822
 20
92.755609427413674
 11
122.6829352597822
 21
99.799282711527212
  0
LINE
  8
_0-0_
  6
CONTINUOUS
 62
    7
 10
122.9329352597822
 20
100.23229541342016
 11
129.03293525978256
 21
103.75413205547693
  0
LINE
  8
_0-0_
  6
CONTINUOUS
 62
    7
 10
129.53293525978165
 20
103.75413205547693
 11
135.63293525978202
 21
100.23229541342016
  0
LINE
  8
_0-0_
  6
CONTINUOUS
 62
    7
 10
145.4329352597822
 20
99.962742791719393
 11
151.53293525978256
 21
103.48457943377662
  0
LINE
  8
_0-0_
  6
CONTINUOUS
 62
    7
 10
152.03293525978165
 20
103.48457943377662
 11
158.13293525978202
 21
99.962742791719393
  0
LINE
  8
_0-0_
  6
CONTINUOUS
 62
    7
 10
158.38293525978202
 20
99.529730089826899
 11
158.38293525978202
 21
92.486056805713361
  0
LINE
  8
_0-0_
  6
CONTINUOUS
 62
    7
 10
158.13293525978202
 20
92.053044103821321
 11
152.03293525978165
 21
88.531207461764552
  0
LINE
  8
_0-0_
  6
CONTINUOUS
 62
    7
 10
151.53293525978256
 20
88.531207461764552
 11
145.4329352597822
 21
92.053044103821321
  0
LINE
  8
_0-0_
  6
CONTINUOUS
 62
    7
 10
145.1829352597822
 20
92.486056805713361
 11
145.1829352597822
 21
99.529730089826899
  0
LINE
  8
_0-0_
  6
CONTINUOUS
 62
    7
 10
160.04029457266256
 20
10.507893447771039
 11
44.282935259782562
 21
10.507893447771039
  0
LINE
  8
_0-0_
  6
CONTINUOUS
 62
    7
 10
41.282935259782562
 20
13.50789344777013
 11
41.282935259782562
 21
63.507893447771039
  0
LINE
  8
_0-0_
  6
CONTINUOUS
 62
    7
 10
41.282935259782562
 20
63.507893447771039
 11
13.562060600755785
 21
92.295406103613004
  0
LINE
  8
_0-0_
  6
CONTINUOUS
 62
    7
 10
175.28293525978165
 20
147.50789344777104
 11
41.282935259782562
 21
147.50789344777104
  0
LINE
  8
_0-0_
  6
CONTINUOUS
 62
    7
 10
178.28293525978165
 20
28.750534134890131
 11
178.28293525978165
 21
144.50789344777104
  0
LINE
  8
_0-0_
  6
CONTINUOUS
 62
    7
 10
177.40425560334165
 20
26.62921379133013
 11
161.28293525978256
 21
10.507893447771039
  0
CIRCLE
  8
_0-0_
  6
CONTINUOUS
 62
    7
 10
129.28293525978256
 20
59.507893447771039
 40
24.999999999999996
  0
CIRCLE
  8
_0-0_
  6
CONTINUOUS
 62
    7
 10
165.78293525978256
 20
82.007893447771039
 40
4.2500000000000009
  0
CIRCLE
  8
_0-0_
  6
CONTINUOUS
 62
    7
 10
151.78293525978256
 20
96.007893447770584
 40
4.2500000000000009
  0
CIRCLE
  8
_0-0_
  6
CONTINUOUS
 62
    7
 10
106.78293525978256
 20
96.007893447770584
 40
4.2500000000000009
  0
CIRCLE
  8
_0-0_
  6
CONTINUOUS
 62
    7
 10
92.782935259782562
 20
82.007893447771039
 40
4.2500000000000009
  0
CIRCLE
  8
_0-0_
  6
CONTINUOUS
 62
    7
 10
92.782935259782562
 20
37.007893447771039
 40
4.2500000000000009
  0
CIRCLE
  8
_0-0_
  6
CONTINUOUS
 62
    7
 10
106.78293525978256
 20
23.007893447771039
 40
4.2500000000000009
  0
CIRCLE
  8
_0-0_
  6
CONTINUOUS
 62
    7
 10
151.78293525978256
 20
23.007893447771039
 40
4.2500000000000009
  0
CIRCLE
  8
_0-0_
  6
CONTINUOUS
 62
    7
 10
165.78293525978256
 20
37.007893447771039
 40
4.2500000000000009
  0
CIRCLE
  8
_0-0_
  6
CONTINUOUS
 62
    7
 10
166.05248788148288
 20
59.507893447771039
 40
4.25
  0
CIRCLE
  8
_0-0_
  6
CONTINUOUS
 62
    7
 10
129.28293525978256
 20
96.277446069471353
 40
4.25
  0
CIRCLE
  8
_0-0_
  6
CONTINUOUS
 62
    7
 10
92.513382638081339
 20
59.507893447771039
 40
4.25
  0
CIRCLE
  8
_0-0_
  6
CONTINUOUS
 62
    7
 10
129.28293525978256
 20
22.738340826069816
 40
4.25
  0
ARC
  8
_0-0_
  6
CONTINUOUS
 62
    7
 10
100.6829352597822
 20
99.529730089826899
 40
0.5
 50
120.00000000000185
 51
180
  0
ARC
  8
_0-0_
  6
CONTINUOUS
 62
    7
 10
100.6829352597822
 20
92.486056805713361
 40
0.5
 50
180
 51
239.99999999999937
  0
ARC
  8
_0-0_
  6
CONTINUOUS
 62
    7
 10
106.78293525978256
 20
88.964220163656591
 40
0.5
 50
240
 51
299.99999999999892
  0
ARC
  8
_0-0_
  6
CONTINUOUS
 62
    7
 10
112.88293525978202
 20
92.486056805713361
 40
0.5
 50
299.99999999999886
 51
359.99999999999994
  0
ARC
  8
_0-0_
  6
CONTINUOUS
 62
    7
 10
112.88293525978202
 20
99.529730089826899
 40
0.5
 50
0
 51
59.999999999999829
  0
ARC
  8
_0-0_
  6
CONTINUOUS
 62
    7
 10
106.78293525978256
 20
103.05156673188367
 40
0.5
 50
60.000000000000441
 51
120.00000000000129
  0
ARC
  8
_0-0_
  6
CONTINUOUS
 62
    7
 10
92.782935259782562
 20
89.051566731883668
 40
0.5
 50
59.999999999999829
 51
120.00000000000188
  0
ARC
  8
_0-0_
  6
CONTINUOUS
 62
    7
 10
86.682935259782198
 20
85.529730089826899
 40
0.5
 50
120.0000000000022
 51
180
  0
ARC
  8
_0-0_
  6
CONTINUOUS
 62
    7
 10
86.682935259782198
 20
78.486056805713361
 40
0.5
 50
180
 51
239.99999999999937
  0
ARC
  8
_0-0_
  6
CONTINUOUS
 62
    7
 10
92.782935259782562
 20
74.964220163656591
 40
0.5
 50
240
 51
299.99999999999892
  0
ARC
  8
_0-0_
  6
CONTINUOUS
 62
    7
 10
98.882935259782016
 20
78.486056805713361
 40
0.5
 50
299.99999999999886
 51
359.99999999999994
  0
ARC
  8
_0-0_
  6
CONTINUOUS
 62
    7
 10
98.882935259782016
 20
85.529730089826899
 40
0.5
 50
0
 51
59.999999999999574
  0
ARC
  8
_0-0_
  6
CONTINUOUS
 62
    7
 10
123.1829352597822
 20
92.755609427413674
 40
0.5
 50
180
 51
239.99999999999937
  0
ARC
  8
_0-0_
  6
CONTINUOUS
 62
    7
 10
129.28293525978256
 20
89.233772785356905
 40
0.5
 50
240
 51
299.99999999999892
  0
ARC
  8
_0-0_
  6
CONTINUOUS
 62
    7
 10
135.38293525978202
 20
92.755609427413674
 40
0.5
 50
299.99999999999886
 51
359.99999999999994
  0
ARC
  8
_0-0_
  6
CONTINUOUS
 62
    7
 10
135.38293525978202
 20
99.799282711527212
 40
0.5
 50
0
 51
59.999999999999829
  0
ARC
  8
_0-0_
  6
CONTINUOUS
 62
    7
 10
129.28293525978256
 20
103.32111935358398
 40
0.5
 50
60.000000000000441
 51
120.00000000000188
  0
ARC
  8
_0-0_
  6
CONTINUOUS
 62
    7
 10
123.1829352597822
 20
99.799282711527212
 40
0.5
 50
120.0000000000022
 51
180
  0
ARC
  8
_0-0_
  6
CONTINUOUS
 62
    7
 10
92.513382638081339
 20
66.551566731884577
 40
0.5
 50
59.999999999999829
 51
120.00000000000188
  0
ARC
  8
_0-0_
  6
CONTINUOUS
 62
    7
 10
98.613382638081703
 20
63.029730089826899
 40
0.5
 50
0
 51
60.000000000000469
  0
ARC
  8
_0-0_
  6
CONTINUOUS
 62
    7
 10
98.613382638081703
 20
55.986056805713361
 40
0.5
 50
299.99999999999721
 51
0
  0
ARC
  8
_0-0_
  6
CONTINUOUS
 62
    7
 10
92.513382638081339
 20
52.464220163657501
 40
0.5
 50
240.00000000000111
 51
299.99999999999648
  0
ARC
  8
_0-0_
  6
CONTINUOUS
 62
    7
 10
86.413382638081885
 20
55.986056805713361
 40
0.5
 50
180
 51
240.00000000000176
  0
ARC
  8
_0-0_
  6
CONTINUOUS
 62
    7
 10
86.413382638081885
 20
63.029730089826899
 40
0.5
 50
120.00000000000134
 51
180
  0
ARC
  8
_0-0_
  6
CONTINUOUS
 62
    7
 10
92.782935259782562
 20
44.051566731883668
 40
0.5
 50
59.999999999999829
 51
120.00000000000188
  0
ARC
  8
_0-0_
  6
CONTINUOUS
 62
    7
 10
98.882935259782016
 20
40.529730089826899
 40
0.5
 50
0
 51
59.999999999999574
  0
ARC
  8
_0-0_
  6
CONTINUOUS
 62
    7
 10
98.882935259782016
 20
33.486056805713361
 40
0.5
 50
299.99999999999886
 51
359.99999999999994
  0
ARC
  8
_0-0_
  6
CONTINUOUS
 62
    7
 10
92.782935259782562
 20
29.964220163656591
 40
0.5
 50
239.99999999999943
 51
299.99999999999829
  0
ARC
  8
_0-0_
  6
CONTINUOUS
 62
    7
 10
86.682935259782198
 20
33.486056805713361
 40
0.5
 50
180
 51
239.99999999999932
  0
ARC
  8
_0-0_
  6
CONTINUOUS
 62
    7
 10
86.682935259782198
 20
40.529730089826899
 40
0.5
 50
120.0000000000022
 51
180
  0
ARC
  8
_0-0_
  6
CONTINUOUS
 62
    7
 10
106.78293525978256
 20
30.051566731883668
 40
0.5
 50
59.999999999999829
 51
120.00000000000188
  0
ARC
  8
_0-0_
  6
CONTINUOUS
 62
    7
 10
112.88293525978202
 20
26.529730089826899
 40
0.5
 50
0
 51
59.999999999999574
  0
ARC
  8
_0-0_
  6
CONTINUOUS
 62
    7
 10
112.88293525978202
 20
19.486056805713361
 40
0.5
 50
299.99999999999886
 51
359.99999999999994
  0
ARC
  8
_0-0_
  6
CONTINUOUS
 62
    7
 10
106.78293525978256
 20
15.964220163656591
 40
0.5
 50
239.99999999999943
 51
299.99999999999829
  0
ARC
  8
_0-0_
  6
CONTINUOUS
 62
    7
 10
100.6829352597822
 20
19.486056805713361
 40
0.5
 50
180
 51
239.99999999999932
  0
ARC
  8
_0-0_
  6
CONTINUOUS
 62
    7
 10
100.6829352597822
 20
26.529730089826899
 40
0.5
 50
120.0000000000022
 51
180
  0
ARC
  8
_0-0_
  6
CONTINUOUS
 62
    7
 10
129.28293525978256
 20
29.782014110183354
 40
0.5
 50
59.999999999998153
 51
120.00000000000188
  0
ARC
  8
_0-0_
  6
CONTINUOUS
 62
    7
 10
135.38293525978202
 20
26.260177468126585
 40
0.5
 50
0
 51
59.999999999998685
  0
ARC
  8
_0-0_
  6
CONTINUOUS
 62
    7
 10
135.38293525978202
 20
19.216504184013047
 40
0.5
 50
299.99999999999886
 51
359.99999999999994
  0
ARC
  8
_0-0_
  6
CONTINUOUS
 62
    7
 10
129.28293525978256
 20
15.694667541956278
 40
0.5
 50
240.00000000000111
 51
299.99999999999824
  0
ARC
  8
_0-0_
  6
CONTINUOUS
 62
    7
 10
123.1829352597822
 20
19.216504184013047
 40
0.5
 50
180
 51
240.00000000000176
  0
ARC
  8
_0-0_
  6
CONTINUOUS
 62
    7
 10
123.1829352597822
 20
26.260177468126585
 40
0.5
 50
120.00000000000134
 51
180
  0
ARC
  8
_0-0_
  6
CONTINUOUS
 62
    7
 10
145.6829352597822
 20
26.529730089826899
 40
0.5
 50
120.00000000000185
 51
180
  0
ARC
  8
_0-0_
  6
CONTINUOUS
 62
    7
 10
151.78293525978256
 20
30.051566731883668
 40
0.5
 50
59.999999999999829
 51
120.00000000000129
  0
ARC
  8
_0-0_
  6
CONTINUOUS
 62
    7
 10
157.88293525978202
 20
26.529730089826899
 40
0.5
 50
0
 51
59.999999999999574
  0
ARC
  8
_0-0_
  6
CONTINUOUS
 62
    7
 10
157.88293525978202
 20
19.486056805713361
 40
0.5
 50
299.99999999999886
 51
359.99999999999994
  0
ARC
  8
_0-0_
  6
CONTINUOUS
 62
    7
 10
151.78293525978256
 20
15.964220163656591
 40
0.5
 50
239.99999999999943
 51
299.99999999999829
  0
ARC
  8
_0-0_
  6
CONTINUOUS
 62
    7
 10
145.6829352597822
 20
19.486056805713361
 40
0.5
 50
180
 51
239.99999999999932
  0
ARC
  8
_0-0_
  6
CONTINUOUS
 62
    7
 10
165.78293525978256
 20
29.964220163656591
 40
0.5
 50
239.99999999999937
 51
299.99999999999892
  0
ARC
  8
_0-0_
  6
CONTINUOUS
 62
    7
 10
171.88293525978202
 20
33.486056805713361
 40
0.5
 50
299.99999999999886
 51
359.99999999999994
  0
ARC
  8
_0-0_
  6
CONTINUOUS
 62
    7
 10
171.88293525978202
 20
40.529730089826899
 40
0.5
 50
0
 51
59.999999999999829
  0
ARC
  8
_0-0_
  6
CONTINUOUS
 62
    7
 10
165.78293525978256
 20
44.051566731883668
 40
0.5
 50
60.000000000000441
 51
120.00000000000188
  0
ARC
  8
_0-0_
  6
CONTINUOUS
 62
    7
 10
159.6829352597822
 20
40.529730089826899
 40
0.5
 50
120.0000000000022
 51
180
  0
ARC
  8
_0-0_
  6
CONTINUOUS
 62
    7
 10
159.6829352597822
 20
33.486056805713361
 40
0.5
 50
180
 51
239.99999999999932
  0
ARC
  8
_0-0_
  6
CONTINUOUS
 62
    7
 10
166.05248788148288
 20
66.551566731884577
 40
0.5
 50
59.999999999998153
 51
120.00000000000188
  0
ARC
  8
_0-0_
  6
CONTINUOUS
 62
    7
 10
172.15248788148233
 20
63.029730089826899
 40
0.5
 50
0
 51
59.999999999998685
  0
ARC
  8
_0-0_
  6
CONTINUOUS
 62
    7
 10
172.15248788148233
 20
55.986056805713361
 40
0.5
 50
299.99999999999886
 51
359.99999999999994
  0
ARC
  8
_0-0_
  6
CONTINUOUS
 62
    7
 10
166.05248788148288
 20
52.464220163657501
 40
0.5
 50
240.00000000000111
 51
299.99999999999824
  0
ARC
  8
_0-0_
  6
CONTINUOUS
 62
    7
 10
159.95248788148251
 20
55.986056805713361
 40
0.5
 50
180
 51
240.00000000000176
  0
ARC
  8
_0-0_
  6
CONTINUOUS
 62
    7
 10
159.95248788148251
 20
63.029730089826899
 40
0.5
 50
120.00000000000134
 51
180
  0
ARC
  8
_0-0_
  6
CONTINUOUS
 62
    7
 10
165.78293525978256
 20
89.051566731883668
 40
0.5
 50
59.999999999999829
 51
120.00000000000188
  0
ARC
  8
_0-0_
  6
CONTINUOUS
 62
    7
 10
171.88293525978202
 20
85.529730089826899
 40
0.5
 50
0
 51
59.999999999999574
  0
ARC
  8
_0-0_
  6
CONTINUOUS
 62
    7
 10
171.88293525978202
 20
78.486056805713361
 40
0.5
 50
299.99999999999886
 51
359.99999999999994
  0
ARC
  8
_0-0_
  6
CONTINUOUS
 62
    7
 10
165.78293525978256
 20
74.964220163656591
 40
0.5
 50
239.99999999999943
 51
299.99999999999829
  0
ARC
  8
_0-0_
  6
CONTINUOUS
 62
    7
 10
159.6829352597822
 20
78.486056805713361
 40
0.5
 50
180
 51
239.99999999999932
  0
ARC
  8
_0-0_
  6
CONTINUOUS
 62
    7
 10
159.6829352597822
 20
85.529730089826899
 40
0.5
 50
120.0000000000022
 51
180
  0
ARC
  8
_0-0_
  6
CONTINUOUS
 62
    7
 10
151.78293525978256
 20
103.05156673188367
 40
0.5
 50
59.999999999999829
 51
120.00000000000188
  0
ARC
  8
_0-0_
  6
CONTINUOUS
 62
    7
 10
157.88293525978202
 20
99.529730089826899
 40
0.5
 50
0
 51
59.999999999999574
  0
ARC
  8
_0-0_
  6
CONTINUOUS
 62
    7
 10
157.88293525978202
 20
92.486056805713361
 40
0.5
 50
299.99999999999886
 51
359.99999999999994
  0
ARC
  8
_0-0_
  6
CONTINUOUS
 62
    7
 10
151.78293525978256
 20
88.964220163656591
 40
0.5
 50
239.99999999999943
 51
299.99999999999829
  0
ARC
  8
_0-0_
  6
CONTINUOUS
 62
    7
 10
145.6829352597822
 20
92.486056805713361
 40
0.5
 50
180
 51
239.99999999999932
  0
ARC
  8
_0-0_
  6
CONTINUOUS
 62
    7
 10
145.6829352597822
 20
99.529730089826899
 40
0.5
 50
120.0000000000022
 51
180
  0
ARC
  8
_0-0_
  6
CONTINUOUS
 62
    7
 10
178.28293525978165
 20
127.68524689242395
 40
3.0000000000000009
 50
353.2334729076797
 51
0
  0
ARC
  8
_0-0_
  6
CONTINUOUS
 62
    7
 10
44.282935259782562
 20
13.50789344777013
 40
3.0000000000000009
 50
179.99999999999997
 51
270
  0
ARC
  8
_0-0_
  6
CONTINUOUS
 62
    7
 10
175.28293525978165
 20
144.50789344777104
 40
3.0000000000000009
 50
0
 51
89.999999999999972
  0
ARC
  8
_0-0_
  6
CONTINUOUS
 62
    7
 10
175.28293525978165
 20
28.750534134890131
 40
3.0000000000000009
 50
315
 51
0
  0
ARC
  8
_0-0_
  6
CONTINUOUS
 62
    7
 10
160.04029457266256
 20
13.50789344777013
 40
3.0000000000000009
 50
269.99999999999994
 51
314.99999999999972
  0
CIRCLE
  8
_0-0_
  6
CONTINUOUS
 62
    7
 10
110.28293525978256
 20
127.50789344777058
 40
3.2500000000000004
  0
CIRCLE
  8
_0-0_
  6
CONTINUOUS
 62
    7
 10
130.28293525978165
 20
127.50789344777058
 40
3.2500000000000004
  0
CIRCLE
  8
_0-0_
  6
CONTINUOUS
 62
    7
 10
170.28293525978256
 20
127.50789344777058
 40
3.2500000000000004
  0
CIRCLE
  8
_0-0_
  6
CONTINUOUS
 62
    7
 10
61.282935259782562
 20
78.507893447771039
 40
3.2500000000000009
  0
CIRCLE
  8
_0-0_
  6
CONTINUOUS
 62
    7
 10
61.282935259782562
 20
58.50789344777013
 40
3.2500000000000009
  0
CIRCLE
  8
_0-0_
  6
CONTINUOUS
 62
    7
 10
61.282935259782562
 20
18.507893447771039
 40
3.2500000000000009
  0
ARC
  8
_0-0_
  6
CONTINUOUS
 62
    7
 10
27.282935259782562
 20
105.50789344777104
 40
19.048155375999997
 50
136.08137219584464
 51
223.91862780415536
  0
LINE
  8
_0-0_
  6
CONTINUOUS
 62
    7
 10
284.58375385978241
 20
144.50789344777104
 11
284.58375385978235
 21
28.750534134890131
  0
LINE
  8
_0-0_
  6
CONTINUOUS
 62
    7
 10
285.46243351622235
 20
26.62921379133013
 11
301.58375385978235
 21
10.507893447771039
  0
LINE
  8
_0-0_
  6
CONTINUOUS
 62
    7
 10
302.82639454690144
 20
10.507893447771039
 11
418.58375385978235
 21
10.507893447771039
  0
LINE
  8
_0-0_
  6
CONTINUOUS
 62
    7
 10
421.58375385978235
 20
13.50789344777013
 11
421.58375385978235
 21
63.507893447771039
  0
LINE
  8
_0-0_
  6
CONTINUOUS
 62
    7
 10
421.58375385978235
 20
63.507893447771039
 11
449.30462851880912
 21
92.295406103613004
  0
LINE
  8
_0-0_
  6
CONTINUOUS
 62
    7
 10
376.6837538597818
 20
78.486056805713361
 11
376.6837538597818
 21
85.529730089826899
  0
LINE
  8
_0-0_
  6
CONTINUOUS
 62
    7
 10
376.43375385978271
 20
85.962742791718938
 11
370.33375385978326
 21
89.484579433776162
  0
LINE
  8
_0-0_
  6
CONTINUOUS
 62
    7
 10
369.83375385978235
 20
89.484579433776162
 11
363.73375385978289
 21
85.962742791718938
  0
LINE
  8
_0-0_
  6
CONTINUOUS
 62
    7
 10
363.48375385978289
 20
85.529730089826899
 11
363.48375385978289
 21
78.486056805713361
  0
LINE
  8
_0-0_
  6
CONTINUOUS
 62
    7
 10
363.73375385978289
 20
78.053044103821321
 11
369.83375385978235
 21
74.531207461764552
  0
LINE
  8
_0-0_
  6
CONTINUOUS
 62
    7
 10
370.33375385978326
 20
74.531207461764552
 11
376.43375385978271
 21
78.053044103821321
  0
LINE
  8
_0-0_
  6
CONTINUOUS
 62
    7
 10
290.48375385978289
 20
85.529730089826899
 11
290.48375385978289
 21
78.486056805713361
  0
LINE
  8
_0-0_
  6
CONTINUOUS
 62
    7
 10
290.73375385978198
 20
78.053044103821321
 11
296.83375385978326
 21
74.531207461764552
  0
LINE
  8
_0-0_
  6
CONTINUOUS
 62
    7
 10
297.33375385978326
 20
74.531207461764552
 11
303.43375385978271
 21
78.053044103821321
  0
LINE
  8
_0-0_
  6
CONTINUOUS
 62
    7
 10
303.6837538597818
 20
78.486056805713361
 11
303.6837538597818
 21
85.529730089826899
  0
LINE
  8
_0-0_
  6
CONTINUOUS
 62
    7
 10
303.43375385978271
 20
85.962742791718938
 11
297.33375385978326
 21
89.484579433776162
  0
LINE
  8
_0-0_
  6
CONTINUOUS
 62
    7
 10
296.83375385978326
 20
89.484579433776162
 11
290.73375385978198
 21
85.962742791718938
  0
LINE
  8
_0-0_
  6
CONTINUOUS
 62
    7
 10
296.56420123808203
 20
52.031207461765462
 11
290.46420123808258
 21
55.553044103821321
  0
LINE
  8
_0-0_
  6
CONTINUOUS
 62
    7
 10
290.21420123808258
 20
55.986056805713361
 11
290.21420123808258
 21
63.029730089826899
  0
LINE
  8
_0-0_
  6
CONTINUOUS
 62
    7
 10
290.46420123808258
 20
63.462742791718938
 11
296.56420123808203
 21
66.984579433776162
  0
LINE
  8
_0-0_
  6
CONTINUOUS
 62
    7
 10
297.06420123808203
 20
66.984579433776162
 11
303.1642012380824
 21
63.462742791718938
  0
LINE
  8
_0-0_
  6
CONTINUOUS
 62
    7
 10
303.4142012380824
 20
63.029730089826899
 11
303.4142012380824
 21
55.986056805713361
  0
LINE
  8
_0-0_
  6
CONTINUOUS
 62
    7
 10
303.1642012380824
 20
55.553044103821321
 11
297.06420123808203
 21
52.031207461765462
  0
LINE
  8
_0-0_
  6
CONTINUOUS
 62
    7
 10
296.83375385978326
 20
29.531207461764552
 11
290.73375385978198
 21
33.053044103821321
  0
LINE
  8
_0-0_
  6
CONTINUOUS
 62
    7
 10
290.48375385978289
 20
33.486056805713361
 11
290.48375385978289
 21
40.529730089826899
  0
LINE
  8
_0-0_
  6
CONTINUOUS
 62
    7
 10
290.73375385978198
 20
40.962742791718938
 11
296.83375385978326
 21
44.484579433775707
  0
LINE
  8
_0-0_
  6
CONTINUOUS
 62
    7
 10
297.33375385978326
 20
44.484579433775707
 11
303.43375385978271
 21
40.962742791718938
  0
LINE
  8
_0-0_
  6
CONTINUOUS
 62
    7
 10
303.6837538597818
 20
40.529730089826899
 11
303.6837538597818
 21
33.486056805713361
  0
LINE
  8
_0-0_
  6
CONTINUOUS
 62
    7
 10
303.43375385978271
 20
33.053044103821321
 11
297.33375385978326
 21
29.531207461764552
  0
LINE
  8
_0-0_
  6
CONTINUOUS
 62
    7
 10
304.73375385978289
 20
26.962742791719847
 11
310.83375385978326
 21
30.484579433775707
  0
LINE
  8
_0-0_
  6
CONTINUOUS
 62
    7
 10
311.33375385978235
 20
30.484579433775707
 11
317.4337538597818
 21
26.962742791719847
  0
LINE
  8
_0-0_
  6
CONTINUOUS
 62
    7
 10
317.68375385978271
 20
26.529730089826899
 11
317.68375385978271
 21
19.486056805713361
  0
LINE
  8
_0-0_
  6
CONTINUOUS
 62
    7
 10
317.4337538597818
 20
19.053044103821321
 11
311.33375385978235
 21
15.531207461764552
  0
LINE
  8
_0-0_
  6
CONTINUOUS
 62
    7
 10
310.83375385978326
 20
15.531207461764552
 11
304.73375385978289
 21
19.053044103821321
  0
LINE
  8
_0-0_
  6
CONTINUOUS
 62
    7
 10
304.48375385978289
 20
19.486056805713361
 11
304.48375385978289
 21
26.529730089826899
  0
LINE
  8
_0-0_
  6
CONTINUOUS
 62
    7
 10
340.18375385978271
 20
26.260177468126585
 11
340.18375385978271
 21
19.216504184013047
  0
LINE
  8
_0-0_
  6
CONTINUOUS
 62
    7
 10
339.9337538597818
 20
18.783491482120098
 11
333.83375385978235
 21
15.261654840064239
  0
LINE
  8
_0-0_
  6
CONTINUOUS
 62
    7
 10
333.33375385978326
 20
15.261654840064239
 11
327.23375385978289
 21
18.783491482120098
  0
LINE
  8
_0-0_
  6
CONTINUOUS
 62
    7
 10
326.98375385978289
 20
19.216504184013047
 11
326.98375385978289
 21
26.260177468126585
  0
LINE
  8
_0-0_
  6
CONTINUOUS
 62
    7
 10
327.23375385978289
 20
26.693190170018624
 11
333.33375385978326
 21
30.215026812075394
  0
LINE
  8
_0-0_
  6
CONTINUOUS
 62
    7
 10
333.83375385978235
 20
30.215026812075394
 11
339.9337538597818
 21
26.693190170018624
  0
LINE
  8
_0-0_
  6
CONTINUOUS
 62
    7
 10
349.48375385978289
 20
26.529730089826899
 11
349.48375385978289
 21
19.486056805713361
  0
LINE
  8
_0-0_
  6
CONTINUOUS
 62
    7
 10
349.73375385978289
 20
19.053044103821321
 11
355.83375385978326
 21
15.531207461764552
  0
LINE
  8
_0-0_
  6
CONTINUOUS
 62
    7
 10
356.33375385978235
 20
15.531207461764552
 11
362.4337538597818
 21
19.053044103821321
  0
LINE
  8
_0-0_
  6
CONTINUOUS
 62
    7
 10
362.68375385978271
 20
19.486056805713361
 11
362.68375385978271
 21
26.529730089826899
  0
LINE
  8
_0-0_
  6
CONTINUOUS
 62
    7
 10
362.4337538597818
 20
26.962742791719847
 11
356.33375385978235
 21
30.484579433775707
  0
LINE
  8
_0-0_
  6
CONTINUOUS
 62
    7
 10
355.83375385978326
 20
30.484579433775707
 11
349.73375385978289
 21
26.962742791719847
  0
LINE
  8
_0-0_
  6
CONTINUOUS
 62
    7
 10
363.73375385978289
 20
33.053044103821321
 11
369.83375385978235
 21
29.531207461764552
  0
LINE
  8
_0-0_
  6
CONTINUOUS
 62
    7
 10
370.33375385978326
 20
29.531207461764552
 11
376.43375385978271
 21
33.053044103821321
  0
LINE
  8
_0-0_
  6
CONTINUOUS
 62
    7
 10
376.6837538597818
 20
33.486056805713361
 11
376.6837538597818
 21
40.529730089826899
  0
LINE
  8
_0-0_
  6
CONTINUOUS
 62
    7
 10
376.43375385978271
 20
40.962742791718938
 11
370.33375385978326
 21
44.484579433775707
  0
LINE
  8
_0-0_
  6
CONTINUOUS
 62
    7
 10
369.83375385978235
 20
44.484579433775707
 11
363.73375385978289
 21
40.962742791718938
  0
LINE
  8
_0-0_
  6
CONTINUOUS
 62
    7
 10
363.48375385978289
 20
40.529730089826899
 11
363.48375385978289
 21
33.486056805713361
  0
LINE
  8
_0-0_
  6
CONTINUOUS
 62
    7
 10
370.60330648148266
 20
66.984579433776162
 11
376.70330648148303
 21
63.462742791718938
  0
LINE
  8
_0-0_
  6
CONTINUOUS
 62
    7
 10
376.95330648148303
 20
63.029730089826899
 11
376.95330648148303
 21
55.986056805713361
  0
LINE
  8
_0-0_
  6
CONTINUOUS
 62
    7
 10
376.70330648148303
 20
55.553044103821321
 11
370.60330648148266
 21
52.031207461765462
  0
LINE
  8
_0-0_
  6
CONTINUOUS
 62
    7
 10
370.10330648148266
 20
52.031207461764552
 11
364.0033064814823
 21
55.553044103821321
  0
LINE
  8
_0-0_
  6
CONTINUOUS
 62
    7
 10
363.75330648148321
 20
55.986056805713361
 11
363.75330648148321
 21
63.029730089826899
  0
LINE
  8
_0-0_
  6
CONTINUOUS
 62
    7
 10
364.0033064814823
 20
63.462742791718938
 11
370.10330648148266
 21
66.984579433776162
  0
LINE
  8
_0-0_
  6
CONTINUOUS
 62
    7
 10
362.68375385978271
 20
92.486056805713361
 11
362.68375385978271
 21
99.529730089826899
  0
LINE
  8
_0-0_
  6
CONTINUOUS
 62
    7
 10
362.4337538597818
 20
99.962742791719393
 11
356.33375385978235
 21
103.48457943377662
  0
LINE
  8
_0-0_
  6
CONTINUOUS
 62
    7
 10
355.83375385978326
 20
103.48457943377662
 11
349.73375385978289
 21
99.962742791719393
  0
LINE
  8
_0-0_
  6
CONTINUOUS
 62
    7
 10
349.48375385978289
 20
99.529730089826899
 11
349.48375385978289
 21
92.486056805713361
  0
LINE
  8
_0-0_
  6
CONTINUOUS
 62
    7
 10
349.73375385978289
 20
92.053044103821321
 11
355.83375385978326
 21
88.531207461764552
  0
LINE
  8
_0-0_
  6
CONTINUOUS
 62
    7
 10
356.33375385978235
 20
88.531207461764552
 11
362.4337538597818
 21
92.053044103821321
  0
LINE
  8
_0-0_
  6
CONTINUOUS
 62
    7
 10
326.98375385978289
 20
99.799282711527212
 11
326.98375385978289
 21
92.755609427413674
  0
LINE
  8
_0-0_
  6
CONTINUOUS
 62
    7
 10
327.23375385978289
 20
92.322596725521635
 11
333.33375385978326
 21
88.800760083464866
  0
LINE
  8
_0-0_
  6
CONTINUOUS
 62
    7
 10
333.83375385978235
 20
88.800760083464866
 11
339.9337538597818
 21
92.322596725521635
  0
LINE
  8
_0-0_
  6
CONTINUOUS
 62
    7
 10
340.18375385978271
 20
92.755609427413674
 11
340.18375385978271
 21
99.799282711527212
  0
LINE
  8
_0-0_
  6
CONTINUOUS
 62
    7
 10
339.9337538597818
 20
100.23229541342016
 11
333.83375385978235
 21
103.75413205547693
  0
LINE
  8
_0-0_
  6
CONTINUOUS
 62
    7
 10
333.33375385978326
 20
103.75413205547693
 11
327.23375385978289
 21
100.23229541342016
  0
LINE
  8
_0-0_
  6
CONTINUOUS
 62
    7
 10
317.4337538597818
 20
99.962742791719393
 11
311.33375385978235
 21
103.48457943377662
  0
LINE
  8
_0-0_
  6
CONTINUOUS
 62
    7
 10
310.83375385978326
 20
103.48457943377662
 11
304.73375385978289
 21
99.962742791719393
  0
LINE
  8
_0-0_
  6
CONTINUOUS
 62
    7
 10
304.48375385978289
 20
99.529730089826899
 11
304.48375385978289
 21
92.486056805713361
  0
LINE
  8
_0-0_
  6
CONTINUOUS
 62
    7
 10
304.73375385978289
 20
92.053044103821321
 11
310.83375385978326
 21
88.531207461764552
  0
LINE
  8
_0-0_
  6
CONTINUOUS
 62
    7
 10
311.33375385978235
 20
88.531207461764552
 11
317.4337538597818
 21
92.053044103821321
  0
LINE
  8
_0-0_
  6
CONTINUOUS
 62
    7
 10
317.68375385978271
 20
92.486056805713361
 11
317.68375385978271
 21
99.529730089826899
  0
LINE
  8
_0-0_
  6
CONTINUOUS
 62
    7
 10
449.30462851880912
 20
118.72038079192816
 11
421.58375385978235
 21
147.50789344777104
  0
LINE
  8
_0-0_
  6
CONTINUOUS
 62
    7
 10
421.58375385978235
 20
147.50789344777104
 11
287.58375385978241
 21
147.50789344777104
  0
CIRCLE
  8
_0-0_
  6
CONTINUOUS
 62
    7
 10
333.58375385978235
 20
59.507893447771039
 40
24.999999999999996
  0
CIRCLE
  8
_0-0_
  6
CONTINUOUS
 62
    7
 10
297.08375385978235
 20
82.007893447771039
 40
4.2500000000000009
  0
CIRCLE
  8
_0-0_
  6
CONTINUOUS
 62
    7
 10
311.08375385978235
 20
96.007893447770584
 40
4.2500000000000009
  0
CIRCLE
  8
_0-0_
  6
CONTINUOUS
 62
    7
 10
356.08375385978235
 20
96.007893447770584
 40
4.2500000000000009
  0
CIRCLE
  8
_0-0_
  6
CONTINUOUS
 62
    7
 10
370.08375385978144
 20
82.007893447771039
 40
4.2500000000000009
  0
CIRCLE
  8
_0-0_
  6
CONTINUOUS
 62
    7
 10
370.08375385978144
 20
37.007893447771039
 40
4.2500000000000009
  0
CIRCLE
  8
_0-0_
  6
CONTINUOUS
 62
    7
 10
356.08375385978235
 20
23.007893447771039
 40
4.2500000000000009
  0
CIRCLE
  8
_0-0_
  6
CONTINUOUS
 62
    7
 10
311.08375385978235
 20
23.007893447771039
 40
4.2500000000000009
  0
CIRCLE
  8
_0-0_
  6
CONTINUOUS
 62
    7
 10
297.08375385978235
 20
37.007893447771039
 40
4.2500000000000009
  0
CIRCLE
  8
_0-0_
  6
CONTINUOUS
 62
    7
 10
296.81420123808203
 20
59.507893447771039
 40
4.25
  0
CIRCLE
  8
_0-0_
  6
CONTINUOUS
 62
    7
 10
333.58375385978235
 20
96.277446069471353
 40
4.25
  0
CIRCLE
  8
_0-0_
  6
CONTINUOUS
 62
    7
 10
370.35330648148266
 20
59.507893447771039
 40
4.25
  0
CIRCLE
  8
_0-0_
  6
CONTINUOUS
 62
    7
 10
333.58375385978235
 20
22.738340826069816
 40
4.25
  0
ARC
  8
_0-0_
  6
CONTINUOUS
 62
    7
 10
362.1837538597818
 20
99.529730089826899
 40
0.5
 50
0
 51
59.999999999998153
  0
ARC
  8
_0-0_
  6
CONTINUOUS
 62
    7
 10
362.1837538597818
 20
92.486056805713361
 40
0.5
 50
300.00000000000063
 51
0
  0
ARC
  8
_0-0_
  6
CONTINUOUS
 62
    7
 10
356.08375385978235
 20
88.964220163656591
 40
0.5
 50
240.00000000000105
 51
299.99999999999994
  0
ARC
  8
_0-0_
  6
CONTINUOUS
 62
    7
 10
349.98375385978289
 20
92.486056805713361
 40
0.5
 50
180.00000000000006
 51
240.00000000000114
  0
ARC
  8
_0-0_
  6
CONTINUOUS
 62
    7
 10
349.98375385978289
 20
99.529730089826899
 40
0.5
 50
120.00000000000017
 51
180
  0
ARC
  8
_0-0_
  6
CONTINUOUS
 62
    7
 10
356.08375385978235
 20
103.05156673188367
 40
0.5
 50
59.999999999998685
 51
119.99999999999956
  0
ARC
  8
_0-0_
  6
CONTINUOUS
 62
    7
 10
370.08375385978144
 20
89.051566731883668
 40
0.5
 50
59.999999999998124
 51
120.00000000000017
  0
ARC
  8
_0-0_
  6
CONTINUOUS
 62
    7
 10
376.1837538597818
 20
85.529730089826899
 40
0.5
 50
0
 51
59.999999999997797
  0
ARC
  8
_0-0_
  6
CONTINUOUS
 62
    7
 10
376.1837538597818
 20
78.486056805713361
 40
0.5
 50
300.00000000000063
 51
0
  0
ARC
  8
_0-0_
  6
CONTINUOUS
 62
    7
 10
370.08375385978144
 20
74.964220163656591
 40
0.5
 50
240.00000000000105
 51
299.99999999999994
  0
ARC
  8
_0-0_
  6
CONTINUOUS
 62
    7
 10
363.98375385978289
 20
78.486056805713361
 40
0.5
 50
180.00000000000006
 51
240.00000000000114
  0
ARC
  8
_0-0_
  6
CONTINUOUS
 62
    7
 10
363.98375385978289
 20
85.529730089826899
 40
0.5
 50
120.00000000000043
 51
180
  0
ARC
  8
_0-0_
  6
CONTINUOUS
 62
    7
 10
339.6837538597818
 20
92.755609427413674
 40
0.5
 50
300.00000000000063
 51
0
  0
ARC
  8
_0-0_
  6
CONTINUOUS
 62
    7
 10
333.58375385978235
 20
89.233772785356905
 40
0.5
 50
240.00000000000105
 51
299.99999999999994
  0
ARC
  8
_0-0_
  6
CONTINUOUS
 62
    7
 10
327.48375385978289
 20
92.755609427413674
 40
0.5
 50
180.00000000000006
 51
240.00000000000114
  0
ARC
  8
_0-0_
  6
CONTINUOUS
 62
    7
 10
327.48375385978289
 20
99.799282711527212
 40
0.5
 50
120.00000000000017
 51
180
  0
ARC
  8
_0-0_
  6
CONTINUOUS
 62
    7
 10
333.58375385978235
 20
103.32111935358398
 40
0.5
 50
59.999999999998124
 51
119.99999999999956
  0
ARC
  8
_0-0_
  6
CONTINUOUS
 62
    7
 10
339.6837538597818
 20
99.799282711527212
 40
0.5
 50
0
 51
59.999999999997797
  0
ARC
  8
_0-0_
  6
CONTINUOUS
 62
    7
 10
370.35330648148266
 20
66.551566731884577
 40
0.5
 50
59.999999999998124
 51
120.00000000000017
  0
ARC
  8
_0-0_
  6
CONTINUOUS
 62
    7
 10
364.25330648148321
 20
63.029730089826899
 40
0.5
 50
119.99999999999953
 51
180
  0
ARC
  8
_0-0_
  6
CONTINUOUS
 62
    7
 10
364.25330648148321
 20
55.986056805713361
 40
0.5
 50
179.99999999999997
 51
240.00000000000279
  0
ARC
  8
_0-0_
  6
CONTINUOUS
 62
    7
 10
370.35330648148266
 20
52.464220163657501
 40
0.5
 50
240.0000000000035
 51
299.99999999999886
  0
ARC
  8
_0-0_
  6
CONTINUOUS
 62
    7
 10
376.45330648148303
 20
55.986056805713361
 40
0.5
 50
299.99999999999824
 51
0
  0
ARC
  8
_0-0_
  6
CONTINUOUS
 62
    7
 10
376.45330648148303
 20
63.029730089826899
 40
0.5
 50
0
 51
59.999999999998657
  0
ARC
  8
_0-0_
  6
CONTINUOUS
 62
    7
 10
370.08375385978144
 20
44.051566731883668
 40
0.5
 50
59.999999999998124
 51
120.00000000000017
  0
ARC
  8
_0-0_
  6
CONTINUOUS
 62
    7
 10
363.98375385978289
 20
40.529730089826899
 40
0.5
 50
120.00000000000043
 51
180
  0
ARC
  8
_0-0_
  6
CONTINUOUS
 62
    7
 10
363.98375385978289
 20
33.486056805713361
 40
0.5
 50
180.00000000000006
 51
240.00000000000114
  0
ARC
  8
_0-0_
  6
CONTINUOUS
 62
    7
 10
370.08375385978144
 20
29.964220163656591
 40
0.5
 50
240.00000000000171
 51
300.00000000000057
  0
ARC
  8
_0-0_
  6
CONTINUOUS
 62
    7
 10
376.1837538597818
 20
33.486056805713361
 40
0.5
 50
300.00000000000068
 51
0
  0
ARC
  8
_0-0_
  6
CONTINUOUS
 62
    7
 10
376.1837538597818
 20
40.529730089826899
 40
0.5
 50
0
 51
59.999999999997797
  0
ARC
  8
_0-0_
  6
CONTINUOUS
 62
    7
 10
356.08375385978235
 20
30.051566731883668
 40
0.5
 50
59.999999999998124
 51
120.00000000000017
  0
ARC
  8
_0-0_
  6
CONTINUOUS
 62
    7
 10
349.98375385978289
 20
26.529730089826899
 40
0.5
 50
120.00000000000043
 51
180
  0
ARC
  8
_0-0_
  6
CONTINUOUS
 62
    7
 10
349.98375385978289
 20
19.486056805713361
 40
0.5
 50
180.00000000000006
 51
240.00000000000114
  0
ARC
  8
_0-0_
  6
CONTINUOUS
 62
    7
 10
356.08375385978235
 20
15.964220163656591
 40
0.5
 50
240.00000000000171
 51
300.00000000000057
  0
ARC
  8
_0-0_
  6
CONTINUOUS
 62
    7
 10
362.1837538597818
 20
19.486056805713361
 40
0.5
 50
300.00000000000068
 51
0
  0
ARC
  8
_0-0_
  6
CONTINUOUS
 62
    7
 10
362.1837538597818
 20
26.529730089826899
 40
0.5
 50
0
 51
59.999999999997797
  0
ARC
  8
_0-0_
  6
CONTINUOUS
 62
    7
 10
333.58375385978235
 20
29.782014110183354
 40
0.5
 50
59.999999999998124
 51
120.00000000000185
  0
ARC
  8
_0-0_
  6
CONTINUOUS
 62
    7
 10
327.48375385978289
 20
26.260177468126585
 40
0.5
 50
120.00000000000131
 51
180
  0
ARC
  8
_0-0_
  6
CONTINUOUS
 62
    7
 10
327.48375385978289
 20
19.216504184013047
 40
0.5
 50
180.00000000000006
 51
240.00000000000114
  0
ARC
  8
_0-0_
  6
CONTINUOUS
 62
    7
 10
333.58375385978235
 20
15.694667541956278
 40
0.5
 50
240.00000000000176
 51
299.99999999999892
  0
ARC
  8
_0-0_
  6
CONTINUOUS
 62
    7
 10
339.6837538597818
 20
19.216504184013047
 40
0.5
 50
299.99999999999824
 51
0
  0
ARC
  8
_0-0_
  6
CONTINUOUS
 62
    7
 10
339.6837538597818
 20
26.260177468126585
 40
0.5
 50
0
 51
59.999999999998657
  0
ARC
  8
_0-0_
  6
CONTINUOUS
 62
    7
 10
317.1837538597818
 20
26.529730089826899
 40
0.5
 50
0
 51
59.999999999998153
  0
ARC
  8
_0-0_
  6
CONTINUOUS
 62
    7
 10
311.08375385978235
 20
30.051566731883668
 40
0.5
 50
59.999999999998685
 51
120.00000000000017
  0
ARC
  8
_0-0_
  6
CONTINUOUS
 62
    7
 10
304.98375385978289
 20
26.529730089826899
 40
0.5
 50
120.00000000000043
 51
180
  0
ARC
  8
_0-0_
  6
CONTINUOUS
 62
    7
 10
304.98375385978289
 20
19.486056805713361
 40
0.5
 50
180.00000000000006
 51
240.00000000000114
  0
ARC
  8
_0-0_
  6
CONTINUOUS
 62
    7
 10
311.08375385978235
 20
15.964220163656591
 40
0.5
 50
240.00000000000171
 51
300.00000000000057
  0
ARC
  8
_0-0_
  6
CONTINUOUS
 62
    7
 10
317.1837538597818
 20
19.486056805713361
 40
0.5
 50
300.00000000000068
 51
0
  0
ARC
  8
_0-0_
  6
CONTINUOUS
 62
    7
 10
297.08375385978235
 20
29.964220163656591
 40
0.5
 50
240.00000000000105
 51
300.00000000000057
  0
ARC
  8
_0-0_
  6
CONTINUOUS
 62
    7
 10
290.98375385978198
 20
33.486056805713361
 40
0.5
 50
180.00000000000006
 51
240.00000000000114
  0
ARC
  8
_0-0_
  6
CONTINUOUS
 62
    7
 10
290.98375385978198
 20
40.529730089826899
 40
0.5
 50
120.00000000000017
 51
180
  0
ARC
  8
_0-0_
  6
CONTINUOUS
 62
    7
 10
297.08375385978235
 20
44.051566731883668
 40
0.5
 50
59.999999999998124
 51
119.99999999999956
  0
ARC
  8
_0-0_
  6
CONTINUOUS
 62
    7
 10
303.1837538597818
 20
40.529730089826899
 40
0.5
 50
0
 51
59.999999999997797
  0
ARC
  8
_0-0_
  6
CONTINUOUS
 62
    7
 10
303.1837538597818
 20
33.486056805713361
 40
0.5
 50
300.00000000000068
 51
0
  0
ARC
  8
_0-0_
  6
CONTINUOUS
 62
    7
 10
296.81420123808203
 20
66.551566731884577
 40
0.5
 50
59.999999999998124
 51
120.00000000000185
  0
ARC
  8
_0-0_
  6
CONTINUOUS
 62
    7
 10
290.71420123808167
 20
63.029730089826899
 40
0.5
 50
120.00000000000131
 51
180
  0
ARC
  8
_0-0_
  6
CONTINUOUS
 62
    7
 10
290.71420123808167
 20
55.986056805713361
 40
0.5
 50
180.00000000000006
 51
240.00000000000114
  0
ARC
  8
_0-0_
  6
CONTINUOUS
 62
    7
 10
296.81420123808203
 20
52.464220163657501
 40
0.5
 50
240.00000000000176
 51
299.99999999999892
  0
ARC
  8
_0-0_
  6
CONTINUOUS
 62
    7
 10
302.9142012380824
 20
55.986056805713361
 40
0.5
 50
299.99999999999824
 51
0
  0
ARC
  8
_0-0_
  6
CONTINUOUS
 62
    7
 10
302.9142012380824
 20
63.029730089826899
 40
0.5
 50
0
 51
59.999999999998657
  0
ARC
  8
_0-0_
  6
CONTINUOUS
 62
    7
 10
297.08375385978235
 20
89.051566731883668
 40
0.5
 50
59.999999999998124
 51
120.00000000000017
  0
ARC
  8
_0-0_
  6
CONTINUOUS
 62
    7
 10
290.98375385978198
 20
85.529730089826899
 40
0.5
 50
120.00000000000043
 51
180
  0
ARC
  8
_0-0_
  6
CONTINUOUS
 62
    7
 10
290.98375385978198
 20
78.486056805713361
 40
0.5
 50
180.00000000000006
 51
240.00000000000114
  0
ARC
  8
_0-0_
  6
CONTINUOUS
 62
    7
 10
297.08375385978235
 20
74.964220163656591
 40
0.5
 50
240.00000000000171
 51
300.00000000000057
  0
ARC
  8
_0-0_
  6
CONTINUOUS
 62
    7
 10
303.1837538597818
 20
78.486056805713361
 40
0.5
 50
300.00000000000068
 51
0
  0
ARC
  8
_0-0_
  6
CONTINUOUS
 62
    7
 10
303.1837538597818
 20
85.529730089826899
 40
0.5
 50
0
 51
59.999999999997797
  0
ARC
  8
_0-0_
  6
CONTINUOUS
 62
    7
 10
311.08375385978235
 20
103.05156673188367
 40
0.5
 50
59.999999999998124
 51
120.00000000000017
  0
ARC
  8
_0-0_
  6
CONTINUOUS
 62
    7
 10
304.98375385978289
 20
99.529730089826899
 40
0.5
 50
120.00000000000043
 51
180
  0
ARC
  8
_0-0_
  6
CONTINUOUS
 62
    7
 10
304.98375385978289
 20
92.486056805713361
 40
0.5
 50
180.00000000000006
 51
240.00000000000114
  0
ARC
  8
_0-0_
  6
CONTINUOUS
 62
    7
 10
311.08375385978235
 20
88.964220163656591
 40
0.5
 50
240.00000000000171
 51
300.00000000000057
  0
ARC
  8
_0-0_
  6
CONTINUOUS
 62
    7
 10
317.1837538597818
 20
92.486056805713361
 40
0.5
 50
300.00000000000068
 51
0
  0
ARC
  8
_0-0_
  6
CONTINUOUS
 62
    7
 10
317.1837538597818
 20
99.529730089826899
 40
0.5
 50
0
 51
59.999999999997797
  0
ARC
  8
_0-0_
  6
CONTINUOUS
 62
    7
 10
284.58375385978235
 20
127.68524689242395
 40
3.0000000000000009
 50
180
 51
186.76652709232027
  0
ARC
  8
_0-0_
  6
CONTINUOUS
 62
    7
 10
418.58375385978235
 20
13.50789344777013
 40
3.0000000000000009
 50
270
 51
0
  0
ARC
  8
_0-0_
  6
CONTINUOUS
 62
    7
 10
287.58375385978241
 20
144.50789344777104
 40
3.0000000000000009
 50
90
 51
180
  0
ARC
  8
_0-0_
  6
CONTINUOUS
 62
    7
 10
287.58375385978235
 20
28.750534134890131
 40
3.0000000000000009
 50
180
 51
225
  0
ARC
  8
_0-0_
  6
CONTINUOUS
 62
    7
 10
302.82639454690144
 20
13.50789344777013
 40
3.0000000000000009
 50
225.0000000000002
 51
270
  0
CIRCLE
  8
_0-0_
  6
CONTINUOUS
 62
    7
 10
352.58375385978241
 20
127.50789344777058
 40
3.2500000000000004
  0
CIRCLE
  8
_0-0_
  6
CONTINUOUS
 62
    7
 10
332.58375385978331
 20
127.50789344777058
 40
3.2500000000000004
  0
CIRCLE
  8
_0-0_
  6
CONTINUOUS
 62
    7
 10
292.58375385978235
 20
127.50789344777058
 40
3.2500000000000004
  0
CIRCLE
  8
_0-0_
  6
CONTINUOUS
 62
    7
 10
401.58375385978144
 20
78.507893447771039
 40
3.2500000000000009
  0
CIRCLE
  8
_0-0_
  6
CONTINUOUS
 62
    7
 10
401.58375385978144
 20
58.50789344777013
 40
3.2500000000000009
  0
CIRCLE
  8
_0-0_
  6
CONTINUOUS
 62
    7
 10
401.58375385978144
 20
18.507893447771039
 40
3.2500000000000009
  0
ARC
  8
_0-0_
  6
CONTINUOUS
 62
    7
 10
435.58375385978235
 20
105.50789344777104
 40
19.048155375999997
 50
316.08137219584455
 51
43.918627804155356
  0
CIRCLE
  8
_0-0_
  6
CONTINUOUS
 62
    7
 10
27.282935259782562
 20
105.50789344777104
 40
8.75
  0
CIRCLE
  8
_0-0_
  6
CONTINUOUS
 62
    7
 10
435.58375385978235
 20
105.50789344777104
 40
8.75
  0
LINE
  8
_0-0_
  6
CONTINUOUS
 62
    7
 10
80.525575946901654
 20
137.50789344777104
 11
175.28293525978165
 21
137.50789344777104
  0
ARC
  8
_0-0_
  6
CONTINUOUS
 62
    7
 10
80.525575946901654
 20
134.50789344777104
 40
3.0000000000000009
 50
90.000000000000028
 51
135.00000000000003
  0
LINE
  8
_0-0_
  6
CONTINUOUS
 62
    7
 10
52.161614916222561
 20
110.38657310421104
 11
78.404255603341653
 21
136.62921379133013
  0
ARC
  8
_0-0_
  6
CONTINUOUS
 62
    7
 10
54.282935259782562
 20
108.26525276065195
 40
3.0000000000000009
 50
134.99999999999994
 51
179.99999999999997
  0
LINE
  8
_0-0_
  6
CONTINUOUS
 62
    7
 10
51.282935259782562
 20
108.26525276065195
 11
51.282935259782562
 21
13.50789344777013
  0
ARC
  8
_0-0_
  6
CONTINUOUS
 62
    7
 10
48.282935259782562
 20
13.50789344777013
 40
3.0000000000000009
 50
270
 51
0
  0
ARC
  8
_0-0_
  6
CONTINUOUS
 62
    7
 10
175.28293525978165
 20
140.50789344777104
 40
3.0000000000000009
 50
270
 51
0
  0
ARC
  8
_0-0_
  6
CONTINUOUS
 62
    7
 10
287.58375385978241
 20
140.50789344777104
 40
3.0000000000000009
 50
180
 51
270
  0
LINE
  8
_0-0_
  6
CONTINUOUS
 62
    7
 10
287.58375385978235
 20
137.50789344777104
 11
382.34111317266331
 21
137.50789344777104
  0
ARC
  8
_0-0_
  6
CONTINUOUS
 62
    7
 10
382.34111317266331
 20
134.50789344777104
 40
3.0000000000000009
 50
44.999999999999957
 51
89.999999999999943
  0
LINE
  8
_0-0_
  6
CONTINUOUS
 62
    7
 10
384.46243351622331
 20
136.62921379133013
 11
410.70507420334144
 21
110.38657310421104
  0
ARC
  8
_0-0_
  6
CONTINUOUS
 62
    7
 10
408.58375385978235
 20
108.26525276065195
 40
3.0000000000000009
 50
0.0000000000000063
 51
45.000000000000028
  0
LINE
  8
_0-0_
  6
CONTINUOUS
 62
    7
 10
411.58375385978235
 20
108.26525276065195
 11
411.58375385978235
 21
13.50789344777013
  0
ARC
  8
_0-0_
  6
CONTINUOUS
 62
    7
 10
414.58375385978235
 20
13.50789344777013
 40
3.0000000000000009
 50
180
 51
270
  0
LINE
  8
_0-0_
  6
CONTINUOUS
 62
    7
 10
176.2829352597825
 20
182.9076210084495
 11
11.18086439321246
 21
182.9076210084495
  0
LINE
  8
_0-0_
  6
CONTINUOUS
 62
    7
 10
41.282935259783471
 20
184.90762100844904
 11
41.282935259783471
 21
200.59762186574653
  0
LINE
  8
_0-0_
  6
CONTINUOUS
 62
    7
 10
41.282935259783471
 20
202.90761700844951
 11
40.808522225361003
 21
211.95995696469254
  0
LINE
  8
_0-0_
  6
CONTINUOUS
 62
    7
 10
39.809892690606603
 20
212.9076210084495
 11
12.129828959927863
 21
212.9076210084495
  0
LINE
  8
_0-0_
  6
CONTINUOUS
 62
    7
 10
9.1339403556637535
 20
210.06462887717862
 11
8.7595754880092045
 21
202.92132166638567
  0
LINE
  8
_0-0_
  6
CONTINUOUS
 62
    7
 10
8.7616699463940222
 20
202.90761700844951
 11
177.7829352597825
 21
202.90761700844951
  0
LINE
  8
_0-0_
  6
CONTINUOUS
 62
    7
 10
178.2829352597825
 20
202.40761700844951
 11
178.2829352597825
 21
184.9076210084495
  0
LINE
  8
_0-0_
  6
CONTINUOUS
 62
    7
 10
9.1836053237036595
 20
184.80294909596341
 11
8.2623551790163674
 21
202.38144903032799
  0
ARC
  8
_0-0_
  6
CONTINUOUS
 62
    7
 10
12.129828959927863
 20
209.9076210084495
 40
3.0000000000000009
 50
89.999999999999972
 51
177.00000000000009
  0
ARC
  8
_0-0_
  6
CONTINUOUS
 62
    7
 10
11.18086439321246
 20
184.90762100844904
 40
2
 50
182.99999999999991
 51
270
  0
ARC
  8
_0-0_
  6
CONTINUOUS
 62
    7
 10
39.809892690606603
 20
211.9076210084495
 40
1
 50
3.0000000000000546
 51
90
  0
ARC
  8
_0-0_
  6
CONTINUOUS
 62
    7
 10
8.7616699463940222
 20
202.40761700844951
 40
0.5
 50
90
 51
182.9999999999998
  0
ARC
  8
_0-0_
  6
CONTINUOUS
 62
    7
 10
176.2829352597825
 20
184.9076210084495
 40
2
 50
270
 51
0
  0
ARC
  8
_0-0_
  6
CONTINUOUS
 62
    7
 10
177.7829352597825
 20
202.40761700844951
 40
0.5
 50
0
 51
90
  0
LINE
  8
_0-0_
  6
CONTINUOUS
 62
    7
 10
286.58375385978235
 20
182.9076210084495
 11
451.68582472635245
 21
182.9076210084495
  0
LINE
  8
_0-0_
  6
CONTINUOUS
 62
    7
 10
421.58375385978144
 20
184.90762100844904
 11
421.58375385978144
 21
200.59762186574653
  0
LINE
  8
_0-0_
  6
CONTINUOUS
 62
    7
 10
421.58375385978144
 20
202.90761700844951
 11
422.05816689420391
 21
211.95995696469254
  0
LINE
  8
_0-0_
  6
CONTINUOUS
 62
    7
 10
423.05679642895831
 20
212.9076210084495
 11
450.73686015963705
 21
212.9076210084495
  0
LINE
  8
_0-0_
  6
CONTINUOUS
 62
    7
 10
453.73274876390116
 20
210.06462887717862
 11
454.10711363155571
 21
202.92132166638567
  0
LINE
  8
_0-0_
  6
CONTINUOUS
 62
    7
 10
454.10501917317089
 20
202.90761700844951
 11
285.08375385978235
 21
202.90761700844951
  0
LINE
  8
_0-0_
  6
CONTINUOUS
 62
    7
 10
284.58375385978235
 20
202.40761700844951
 11
284.58375385978235
 21
184.9076210084495
  0
LINE
  8
_0-0_
  6
CONTINUOUS
 62
    7
 10
453.68308379586125
 20
184.80294909596341
 11
454.60433394054854
 21
202.38144903032799
  0
ARC
  8
_0-0_
  6
CONTINUOUS
 62
    7
 10
450.73686015963705
 20
209.9076210084495
 40
3.0000000000000009
 50
2.9999999999999152
 51
90.000000000000028
  0
ARC
  8
_0-0_
  6
CONTINUOUS
 62
    7
 10
451.68582472635245
 20
184.90762100844904
 40
2
 50
270
 51
357.00000000000006
  0
ARC
  8
_0-0_
  6
CONTINUOUS
 62
    7
 10
423.05679642895831
 20
211.9076210084495
 40
1
 50
89.999999999999986
 51
176.99999999999994
  0
ARC
  8
_0-0_
  6
CONTINUOUS
 62
    7
 10
454.10501917317089
 20
202.40761700844951
 40
0.5
 50
357.00000000000017
 51
90.000000000000071
  0
ARC
  8
_0-0_
  6
CONTINUOUS
 62
    7
 10
286.58375385978235
 20
184.9076210084495
 40
2
 50
180
 51
270
  0
ARC
  8
_0-0_
  6
CONTINUOUS
 62
    7
 10
285.08375385978235
 20
202.40761700844951
 40
0.5
 50
90
 51
180
  0
LINE
  8
_0-0_
  6
CONTINUOUS
 62
    7
 10
41.282935259782562
 20
415.24654791430225
 11
13.562060600755785
 21
386.45903525845944
  0
LINE
  8
_0-0_
  6
CONTINUOUS
 62
    7
 10
86.182935259782198
 20
346.22471127224463
 11
86.182935259782198
 21
353.26838455635817
  0
LINE
  8
_0-0_
  6
CONTINUOUS
 62
    7
 10
86.432935259782198
 20
353.70139725825021
 11
92.532935259781652
 21
357.22323390030743
  0
LINE
  8
_0-0_
  6
CONTINUOUS
 62
    7
 10
93.032935259782562
 20
357.22323390030743
 11
99.132935259782016
 21
353.70139725825021
  0
LINE
  8
_0-0_
  6
CONTINUOUS
 62
    7
 10
99.382935259782016
 20
353.26838455635817
 11
99.382935259782016
 21
346.22471127224463
  0
LINE
  8
_0-0_
  6
CONTINUOUS
 62
    7
 10
99.132935259782016
 20
345.79169857035259
 11
93.032935259782562
 21
342.26986192829582
  0
LINE
  8
_0-0_
  6
CONTINUOUS
 62
    7
 10
92.532935259781652
 20
342.26986192829582
 11
86.432935259782198
 21
345.79169857035259
  0
LINE
  8
_0-0_
  6
CONTINUOUS
 62
    7
 10
172.38293525978202
 20
353.26838455635817
 11
172.38293525978202
 21
346.22471127224463
  0
LINE
  8
_0-0_
  6
CONTINUOUS
 62
    7
 10
172.13293525978202
 20
345.79169857035259
 11
166.03293525978165
 21
342.26986192829582
  0
LINE
  8
_0-0_
  6
CONTINUOUS
 62
    7
 10
165.53293525978165
 20
342.26986192829582
 11
159.4329352597822
 21
345.79169857035259
  0
LINE
  8
_0-0_
  6
CONTINUOUS
 62
    7
 10
159.1829352597822
 20
346.22471127224463
 11
159.1829352597822
 21
353.26838455635817
  0
LINE
  8
_0-0_
  6
CONTINUOUS
 62
    7
 10
159.4329352597822
 20
353.70139725825021
 11
165.53293525978165
 21
357.22323390030743
  0
LINE
  8
_0-0_
  6
CONTINUOUS
 62
    7
 10
166.03293525978165
 20
357.22323390030743
 11
172.13293525978202
 21
353.70139725825021
  0
LINE
  8
_0-0_
  6
CONTINUOUS
 62
    7
 10
166.30248788148288
 20
319.76986192829673
 11
172.40248788148233
 21
323.29169857035259
  0
LINE
  8
_0-0_
  6
CONTINUOUS
 62
    7
 10
172.65248788148233
 20
323.72471127224463
 11
172.65248788148233
 21
330.76838455635817
  0
LINE
  8
_0-0_
  6
CONTINUOUS
 62
    7
 10
172.40248788148233
 20
331.20139725825021
 11
166.30248788148288
 21
334.72323390030743
  0
LINE
  8
_0-0_
  6
CONTINUOUS
 62
    7
 10
165.80248788148197
 20
334.72323390030743
 11
159.70248788148251
 21
331.20139725825021
  0
LINE
  8
_0-0_
  6
CONTINUOUS
 62
    7
 10
159.45248788148251
 20
330.76838455635817
 11
159.45248788148251
 21
323.72471127224463
  0
LINE
  8
_0-0_
  6
CONTINUOUS
 62
    7
 10
159.70248788148251
 20
323.29169857035259
 11
165.80248788148197
 21
319.76986192829673
  0
LINE
  8
_0-0_
  6
CONTINUOUS
 62
    7
 10
166.03293525978165
 20
297.26986192829582
 11
172.13293525978202
 21
300.79169857035259
  0
LINE
  8
_0-0_
  6
CONTINUOUS
 62
    7
 10
172.38293525978202
 20
301.22471127224463
 11
172.38293525978202
 21
308.26838455635817
  0
LINE
  8
_0-0_
  6
CONTINUOUS
 62
    7
 10
172.13293525978202
 20
308.70139725825021
 11
166.03293525978165
 21
312.22323390030698
  0
LINE
  8
_0-0_
  6
CONTINUOUS
 62
    7
 10
165.53293525978165
 20
312.22323390030698
 11
159.4329352597822
 21
308.70139725825021
  0
LINE
  8
_0-0_
  6
CONTINUOUS
 62
    7
 10
159.1829352597822
 20
308.26838455635817
 11
159.1829352597822
 21
301.22471127224463
  0
LINE
  8
_0-0_
  6
CONTINUOUS
 62
    7
 10
159.4329352597822
 20
300.79169857035259
 11
165.53293525978165
 21
297.26986192829582
  0
LINE
  8
_0-0_
  6
CONTINUOUS
 62
    7
 10
158.13293525978202
 20
294.70139725825112
 11
152.03293525978165
 21
298.22323390030698
  0
LINE
  8
_0-0_
  6
CONTINUOUS
 62
    7
 10
151.53293525978256
 20
298.22323390030698
 11
145.4329352597822
 21
294.70139725825112
  0
LINE
  8
_0-0_
  6
CONTINUOUS
 62
    7
 10
145.1829352597822
 20
294.26838455635817
 11
145.1829352597822
 21
287.22471127224463
  0
LINE
  8
_0-0_
  6
CONTINUOUS
 62
    7
 10
145.4329352597822
 20
286.79169857035259
 11
151.53293525978256
 21
283.26986192829582
  0
LINE
  8
_0-0_
  6
CONTINUOUS
 62
    7
 10
152.03293525978165
 20
283.26986192829582
 11
158.13293525978202
 21
286.79169857035259
  0
LINE
  8
_0-0_
  6
CONTINUOUS
 62
    7
 10
158.38293525978202
 20
287.22471127224463
 11
158.38293525978202
 21
294.26838455635817
  0
LINE
  8
_0-0_
  6
CONTINUOUS
 62
    7
 10
122.6829352597822
 20
293.99883193465786
 11
122.6829352597822
 21
286.95515865054432
  0
LINE
  8
_0-0_
  6
CONTINUOUS
 62
    7
 10
122.9329352597822
 20
286.52214594865137
 11
129.03293525978256
 21
283.00030930659551
  0
LINE
  8
_0-0_
  6
CONTINUOUS
 62
    7
 10
129.53293525978165
 20
283.00030930659551
 11
135.63293525978202
 21
286.52214594865137
  0
LINE
  8
_0-0_
  6
CONTINUOUS
 62
    7
 10
135.88293525978202
 20
286.95515865054432
 11
135.88293525978202
 21
293.99883193465786
  0
LINE
  8
_0-0_
  6
CONTINUOUS
 62
    7
 10
135.63293525978202
 20
294.4318446365499
 11
129.53293525978165
 21
297.95368127860667
  0
LINE
  8
_0-0_
  6
CONTINUOUS
 62
    7
 10
129.03293525978256
 20
297.95368127860667
 11
122.9329352597822
 21
294.4318446365499
  0
LINE
  8
_0-0_
  6
CONTINUOUS
 62
    7
 10
113.38293525978202
 20
294.26838455635817
 11
113.38293525978202
 21
287.22471127224463
  0
LINE
  8
_0-0_
  6
CONTINUOUS
 62
    7
 10
113.13293525978202
 20
286.79169857035259
 11
107.03293525978165
 21
283.26986192829582
  0
LINE
  8
_0-0_
  6
CONTINUOUS
 62
    7
 10
106.53293525978256
 20
283.26986192829582
 11
100.4329352597822
 21
286.79169857035259
  0
LINE
  8
_0-0_
  6
CONTINUOUS
 62
    7
 10
100.1829352597822
 20
287.22471127224463
 11
100.1829352597822
 21
294.26838455635817
  0
LINE
  8
_0-0_
  6
CONTINUOUS
 62
    7
 10
100.4329352597822
 20
294.70139725825112
 11
106.53293525978256
 21
298.22323390030698
  0
LINE
  8
_0-0_
  6
CONTINUOUS
 62
    7
 10
107.03293525978165
 20
298.22323390030698
 11
113.13293525978202
 21
294.70139725825112
  0
LINE
  8
_0-0_
  6
CONTINUOUS
 62
    7
 10
99.132935259782016
 20
300.79169857035259
 11
93.032935259782562
 21
297.26986192829582
  0
LINE
  8
_0-0_
  6
CONTINUOUS
 62
    7
 10
92.532935259781652
 20
297.26986192829582
 11
86.432935259782198
 21
300.79169857035259
  0
LINE
  8
_0-0_
  6
CONTINUOUS
 62
    7
 10
86.182935259782198
 20
301.22471127224463
 11
86.182935259782198
 21
308.26838455635817
  0
LINE
  8
_0-0_
  6
CONTINUOUS
 62
    7
 10
86.432935259782198
 20
308.70139725825021
 11
92.532935259781652
 21
312.22323390030698
  0
LINE
  8
_0-0_
  6
CONTINUOUS
 62
    7
 10
93.032935259782562
 20
312.22323390030698
 11
99.132935259782016
 21
308.70139725825021
  0
LINE
  8
_0-0_
  6
CONTINUOUS
 62
    7
 10
99.382935259782016
 20
308.26838455635817
 11
99.382935259782016
 21
301.22471127224463
  0
LINE
  8
_0-0_
  6
CONTINUOUS
 62
    7
 10
92.263382638082248
 20
334.72323390030743
 11
86.163382638081885
 21
331.20139725825021
  0
LINE
  8
_0-0_
  6
CONTINUOUS
 62
    7
 10
85.913382638080975
 20
330.76838455635817
 11
85.913382638080975
 21
323.72471127224463
  0
LINE
  8
_0-0_
  6
CONTINUOUS
 62
    7
 10
86.163382638081885
 20
323.29169857035259
 11
92.263382638082248
 21
319.76986192829673
  0
LINE
  8
_0-0_
  6
CONTINUOUS
 62
    7
 10
92.763382638081339
 20
319.76986192829582
 11
98.863382638081703
 21
323.29169857035259
  0
LINE
  8
_0-0_
  6
CONTINUOUS
 62
    7
 10
99.113382638081703
 20
323.72471127224463
 11
99.113382638081703
 21
330.76838455635817
  0
LINE
  8
_0-0_
  6
CONTINUOUS
 62
    7
 10
98.863382638081703
 20
331.20139725825021
 11
92.763382638081339
 21
334.72323390030743
  0
LINE
  8
_0-0_
  6
CONTINUOUS
 62
    7
 10
100.1829352597822
 20
360.22471127224463
 11
100.1829352597822
 21
367.26838455635817
  0
LINE
  8
_0-0_
  6
CONTINUOUS
 62
    7
 10
100.4329352597822
 20
367.70139725825067
 11
106.53293525978256
 21
371.22323390030789
  0
LINE
  8
_0-0_
  6
CONTINUOUS
 62
    7
 10
107.03293525978165
 20
371.22323390030789
 11
113.13293525978202
 21
367.70139725825067
  0
LINE
  8
_0-0_
  6
CONTINUOUS
 62
    7
 10
113.38293525978202
 20
367.26838455635817
 11
113.38293525978202
 21
360.22471127224463
  0
LINE
  8
_0-0_
  6
CONTINUOUS
 62
    7
 10
113.13293525978202
 20
359.79169857035259
 11
107.03293525978165
 21
356.26986192829582
  0
LINE
  8
_0-0_
  6
CONTINUOUS
 62
    7
 10
106.53293525978256
 20
356.26986192829582
 11
100.4329352597822
 21
359.79169857035259
  0
LINE
  8
_0-0_
  6
CONTINUOUS
 62
    7
 10
135.88293525978202
 20
367.53793717805848
 11
135.88293525978202
 21
360.49426389394495
  0
LINE
  8
_0-0_
  6
CONTINUOUS
 62
    7
 10
135.63293525978202
 20
360.06125119205291
 11
129.53293525978165
 21
356.53941454999614
  0
LINE
  8
_0-0_
  6
CONTINUOUS
 62
    7
 10
129.03293525978256
 20
356.53941454999614
 11
122.9329352597822
 21
360.06125119205291
  0
LINE
  8
_0-0_
  6
CONTINUOUS
 62
    7
 10
122.6829352597822
 20
360.49426389394495
 11
122.6829352597822
 21
367.53793717805848
  0
LINE
  8
_0-0_
  6
CONTINUOUS
 62
    7
 10
122.9329352597822
 20
367.97094987995143
 11
129.03293525978256
 21
371.4927865220082
  0
LINE
  8
_0-0_
  6
CONTINUOUS
 62
    7
 10
129.53293525978165
 20
371.4927865220082
 11
135.63293525978202
 21
367.97094987995143
  0
LINE
  8
_0-0_
  6
CONTINUOUS
 62
    7
 10
145.4329352597822
 20
367.70139725825067
 11
151.53293525978256
 21
371.22323390030789
  0
LINE
  8
_0-0_
  6
CONTINUOUS
 62
    7
 10
152.03293525978165
 20
371.22323390030789
 11
158.13293525978202
 21
367.70139725825067
  0
LINE
  8
_0-0_
  6
CONTINUOUS
 62
    7
 10
158.38293525978202
 20
367.26838455635817
 11
158.38293525978202
 21
360.22471127224463
  0
LINE
  8
_0-0_
  6
CONTINUOUS
 62
    7
 10
158.13293525978202
 20
359.79169857035259
 11
152.03293525978165
 21
356.26986192829582
  0
LINE
  8
_0-0_
  6
CONTINUOUS
 62
    7
 10
151.53293525978256
 20
356.26986192829582
 11
145.4329352597822
 21
359.79169857035259
  0
LINE
  8
_0-0_
  6
CONTINUOUS
 62
    7
 10
145.1829352597822
 20
360.22471127224463
 11
145.1829352597822
 21
367.26838455635817
  0
LINE
  8
_0-0_
  6
CONTINUOUS
 62
    7
 10
160.04029457266256
 20
278.24654791430225
 11
44.282935259782562
 21
278.24654791430225
  0
LINE
  8
_0-0_
  6
CONTINUOUS
 62
    7
 10
41.282935259782562
 20
281.2465479143014
 11
41.282935259782562
 21
331.24654791430231
  0
LINE
  8
_0-0_
  6
CONTINUOUS
 62
    7
 10
41.282935259782562
 20
331.24654791430231
 11
13.562060600755785
 21
360.03406057014428
  0
LINE
  8
_0-0_
  6
CONTINUOUS
 62
    7
 10
175.28293525978165
 20
415.24654791430225
 11
41.282935259782562
 21
415.24654791430225
  0
LINE
  8
_0-0_
  6
CONTINUOUS
 62
    7
 10
178.28293525978165
 20
296.4891886014214
 11
178.28293525978165
 21
412.24654791430225
  0
LINE
  8
_0-0_
  6
CONTINUOUS
 62
    7
 10
177.40425560334165
 20
294.3678682578614
 11
161.28293525978256
 21
278.24654791430225
  0
CIRCLE
  8
_0-0_
  6
CONTINUOUS
 62
    7
 10
129.28293525978256
 20
327.24654791430231
 40
24.999999999999996
  0
CIRCLE
  8
_0-0_
  6
CONTINUOUS
 62
    7
 10
165.78293525978256
 20
349.74654791430231
 40
4.2500000000000009
  0
CIRCLE
  8
_0-0_
  6
CONTINUOUS
 62
    7
 10
151.78293525978256
 20
363.74654791430186
 40
4.2500000000000009
  0
CIRCLE
  8
_0-0_
  6
CONTINUOUS
 62
    7
 10
106.78293525978256
 20
363.74654791430186
 40
4.2500000000000009
  0
CIRCLE
  8
_0-0_
  6
CONTINUOUS
 62
    7
 10
92.782935259782562
 20
349.74654791430231
 40
4.2500000000000009
  0
CIRCLE
  8
_0-0_
  6
CONTINUOUS
 62
    7
 10
92.782935259782562
 20
304.74654791430231
 40
4.2500000000000009
  0
CIRCLE
  8
_0-0_
  6
CONTINUOUS
 62
    7
 10
106.78293525978256
 20
290.74654791430231
 40
4.2500000000000009
  0
CIRCLE
  8
_0-0_
  6
CONTINUOUS
 62
    7
 10
151.78293525978256
 20
290.74654791430231
 40
4.2500000000000009
  0
CIRCLE
  8
_0-0_
  6
CONTINUOUS
 62
    7
 10
165.78293525978256
 20
304.74654791430231
 40
4.2500000000000009
  0
CIRCLE
  8
_0-0_
  6
CONTINUOUS
 62
    7
 10
166.05248788148288
 20
327.24654791430231
 40
4.25
  0
CIRCLE
  8
_0-0_
  6
CONTINUOUS
 62
    7
 10
129.28293525978256
 20
364.01610053600263
 40
4.25
  0
CIRCLE
  8
_0-0_
  6
CONTINUOUS
 62
    7
 10
92.513382638081339
 20
327.24654791430231
 40
4.25
  0
CIRCLE
  8
_0-0_
  6
CONTINUOUS
 62
    7
 10
129.28293525978256
 20
290.47699529260109
 40
4.25
  0
ARC
  8
_0-0_
  6
CONTINUOUS
 62
    7
 10
100.6829352597822
 20
367.26838455635817
 40
0.5
 50
120.00000000000185
 51
180
  0
ARC
  8
_0-0_
  6
CONTINUOUS
 62
    7
 10
100.6829352597822
 20
360.22471127224463
 40
0.5
 50
180
 51
239.99999999999937
  0
ARC
  8
_0-0_
  6
CONTINUOUS
 62
    7
 10
106.78293525978256
 20
356.70287463018786
 40
0.5
 50
240
 51
299.99999999999892
  0
ARC
  8
_0-0_
  6
CONTINUOUS
 62
    7
 10
112.88293525978202
 20
360.22471127224463
 40
0.5
 50
299.99999999999886
 51
359.99999999999994
  0
ARC
  8
_0-0_
  6
CONTINUOUS
 62
    7
 10
112.88293525978202
 20
367.26838455635817
 40
0.5
 50
0
 51
59.999999999999829
  0
ARC
  8
_0-0_
  6
CONTINUOUS
 62
    7
 10
106.78293525978256
 20
370.79022119841494
 40
0.5
 50
60.000000000000441
 51
120.00000000000129
  0
ARC
  8
_0-0_
  6
CONTINUOUS
 62
    7
 10
92.782935259782562
 20
356.79022119841494
 40
0.5
 50
59.999999999999829
 51
120.00000000000188
  0
ARC
  8
_0-0_
  6
CONTINUOUS
 62
    7
 10
86.682935259782198
 20
353.26838455635817
 40
0.5
 50
120.0000000000022
 51
180
  0
ARC
  8
_0-0_
  6
CONTINUOUS
 62
    7
 10
86.682935259782198
 20
346.22471127224463
 40
0.5
 50
180
 51
239.99999999999937
  0
ARC
  8
_0-0_
  6
CONTINUOUS
 62
    7
 10
92.782935259782562
 20
342.70287463018786
 40
0.5
 50
240
 51
299.99999999999892
  0
ARC
  8
_0-0_
  6
CONTINUOUS
 62
    7
 10
98.882935259782016
 20
346.22471127224463
 40
0.5
 50
299.99999999999886
 51
359.99999999999994
  0
ARC
  8
_0-0_
  6
CONTINUOUS
 62
    7
 10
98.882935259782016
 20
353.26838455635817
 40
0.5
 50
0
 51
59.999999999999574
  0
ARC
  8
_0-0_
  6
CONTINUOUS
 62
    7
 10
123.1829352597822
 20
360.49426389394495
 40
0.5
 50
180
 51
239.99999999999937
  0
ARC
  8
_0-0_
  6
CONTINUOUS
 62
    7
 10
129.28293525978256
 20
356.97242725188818
 40
0.5
 50
240
 51
299.99999999999892
  0
ARC
  8
_0-0_
  6
CONTINUOUS
 62
    7
 10
135.38293525978202
 20
360.49426389394495
 40
0.5
 50
299.99999999999886
 51
359.99999999999994
  0
ARC
  8
_0-0_
  6
CONTINUOUS
 62
    7
 10
135.38293525978202
 20
367.53793717805848
 40
0.5
 50
0
 51
59.999999999999829
  0
ARC
  8
_0-0_
  6
CONTINUOUS
 62
    7
 10
129.28293525978256
 20
371.05977382011525
 40
0.5
 50
60.000000000000441
 51
120.00000000000188
  0
ARC
  8
_0-0_
  6
CONTINUOUS
 62
    7
 10
123.1829352597822
 20
367.53793717805848
 40
0.5
 50
120.0000000000022
 51
180
  0
ARC
  8
_0-0_
  6
CONTINUOUS
 62
    7
 10
92.513382638081339
 20
334.29022119841585
 40
0.5
 50
59.999999999999829
 51
120.00000000000188
  0
ARC
  8
_0-0_
  6
CONTINUOUS
 62
    7
 10
98.613382638081703
 20
330.76838455635817
 40
0.5
 50
0
 51
60.000000000000469
  0
ARC
  8
_0-0_
  6
CONTINUOUS
 62
    7
 10
98.613382638081703
 20
323.72471127224463
 40
0.5
 50
299.99999999999721
 51
0
  0
ARC
  8
_0-0_
  6
CONTINUOUS
 62
    7
 10
92.513382638081339
 20
320.20287463018877
 40
0.5
 50
240.00000000000111
 51
299.99999999999648
  0
ARC
  8
_0-0_
  6
CONTINUOUS
 62
    7
 10
86.413382638081885
 20
323.72471127224463
 40
0.5
 50
180
 51
240.00000000000176
  0
ARC
  8
_0-0_
  6
CONTINUOUS
 62
    7
 10
86.413382638081885
 20
330.76838455635817
 40
0.5
 50
120.00000000000134
 51
180
  0
ARC
  8
_0-0_
  6
CONTINUOUS
 62
    7
 10
92.782935259782562
 20
311.79022119841494
 40
0.5
 50
59.999999999999829
 51
120.00000000000188
  0
ARC
  8
_0-0_
  6
CONTINUOUS
 62
    7
 10
98.882935259782016
 20
308.26838455635817
 40
0.5
 50
0
 51
59.999999999999574
  0
ARC
  8
_0-0_
  6
CONTINUOUS
 62
    7
 10
98.882935259782016
 20
301.22471127224463
 40
0.5
 50
299.99999999999886
 51
359.99999999999994
  0
ARC
  8
_0-0_
  6
CONTINUOUS
 62
    7
 10
92.782935259782562
 20
297.70287463018786
 40
0.5
 50
239.99999999999943
 51
299.99999999999829
  0
ARC
  8
_0-0_
  6
CONTINUOUS
 62
    7
 10
86.682935259782198
 20
301.22471127224463
 40
0.5
 50
180
 51
239.99999999999932
  0
ARC
  8
_0-0_
  6
CONTINUOUS
 62
    7
 10
86.682935259782198
 20
308.26838455635817
 40
0.5
 50
120.0000000000022
 51
180
  0
ARC
  8
_0-0_
  6
CONTINUOUS
 62
    7
 10
106.78293525978256
 20
297.79022119841494
 40
0.5
 50
59.999999999999829
 51
120.00000000000188
  0
ARC
  8
_0-0_
  6
CONTINUOUS
 62
    7
 10
112.88293525978202
 20
294.26838455635817
 40
0.5
 50
0
 51
59.999999999999574
  0
ARC
  8
_0-0_
  6
CONTINUOUS
 62
    7
 10
112.88293525978202
 20
287.22471127224463
 40
0.5
 50
299.99999999999886
 51
359.99999999999994
  0
ARC
  8
_0-0_
  6
CONTINUOUS
 62
    7
 10
106.78293525978256
 20
283.70287463018786
 40
0.5
 50
239.99999999999943
 51
299.99999999999829
  0
ARC
  8
_0-0_
  6
CONTINUOUS
 62
    7
 10
100.6829352597822
 20
287.22471127224463
 40
0.5
 50
180
 51
239.99999999999932
  0
ARC
  8
_0-0_
  6
CONTINUOUS
 62
    7
 10
100.6829352597822
 20
294.26838455635817
 40
0.5
 50
120.0000000000022
 51
180
  0
ARC
  8
_0-0_
  6
CONTINUOUS
 62
    7
 10
129.28293525978256
 20
297.52066857671463
 40
0.5
 50
59.999999999998153
 51
120.00000000000188
  0
ARC
  8
_0-0_
  6
CONTINUOUS
 62
    7
 10
135.38293525978202
 20
293.99883193465786
 40
0.5
 50
0
 51
59.999999999998685
  0
ARC
  8
_0-0_
  6
CONTINUOUS
 62
    7
 10
135.38293525978202
 20
286.95515865054432
 40
0.5
 50
299.99999999999886
 51
359.99999999999994
  0
ARC
  8
_0-0_
  6
CONTINUOUS
 62
    7
 10
129.28293525978256
 20
283.43332200848755
 40
0.5
 50
240.00000000000111
 51
299.99999999999824
  0
ARC
  8
_0-0_
  6
CONTINUOUS
 62
    7
 10
123.1829352597822
 20
286.95515865054432
 40
0.5
 50
180
 51
240.00000000000176
  0
ARC
  8
_0-0_
  6
CONTINUOUS
 62
    7
 10
123.1829352597822
 20
293.99883193465786
 40
0.5
 50
120.00000000000134
 51
180
  0
ARC
  8
_0-0_
  6
CONTINUOUS
 62
    7
 10
145.6829352597822
 20
294.26838455635817
 40
0.5
 50
120.00000000000185
 51
180
  0
ARC
  8
_0-0_
  6
CONTINUOUS
 62
    7
 10
151.78293525978256
 20
297.79022119841494
 40
0.5
 50
59.999999999999829
 51
120.00000000000129
  0
ARC
  8
_0-0_
  6
CONTINUOUS
 62
    7
 10
157.88293525978202
 20
294.26838455635817
 40
0.5
 50
0
 51
59.999999999999574
  0
ARC
  8
_0-0_
  6
CONTINUOUS
 62
    7
 10
157.88293525978202
 20
287.22471127224463
 40
0.5
 50
299.99999999999886
 51
359.99999999999994
  0
ARC
  8
_0-0_
  6
CONTINUOUS
 62
    7
 10
151.78293525978256
 20
283.70287463018786
 40
0.5
 50
239.99999999999943
 51
299.99999999999829
  0
ARC
  8
_0-0_
  6
CONTINUOUS
 62
    7
 10
145.6829352597822
 20
287.22471127224463
 40
0.5
 50
180
 51
239.99999999999932
  0
ARC
  8
_0-0_
  6
CONTINUOUS
 62
    7
 10
165.78293525978256
 20
297.70287463018786
 40
0.5
 50
239.99999999999937
 51
299.99999999999892
  0
ARC
  8
_0-0_
  6
CONTINUOUS
 62
    7
 10
171.88293525978202
 20
301.22471127224463
 40
0.5
 50
299.99999999999886
 51
359.99999999999994
  0
ARC
  8
_0-0_
  6
CONTINUOUS
 62
    7
 10
171.88293525978202
 20
308.26838455635817
 40
0.5
 50
0
 51
59.999999999999829
  0
ARC
  8
_0-0_
  6
CONTINUOUS
 62
    7
 10
165.78293525978256
 20
311.79022119841494
 40
0.5
 50
60.000000000000441
 51
120.00000000000188
  0
ARC
  8
_0-0_
  6
CONTINUOUS
 62
    7
 10
159.6829352597822
 20
308.26838455635817
 40
0.5
 50
120.0000000000022
 51
180
  0
ARC
  8
_0-0_
  6
CONTINUOUS
 62
    7
 10
159.6829352597822
 20
301.22471127224463
 40
0.5
 50
180
 51
239.99999999999932
  0
ARC
  8
_0-0_
  6
CONTINUOUS
 62
    7
 10
166.05248788148288
 20
334.29022119841585
 40
0.5
 50
59.999999999998153
 51
120.00000000000188
  0
ARC
  8
_0-0_
  6
CONTINUOUS
 62
    7
 10
172.15248788148233
 20
330.76838455635817
 40
0.5
 50
0
 51
59.999999999998685
  0
ARC
  8
_0-0_
  6
CONTINUOUS
 62
    7
 10
172.15248788148233
 20
323.72471127224463
 40
0.5
 50
299.99999999999886
 51
359.99999999999994
  0
ARC
  8
_0-0_
  6
CONTINUOUS
 62
    7
 10
166.05248788148288
 20
320.20287463018877
 40
0.5
 50
240.00000000000111
 51
299.99999999999824
  0
ARC
  8
_0-0_
  6
CONTINUOUS
 62
    7
 10
159.95248788148251
 20
323.72471127224463
 40
0.5
 50
180
 51
240.00000000000176
  0
ARC
  8
_0-0_
  6
CONTINUOUS
 62
    7
 10
159.95248788148251
 20
330.76838455635817
 40
0.5
 50
120.00000000000134
 51
180
  0
ARC
  8
_0-0_
  6
CONTINUOUS
 62
    7
 10
165.78293525978256
 20
356.79022119841494
 40
0.5
 50
59.999999999999829
 51
120.00000000000188
  0
ARC
  8
_0-0_
  6
CONTINUOUS
 62
    7
 10
171.88293525978202
 20
353.26838455635817
 40
0.5
 50
0
 51
59.999999999999574
  0
ARC
  8
_0-0_
  6
CONTINUOUS
 62
    7
 10
171.88293525978202
 20
346.22471127224463
 40
0.5
 50
299.99999999999886
 51
359.99999999999994
  0
ARC
  8
_0-0_
  6
CONTINUOUS
 62
    7
 10
165.78293525978256
 20
342.70287463018786
 40
0.5
 50
239.99999999999943
 51
299.99999999999829
  0
ARC
  8
_0-0_
  6
CONTINUOUS
 62
    7
 10
159.6829352597822
 20
346.22471127224463
 40
0.5
 50
180
 51
239.99999999999932
  0
ARC
  8
_0-0_
  6
CONTINUOUS
 62
    7
 10
159.6829352597822
 20
353.26838455635817
 40
0.5
 50
120.0000000000022
 51
180
  0
ARC
  8
_0-0_
  6
CONTINUOUS
 62
    7
 10
151.78293525978256
 20
370.79022119841494
 40
0.5
 50
59.999999999999829
 51
120.00000000000188
  0
ARC
  8
_0-0_
  6
CONTINUOUS
 62
    7
 10
157.88293525978202
 20
367.26838455635817
 40
0.5
 50
0
 51
59.999999999999574
  0
ARC
  8
_0-0_
  6
CONTINUOUS
 62
    7
 10
157.88293525978202
 20
360.22471127224463
 40
0.5
 50
299.99999999999886
 51
359.99999999999994
  0
ARC
  8
_0-0_
  6
CONTINUOUS
 62
    7
 10
151.78293525978256
 20
356.70287463018786
 40
0.5
 50
239.99999999999943
 51
299.99999999999829
  0
ARC
  8
_0-0_
  6
CONTINUOUS
 62
    7
 10
145.6829352597822
 20
360.22471127224463
 40
0.5
 50
180
 51
239.99999999999932
  0
ARC
  8
_0-0_
  6
CONTINUOUS
 62
    7
 10
145.6829352597822
 20
367.26838455635817
 40
0.5
 50
120.0000000000022
 51
180
  0
ARC
  8
_0-0_
  6
CONTINUOUS
 62
    7
 10
178.28293525978165
 20
395.42390135895522
 40
3.0000000000000009
 50
353.2334729076797
 51
0
  0
ARC
  8
_0-0_
  6
CONTINUOUS
 62
    7
 10
44.282935259782562
 20
281.2465479143014
 40
3.0000000000000009
 50
179.99999999999997
 51
270
  0
ARC
  8
_0-0_
  6
CONTINUOUS
 62
    7
 10
175.28293525978165
 20
412.24654791430225
 40
3.0000000000000009
 50
0
 51
89.999999999999972
  0
ARC
  8
_0-0_
  6
CONTINUOUS
 62
    7
 10
175.28293525978165
 20
296.4891886014214
 40
3.0000000000000009
 50
315
 51
0
  0
ARC
  8
_0-0_
  6
CONTINUOUS
 62
    7
 10
160.04029457266256
 20
281.2465479143014
 40
3.0000000000000009
 50
269.99999999999994
 51
314.99999999999972
  0
CIRCLE
  8
_0-0_
  6
CONTINUOUS
 62
    7
 10
110.28293525978256
 20
395.24654791430186
 40
3.2500000000000004
  0
CIRCLE
  8
_0-0_
  6
CONTINUOUS
 62
    7
 10
130.28293525978165
 20
395.24654791430186
 40
3.2500000000000004
  0
CIRCLE
  8
_0-0_
  6
CONTINUOUS
 62
    7
 10
170.28293525978256
 20
395.24654791430186
 40
3.2500000000000004
  0
CIRCLE
  8
_0-0_
  6
CONTINUOUS
 62
    7
 10
61.282935259782562
 20
346.24654791430231
 40
3.2500000000000009
  0
CIRCLE
  8
_0-0_
  6
CONTINUOUS
 62
    7
 10
61.282935259782562
 20
326.2465479143014
 40
3.2500000000000009
  0
CIRCLE
  8
_0-0_
  6
CONTINUOUS
 62
    7
 10
61.282935259782562
 20
286.24654791430231
 40
3.2500000000000009
  0
ARC
  8
_0-0_
  6
CONTINUOUS
 62
    7
 10
27.282935259782562
 20
373.24654791430231
 40
19.048155375999997
 50
136.08137219584464
 51
223.91862780415536
  0
LINE
  8
_0-0_
  6
CONTINUOUS
 62
    7
 10
284.58375385978241
 20
412.24654791430225
 11
284.58375385978235
 21
296.4891886014214
  0
LINE
  8
_0-0_
  6
CONTINUOUS
 62
    7
 10
285.46243351622235
 20
294.3678682578614
 11
301.58375385978235
 21
278.24654791430225
  0
LINE
  8
_0-0_
  6
CONTINUOUS
 62
    7
 10
302.82639454690144
 20
278.24654791430225
 11
418.58375385978235
 21
278.24654791430225
  0
LINE
  8
_0-0_
  6
CONTINUOUS
 62
    7
 10
421.58375385978235
 20
281.2465479143014
 11
421.58375385978235
 21
331.24654791430231
  0
LINE
  8
_0-0_
  6
CONTINUOUS
 62
    7
 10
421.58375385978235
 20
331.24654791430231
 11
449.30462851880912
 21
360.03406057014428
  0
LINE
  8
_0-0_
  6
CONTINUOUS
 62
    7
 10
376.6837538597818
 20
346.22471127224463
 11
376.6837538597818
 21
353.26838455635817
  0
LINE
  8
_0-0_
  6
CONTINUOUS
 62
    7
 10
376.43375385978271
 20
353.70139725825021
 11
370.33375385978326
 21
357.22323390030743
  0
LINE
  8
_0-0_
  6
CONTINUOUS
 62
    7
 10
369.83375385978235
 20
357.22323390030743
 11
363.73375385978289
 21
353.70139725825021
  0
LINE
  8
_0-0_
  6
CONTINUOUS
 62
    7
 10
363.48375385978289
 20
353.26838455635817
 11
363.48375385978289
 21
346.22471127224463
  0
LINE
  8
_0-0_
  6
CONTINUOUS
 62
    7
 10
363.73375385978289
 20
345.79169857035259
 11
369.83375385978235
 21
342.26986192829582
  0
LINE
  8
_0-0_
  6
CONTINUOUS
 62
    7
 10
370.33375385978326
 20
342.26986192829582
 11
376.43375385978271
 21
345.79169857035259
  0
LINE
  8
_0-0_
  6
CONTINUOUS
 62
    7
 10
290.48375385978289
 20
353.26838455635817
 11
290.48375385978289
 21
346.22471127224463
  0
LINE
  8
_0-0_
  6
CONTINUOUS
 62
    7
 10
290.73375385978198
 20
345.79169857035259
 11
296.83375385978326
 21
342.26986192829582
  0
LINE
  8
_0-0_
  6
CONTINUOUS
 62
    7
 10
297.33375385978326
 20
342.26986192829582
 11
303.43375385978271
 21
345.79169857035259
  0
LINE
  8
_0-0_
  6
CONTINUOUS
 62
    7
 10
303.6837538597818
 20
346.22471127224463
 11
303.6837538597818
 21
353.26838455635817
  0
LINE
  8
_0-0_
  6
CONTINUOUS
 62
    7
 10
303.43375385978271
 20
353.70139725825021
 11
297.33375385978326
 21
357.22323390030743
  0
LINE
  8
_0-0_
  6
CONTINUOUS
 62
    7
 10
296.83375385978326
 20
357.22323390030743
 11
290.73375385978198
 21
353.70139725825021
  0
LINE
  8
_0-0_
  6
CONTINUOUS
 62
    7
 10
296.56420123808203
 20
319.76986192829673
 11
290.46420123808258
 21
323.29169857035259
  0
LINE
  8
_0-0_
  6
CONTINUOUS
 62
    7
 10
290.21420123808258
 20
323.72471127224463
 11
290.21420123808258
 21
330.76838455635817
  0
LINE
  8
_0-0_
  6
CONTINUOUS
 62
    7
 10
290.46420123808258
 20
331.20139725825021
 11
296.56420123808203
 21
334.72323390030743
  0
LINE
  8
_0-0_
  6
CONTINUOUS
 62
    7
 10
297.06420123808203
 20
334.72323390030743
 11
303.1642012380824
 21
331.20139725825021
  0
LINE
  8
_0-0_
  6
CONTINUOUS
 62
    7
 10
303.4142012380824
 20
330.76838455635817
 11
303.4142012380824
 21
323.72471127224463
  0
LINE
  8
_0-0_
  6
CONTINUOUS
 62
    7
 10
303.1642012380824
 20
323.29169857035259
 11
297.06420123808203
 21
319.76986192829673
  0
LINE
  8
_0-0_
  6
CONTINUOUS
 62
    7
 10
296.83375385978326
 20
297.26986192829582
 11
290.73375385978198
 21
300.79169857035259
  0
LINE
  8
_0-0_
  6
CONTINUOUS
 62
    7
 10
290.48375385978289
 20
301.22471127224463
 11
290.48375385978289
 21
308.26838455635817
  0
LINE
  8
_0-0_
  6
CONTINUOUS
 62
    7
 10
290.73375385978198
 20
308.70139725825021
 11
296.83375385978326
 21
312.22323390030698
  0
LINE
  8
_0-0_
  6
CONTINUOUS
 62
    7
 10
297.33375385978326
 20
312.22323390030698
 11
303.43375385978271
 21
308.70139725825021
  0
LINE
  8
_0-0_
  6
CONTINUOUS
 62
    7
 10
303.6837538597818
 20
308.26838455635817
 11
303.6837538597818
 21
301.22471127224463
  0
LINE
  8
_0-0_
  6
CONTINUOUS
 62
    7
 10
303.43375385978271
 20
300.79169857035259
 11
297.33375385978326
 21
297.26986192829582
  0
LINE
  8
_0-0_
  6
CONTINUOUS
 62
    7
 10
304.73375385978289
 20
294.70139725825112
 11
310.83375385978326
 21
298.22323390030698
  0
LINE
  8
_0-0_
  6
CONTINUOUS
 62
    7
 10
311.33375385978235
 20
298.22323390030698
 11
317.4337538597818
 21
294.70139725825112
  0
LINE
  8
_0-0_
  6
CONTINUOUS
 62
    7
 10
317.68375385978271
 20
294.26838455635817
 11
317.68375385978271
 21
287.22471127224463
  0
LINE
  8
_0-0_
  6
CONTINUOUS
 62
    7
 10
317.4337538597818
 20
286.79169857035259
 11
311.33375385978235
 21
283.26986192829582
  0
LINE
  8
_0-0_
  6
CONTINUOUS
 62
    7
 10
310.83375385978326
 20
283.26986192829582
 11
304.73375385978289
 21
286.79169857035259
  0
LINE
  8
_0-0_
  6
CONTINUOUS
 62
    7
 10
304.48375385978289
 20
287.22471127224463
 11
304.48375385978289
 21
294.26838455635817
  0
LINE
  8
_0-0_
  6
CONTINUOUS
 62
    7
 10
340.18375385978271
 20
293.99883193465786
 11
340.18375385978271
 21
286.95515865054432
  0
LINE
  8
_0-0_
  6
CONTINUOUS
 62
    7
 10
339.9337538597818
 20
286.52214594865137
 11
333.83375385978235
 21
283.00030930659551
  0
LINE
  8
_0-0_
  6
CONTINUOUS
 62
    7
 10
333.33375385978326
 20
283.00030930659551
 11
327.23375385978289
 21
286.52214594865137
  0
LINE
  8
_0-0_
  6
CONTINUOUS
 62
    7
 10
326.98375385978289
 20
286.95515865054432
 11
326.98375385978289
 21
293.99883193465786
  0
LINE
  8
_0-0_
  6
CONTINUOUS
 62
    7
 10
327.23375385978289
 20
294.4318446365499
 11
333.33375385978326
 21
297.95368127860667
  0
LINE
  8
_0-0_
  6
CONTINUOUS
 62
    7
 10
333.83375385978235
 20
297.95368127860667
 11
339.9337538597818
 21
294.4318446365499
  0
LINE
  8
_0-0_
  6
CONTINUOUS
 62
    7
 10
349.48375385978289
 20
294.26838455635817
 11
349.48375385978289
 21
287.22471127224463
  0
LINE
  8
_0-0_
  6
CONTINUOUS
 62
    7
 10
349.73375385978289
 20
286.79169857035259
 11
355.83375385978326
 21
283.26986192829582
  0
LINE
  8
_0-0_
  6
CONTINUOUS
 62
    7
 10
356.33375385978235
 20
283.26986192829582
 11
362.4337538597818
 21
286.79169857035259
  0
LINE
  8
_0-0_
  6
CONTINUOUS
 62
    7
 10
362.68375385978271
 20
287.22471127224463
 11
362.68375385978271
 21
294.26838455635817
  0
LINE
  8
_0-0_
  6
CONTINUOUS
 62
    7
 10
362.4337538597818
 20
294.70139725825112
 11
356.33375385978235
 21
298.22323390030698
  0
LINE
  8
_0-0_
  6
CONTINUOUS
 62
    7
 10
355.83375385978326
 20
298.22323390030698
 11
349.73375385978289
 21
294.70139725825112
  0
LINE
  8
_0-0_
  6
CONTINUOUS
 62
    7
 10
363.73375385978289
 20
300.79169857035259
 11
369.83375385978235
 21
297.26986192829582
  0
LINE
  8
_0-0_
  6
CONTINUOUS
 62
    7
 10
370.33375385978326
 20
297.26986192829582
 11
376.43375385978271
 21
300.79169857035259
  0
LINE
  8
_0-0_
  6
CONTINUOUS
 62
    7
 10
376.6837538597818
 20
301.22471127224463
 11
376.6837538597818
 21
308.26838455635817
  0
LINE
  8
_0-0_
  6
CONTINUOUS
 62
    7
 10
376.43375385978271
 20
308.70139725825021
 11
370.33375385978326
 21
312.22323390030698
  0
LINE
  8
_0-0_
  6
CONTINUOUS
 62
    7
 10
369.83375385978235
 20
312.22323390030698
 11
363.73375385978289
 21
308.70139725825021
  0
LINE
  8
_0-0_
  6
CONTINUOUS
 62
    7
 10
363.48375385978289
 20
308.26838455635817
 11
363.48375385978289
 21
301.22471127224463
  0
LINE
  8
_0-0_
  6
CONTINUOUS
 62
    7
 10
370.60330648148266
 20
334.72323390030743
 11
376.70330648148303
 21
331.20139725825021
  0
LINE
  8
_0-0_
  6
CONTINUOUS
 62
    7
 10
376.95330648148303
 20
330.76838455635817
 11
376.95330648148303
 21
323.72471127224463
  0
LINE
  8
_0-0_
  6
CONTINUOUS
 62
    7
 10
376.70330648148303
 20
323.29169857035259
 11
370.60330648148266
 21
319.76986192829673
  0
LINE
  8
_0-0_
  6
CONTINUOUS
 62
    7
 10
370.10330648148266
 20
319.76986192829582
 11
364.0033064814823
 21
323.29169857035259
  0
LINE
  8
_0-0_
  6
CONTINUOUS
 62
    7
 10
363.75330648148321
 20
323.72471127224463
 11
363.75330648148321
 21
330.76838455635817
  0
LINE
  8
_0-0_
  6
CONTINUOUS
 62
    7
 10
364.0033064814823
 20
331.20139725825021
 11
370.10330648148266
 21
334.72323390030743
  0
LINE
  8
_0-0_
  6
CONTINUOUS
 62
    7
 10
362.68375385978271
 20
360.22471127224463
 11
362.68375385978271
 21
367.26838455635817
  0
LINE
  8
_0-0_
  6
CONTINUOUS
 62
    7
 10
362.4337538597818
 20
367.70139725825067
 11
356.33375385978235
 21
371.22323390030789
  0
LINE
  8
_0-0_
  6
CONTINUOUS
 62
    7
 10
355.83375385978326
 20
371.22323390030789
 11
349.73375385978289
 21
367.70139725825067
  0
LINE
  8
_0-0_
  6
CONTINUOUS
 62
    7
 10
349.48375385978289
 20
367.26838455635817
 11
349.48375385978289
 21
360.22471127224463
  0
LINE
  8
_0-0_
  6
CONTINUOUS
 62
    7
 10
349.73375385978289
 20
359.79169857035259
 11
355.83375385978326
 21
356.26986192829582
  0
LINE
  8
_0-0_
  6
CONTINUOUS
 62
    7
 10
356.33375385978235
 20
356.26986192829582
 11
362.4337538597818
 21
359.79169857035259
  0
LINE
  8
_0-0_
  6
CONTINUOUS
 62
    7
 10
326.98375385978289
 20
367.53793717805848
 11
326.98375385978289
 21
360.49426389394495
  0
LINE
  8
_0-0_
  6
CONTINUOUS
 62
    7
 10
327.23375385978289
 20
360.06125119205291
 11
333.33375385978326
 21
356.53941454999614
  0
LINE
  8
_0-0_
  6
CONTINUOUS
 62
    7
 10
333.83375385978235
 20
356.53941454999614
 11
339.9337538597818
 21
360.06125119205291
  0
LINE
  8
_0-0_
  6
CONTINUOUS
 62
    7
 10
340.18375385978271
 20
360.49426389394495
 11
340.18375385978271
 21
367.53793717805848
  0
LINE
  8
_0-0_
  6
CONTINUOUS
 62
    7
 10
339.9337538597818
 20
367.97094987995143
 11
333.83375385978235
 21
371.4927865220082
  0
LINE
  8
_0-0_
  6
CONTINUOUS
 62
    7
 10
333.33375385978326
 20
371.4927865220082
 11
327.23375385978289
 21
367.97094987995143
  0
LINE
  8
_0-0_
  6
CONTINUOUS
 62
    7
 10
317.4337538597818
 20
367.70139725825067
 11
311.33375385978235
 21
371.22323390030789
  0
LINE
  8
_0-0_
  6
CONTINUOUS
 62
    7
 10
310.83375385978326
 20
371.22323390030789
 11
304.73375385978289
 21
367.70139725825067
  0
LINE
  8
_0-0_
  6
CONTINUOUS
 62
    7
 10
304.48375385978289
 20
367.26838455635817
 11
304.48375385978289
 21
360.22471127224463
  0
LINE
  8
_0-0_
  6
CONTINUOUS
 62
    7
 10
304.73375385978289
 20
359.79169857035259
 11
310.83375385978326
 21
356.26986192829582
  0
LINE
  8
_0-0_
  6
CONTINUOUS
 62
    7
 10
311.33375385978235
 20
356.26986192829582
 11
317.4337538597818
 21
359.79169857035259
  0
LINE
  8
_0-0_
  6
CONTINUOUS
 62
    7
 10
317.68375385978271
 20
360.22471127224463
 11
317.68375385978271
 21
367.26838455635817
  0
LINE
  8
_0-0_
  6
CONTINUOUS
 62
    7
 10
449.30462851880912
 20
386.45903525845944
 11
421.58375385978235
 21
415.24654791430225
  0
LINE
  8
_0-0_
  6
CONTINUOUS
 62
    7
 10
421.58375385978235
 20
415.24654791430225
 11
287.58375385978241
 21
415.24654791430225
  0
CIRCLE
  8
_0-0_
  6
CONTINUOUS
 62
    7
 10
333.58375385978235
 20
327.24654791430231
 40
24.999999999999996
  0
CIRCLE
  8
_0-0_
  6
CONTINUOUS
 62
    7
 10
297.08375385978235
 20
349.74654791430231
 40
4.2500000000000009
  0
CIRCLE
  8
_0-0_
  6
CONTINUOUS
 62
    7
 10
311.08375385978235
 20
363.74654791430186
 40
4.2500000000000009
  0
CIRCLE
  8
_0-0_
  6
CONTINUOUS
 62
    7
 10
356.08375385978235
 20
363.74654791430186
 40
4.2500000000000009
  0
CIRCLE
  8
_0-0_
  6
CONTINUOUS
 62
    7
 10
370.08375385978144
 20
349.74654791430231
 40
4.2500000000000009
  0
CIRCLE
  8
_0-0_
  6
CONTINUOUS
 62
    7
 10
370.08375385978144
 20
304.74654791430231
 40
4.2500000000000009
  0
CIRCLE
  8
_0-0_
  6
CONTINUOUS
 62
    7
 10
356.08375385978235
 20
290.74654791430231
 40
4.2500000000000009
  0
CIRCLE
  8
_0-0_
  6
CONTINUOUS
 62
    7
 10
311.08375385978235
 20
290.74654791430231
 40
4.2500000000000009
  0
CIRCLE
  8
_0-0_
  6
CONTINUOUS
 62
    7
 10
297.08375385978235
 20
304.74654791430231
 40
4.2500000000000009
  0
CIRCLE
  8
_0-0_
  6
CONTINUOUS
 62
    7
 10
296.81420123808203
 20
327.24654791430231
 40
4.25
  0
CIRCLE
  8
_0-0_
  6
CONTINUOUS
 62
    7
 10
333.58375385978235
 20
364.01610053600263
 40
4.25
  0
CIRCLE
  8
_0-0_
  6
CONTINUOUS
 62
    7
 10
370.35330648148266
 20
327.24654791430231
 40
4.25
  0
CIRCLE
  8
_0-0_
  6
CONTINUOUS
 62
    7
 10
333.58375385978235
 20
290.47699529260109
 40
4.25
  0
ARC
  8
_0-0_
  6
CONTINUOUS
 62
    7
 10
362.1837538597818
 20
367.26838455635817
 40
0.5
 50
0
 51
59.999999999998153
  0
ARC
  8
_0-0_
  6
CONTINUOUS
 62
    7
 10
362.1837538597818
 20
360.22471127224463
 40
0.5
 50
300.00000000000063
 51
0
  0
ARC
  8
_0-0_
  6
CONTINUOUS
 62
    7
 10
356.08375385978235
 20
356.70287463018786
 40
0.5
 50
240.00000000000105
 51
299.99999999999994
  0
ARC
  8
_0-0_
  6
CONTINUOUS
 62
    7
 10
349.98375385978289
 20
360.22471127224463
 40
0.5
 50
180.00000000000006
 51
240.00000000000114
  0
ARC
  8
_0-0_
  6
CONTINUOUS
 62
    7
 10
349.98375385978289
 20
367.26838455635817
 40
0.5
 50
120.00000000000017
 51
180
  0
ARC
  8
_0-0_
  6
CONTINUOUS
 62
    7
 10
356.08375385978235
 20
370.79022119841494
 40
0.5
 50
59.999999999998685
 51
119.99999999999956
  0
ARC
  8
_0-0_
  6
CONTINUOUS
 62
    7
 10
370.08375385978144
 20
356.79022119841494
 40
0.5
 50
59.999999999998124
 51
120.00000000000017
  0
ARC
  8
_0-0_
  6
CONTINUOUS
 62
    7
 10
376.1837538597818
 20
353.26838455635817
 40
0.5
 50
0
 51
59.999999999997797
  0
ARC
  8
_0-0_
  6
CONTINUOUS
 62
    7
 10
376.1837538597818
 20
346.22471127224463
 40
0.5
 50
300.00000000000063
 51
0
  0
ARC
  8
_0-0_
  6
CONTINUOUS
 62
    7
 10
370.08375385978144
 20
342.70287463018786
 40
0.5
 50
240.00000000000105
 51
299.99999999999994
  0
ARC
  8
_0-0_
  6
CONTINUOUS
 62
    7
 10
363.98375385978289
 20
346.22471127224463
 40
0.5
 50
180.00000000000006
 51
240.00000000000114
  0
ARC
  8
_0-0_
  6
CONTINUOUS
 62
    7
 10
363.98375385978289
 20
353.26838455635817
 40
0.5
 50
120.00000000000043
 51
180
  0
ARC
  8
_0-0_
  6
CONTINUOUS
 62
    7
 10
339.6837538597818
 20
360.49426389394495
 40
0.5
 50
300.00000000000063
 51
0
  0
ARC
  8
_0-0_
  6
CONTINUOUS
 62
    7
 10
333.58375385978235
 20
356.97242725188818
 40
0.5
 50
240.00000000000105
 51
299.99999999999994
  0
ARC
  8
_0-0_
  6
CONTINUOUS
 62
    7
 10
327.48375385978289
 20
360.49426389394495
 40
0.5
 50
180.00000000000006
 51
240.00000000000114
  0
ARC
  8
_0-0_
  6
CONTINUOUS
 62
    7
 10
327.48375385978289
 20
367.53793717805848
 40
0.5
 50
120.00000000000017
 51
180
  0
ARC
  8
_0-0_
  6
CONTINUOUS
 62
    7
 10
333.58375385978235
 20
371.05977382011525
 40
0.5
 50
59.999999999998124
 51
119.99999999999956
  0
ARC
  8
_0-0_
  6
CONTINUOUS
 62
    7
 10
339.6837538597818
 20
367.53793717805848
 40
0.5
 50
0
 51
59.999999999997797
  0
ARC
  8
_0-0_
  6
CONTINUOUS
 62
    7
 10
370.35330648148266
 20
334.29022119841585
 40
0.5
 50
59.999999999998124
 51
120.00000000000017
  0
ARC
  8
_0-0_
  6
CONTINUOUS
 62
    7
 10
364.25330648148321
 20
330.76838455635817
 40
0.5
 50
119.99999999999953
 51
180
  0
ARC
  8
_0-0_
  6
CONTINUOUS
 62
    7
 10
364.25330648148321
 20
323.72471127224463
 40
0.5
 50
179.99999999999997
 51
240.00000000000279
  0
ARC
  8
_0-0_
  6
CONTINUOUS
 62
    7
 10
370.35330648148266
 20
320.20287463018877
 40
0.5
 50
240.0000000000035
 51
299.99999999999886
  0
ARC
  8
_0-0_
  6
CONTINUOUS
 62
    7
 10
376.45330648148303
 20
323.72471127224463
 40
0.5
 50
299.99999999999824
 51
0
  0
ARC
  8
_0-0_
  6
CONTINUOUS
 62
    7
 10
376.45330648148303
 20
330.76838455635817
 40
0.5
 50
0
 51
59.999999999998657
  0
ARC
  8
_0-0_
  6
CONTINUOUS
 62
    7
 10
370.08375385978144
 20
311.79022119841494
 40
0.5
 50
59.999999999998124
 51
120.00000000000017
  0
ARC
  8
_0-0_
  6
CONTINUOUS
 62
    7
 10
363.98375385978289
 20
308.26838455635817
 40
0.5
 50
120.00000000000043
 51
180
  0
ARC
  8
_0-0_
  6
CONTINUOUS
 62
    7
 10
363.98375385978289
 20
301.22471127224463
 40
0.5
 50
180.00000000000006
 51
240.00000000000114
  0
ARC
  8
_0-0_
  6
CONTINUOUS
 62
    7
 10
370.08375385978144
 20
297.70287463018786
 40
0.5
 50
240.00000000000171
 51
300.00000000000057
  0
ARC
  8
_0-0_
  6
CONTINUOUS
 62
    7
 10
376.1837538597818
 20
301.22471127224463
 40
0.5
 50
300.00000000000068
 51
0
  0
ARC
  8
_0-0_
  6
CONTINUOUS
 62
    7
 10
376.1837538597818
 20
308.26838455635817
 40
0.5
 50
0
 51
59.999999999997797
  0
ARC
  8
_0-0_
  6
CONTINUOUS
 62
    7
 10
356.08375385978235
 20
297.79022119841494
 40
0.5
 50
59.999999999998124
 51
120.00000000000017
  0
ARC
  8
_0-0_
  6
CONTINUOUS
 62
    7
 10
349.98375385978289
 20
294.26838455635817
 40
0.5
 50
120.00000000000043
 51
180
  0
ARC
  8
_0-0_
  6
CONTINUOUS
 62
    7
 10
349.98375385978289
 20
287.22471127224463
 40
0.5
 50
180.00000000000006
 51
240.00000000000114
  0
ARC
  8
_0-0_
  6
CONTINUOUS
 62
    7
 10
356.08375385978235
 20
283.70287463018786
 40
0.5
 50
240.00000000000171
 51
300.00000000000057
  0
ARC
  8
_0-0_
  6
CONTINUOUS
 62
    7
 10
362.1837538597818
 20
287.22471127224463
 40
0.5
 50
300.00000000000068
 51
0
  0
ARC
  8
_0-0_
  6
CONTINUOUS
 62
    7
 10
362.1837538597818
 20
294.26838455635817
 40
0.5
 50
0
 51
59.999999999997797
  0
ARC
  8
_0-0_
  6
CONTINUOUS
 62
    7
 10
333.58375385978235
 20
297.52066857671463
 40
0.5
 50
59.999999999998124
 51
120.00000000000185
  0
ARC
  8
_0-0_
  6
CONTINUOUS
 62
    7
 10
327.48375385978289
 20
293.99883193465786
 40
0.5
 50
120.00000000000131
 51
180
  0
ARC
  8
_0-0_
  6
CONTINUOUS
 62
    7
 10
327.48375385978289
 20
286.95515865054432
 40
0.5
 50
180.00000000000006
 51
240.00000000000114
  0
ARC
  8
_0-0_
  6
CONTINUOUS
 62
    7
 10
333.58375385978235
 20
283.43332200848755
 40
0.5
 50
240.00000000000176
 51
299.99999999999892
  0
ARC
  8
_0-0_
  6
CONTINUOUS
 62
    7
 10
339.6837538597818
 20
286.95515865054432
 40
0.5
 50
299.99999999999824
 51
0
  0
ARC
  8
_0-0_
  6
CONTINUOUS
 62
    7
 10
339.6837538597818
 20
293.99883193465786
 40
0.5
 50
0
 51
59.999999999998657
  0
ARC
  8
_0-0_
  6
CONTINUOUS
 62
    7
 10
317.1837538597818
 20
294.26838455635817
 40
0.5
 50
0
 51
59.999999999998153
  0
ARC
  8
_0-0_
  6
CONTINUOUS
 62
    7
 10
311.08375385978235
 20
297.79022119841494
 40
0.5
 50
59.999999999998685
 51
120.00000000000017
  0
ARC
  8
_0-0_
  6
CONTINUOUS
 62
    7
 10
304.98375385978289
 20
294.26838455635817
 40
0.5
 50
120.00000000000043
 51
180
  0
ARC
  8
_0-0_
  6
CONTINUOUS
 62
    7
 10
304.98375385978289
 20
287.22471127224463
 40
0.5
 50
180.00000000000006
 51
240.00000000000114
  0
ARC
  8
_0-0_
  6
CONTINUOUS
 62
    7
 10
311.08375385978235
 20
283.70287463018786
 40
0.5
 50
240.00000000000171
 51
300.00000000000057
  0
ARC
  8
_0-0_
  6
CONTINUOUS
 62
    7
 10
317.1837538597818
 20
287.22471127224463
 40
0.5
 50
300.00000000000068
 51
0
  0
ARC
  8
_0-0_
  6
CONTINUOUS
 62
    7
 10
297.08375385978235
 20
297.70287463018786
 40
0.5
 50
240.00000000000105
 51
300.00000000000057
  0
ARC
  8
_0-0_
  6
CONTINUOUS
 62
    7
 10
290.98375385978198
 20
301.22471127224463
 40
0.5
 50
180.00000000000006
 51
240.00000000000114
  0
ARC
  8
_0-0_
  6
CONTINUOUS
 62
    7
 10
290.98375385978198
 20
308.26838455635817
 40
0.5
 50
120.00000000000017
 51
180
  0
ARC
  8
_0-0_
  6
CONTINUOUS
 62
    7
 10
297.08375385978235
 20
311.79022119841494
 40
0.5
 50
59.999999999998124
 51
119.99999999999956
  0
ARC
  8
_0-0_
  6
CONTINUOUS
 62
    7
 10
303.1837538597818
 20
308.26838455635817
 40
0.5
 50
0
 51
59.999999999997797
  0
ARC
  8
_0-0_
  6
CONTINUOUS
 62
    7
 10
303.1837538597818
 20
301.22471127224463
 40
0.5
 50
300.00000000000068
 51
0
  0
ARC
  8
_0-0_
  6
CONTINUOUS
 62
    7
 10
296.81420123808203
 20
334.29022119841585
 40
0.5
 50
59.999999999998124
 51
120.00000000000185
  0
ARC
  8
_0-0_
  6
CONTINUOUS
 62
    7
 10
290.71420123808167
 20
330.76838455635817
 40
0.5
 50
120.00000000000131
 51
180
  0
ARC
  8
_0-0_
  6
CONTINUOUS
 62
    7
 10
290.71420123808167
 20
323.72471127224463
 40
0.5
 50
180.00000000000006
 51
240.00000000000114
  0
ARC
  8
_0-0_
  6
CONTINUOUS
 62
    7
 10
296.81420123808203
 20
320.20287463018877
 40
0.5
 50
240.00000000000176
 51
299.99999999999892
  0
ARC
  8
_0-0_
  6
CONTINUOUS
 62
    7
 10
302.9142012380824
 20
323.72471127224463
 40
0.5
 50
299.99999999999824
 51
0
  0
ARC
  8
_0-0_
  6
CONTINUOUS
 62
    7
 10
302.9142012380824
 20
330.76838455635817
 40
0.5
 50
0
 51
59.999999999998657
  0
ARC
  8
_0-0_
  6
CONTINUOUS
 62
    7
 10
297.08375385978235
 20
356.79022119841494
 40
0.5
 50
59.999999999998124
 51
120.00000000000017
  0
ARC
  8
_0-0_
  6
CONTINUOUS
 62
    7
 10
290.98375385978198
 20
353.26838455635817
 40
0.5
 50
120.00000000000043
 51
180
  0
ARC
  8
_0-0_
  6
CONTINUOUS
 62
    7
 10
290.98375385978198
 20
346.22471127224463
 40
0.5
 50
180.00000000000006
 51
240.00000000000114
  0
ARC
  8
_0-0_
  6
CONTINUOUS
 62
    7
 10
297.08375385978235
 20
342.70287463018786
 40
0.5
 50
240.00000000000171
 51
300.00000000000057
  0
ARC
  8
_0-0_
  6
CONTINUOUS
 62
    7
 10
303.1837538597818
 20
346.22471127224463
 40
0.5
 50
300.00000000000068
 51
0
  0
ARC
  8
_0-0_
  6
CONTINUOUS
 62
    7
 10
303.1837538597818
 20
353.26838455635817
 40
0.5
 50
0
 51
59.999999999997797
  0
ARC
  8
_0-0_
  6
CONTINUOUS
 62
    7
 10
311.08375385978235
 20
370.79022119841494
 40
0.5
 50
59.999999999998124
 51
120.00000000000017
  0
ARC
  8
_0-0_
  6
CONTINUOUS
 62
    7
 10
304.98375385978289
 20
367.26838455635817
 40
0.5
 50
120.00000000000043
 51
180
  0
ARC
  8
_0-0_
  6
CONTINUOUS
 62
    7
 10
304.98375385978289
 20
360.22471127224463
 40
0.5
 50
180.00000000000006
 51
240.00000000000114
  0
ARC
  8
_0-0_
  6
CONTINUOUS
 62
    7
 10
311.08375385978235
 20
356.70287463018786
 40
0.5
 50
240.00000000000171
 51
300.00000000000057
  0
ARC
  8
_0-0_
  6
CONTINUOUS
 62
    7
 10
317.1837538597818
 20
360.22471127224463
 40
0.5
 50
300.00000000000068
 51
0
  0
ARC
  8
_0-0_
  6
CONTINUOUS
 62
    7
 10
317.1837538597818
 20
367.26838455635817
 40
0.5
 50
0
 51
59.999999999997797
  0
ARC
  8
_0-0_
  6
CONTINUOUS
 62
    7
 10
284.58375385978235
 20
395.42390135895522
 40
3.0000000000000009
 50
180
 51
186.76652709232027
  0
ARC
  8
_0-0_
  6
CONTINUOUS
 62
    7
 10
418.58375385978235
 20
281.2465479143014
 40
3.0000000000000009
 50
270
 51
0
  0
ARC
  8
_0-0_
  6
CONTINUOUS
 62
    7
 10
287.58375385978241
 20
412.24654791430225
 40
3.0000000000000009
 50
90
 51
180
  0
ARC
  8
_0-0_
  6
CONTINUOUS
 62
    7
 10
287.58375385978235
 20
296.4891886014214
 40
3.0000000000000009
 50
180
 51
225
  0
ARC
  8
_0-0_
  6
CONTINUOUS
 62
    7
 10
302.82639454690144
 20
281.2465479143014
 40
3.0000000000000009
 50
225.0000000000002
 51
270
  0
CIRCLE
  8
_0-0_
  6
CONTINUOUS
 62
    7
 10
352.58375385978241
 20
395.24654791430186
 40
3.2500000000000004
  0
CIRCLE
  8
_0-0_
  6
CONTINUOUS
 62
    7
 10
332.58375385978331
 20
395.24654791430186
 40
3.2500000000000004
  0
CIRCLE
  8
_0-0_
  6
CONTINUOUS
 62
    7
 10
292.58375385978235
 20
395.24654791430186
 40
3.2500000000000004
  0
CIRCLE
  8
_0-0_
  6
CONTINUOUS
 62
    7
 10
401.58375385978144
 20
346.24654791430231
 40
3.2500000000000009
  0
CIRCLE
  8
_0-0_
  6
CONTINUOUS
 62
    7
 10
401.58375385978144
 20
326.2465479143014
 40
3.2500000000000009
  0
CIRCLE
  8
_0-0_
  6
CONTINUOUS
 62
    7
 10
401.58375385978144
 20
286.24654791430231
 40
3.2500000000000009
  0
ARC
  8
_0-0_
  6
CONTINUOUS
 62
    7
 10
435.58375385978235
 20
373.24654791430231
 40
19.048155375999997
 50
316.08137219584455
 51
43.918627804155356
  0
CIRCLE
  8
_0-0_
  6
CONTINUOUS
 62
    7
 10
27.282935259782562
 20
373.24654791430231
 40
7.0999999046325684
  0
CIRCLE
  8
_0-0_
  6
CONTINUOUS
 62
    7
 10
435.58375385978235
 20
373.24654791430231
 40
7.0999999046325684
  0
LINE
  8
_0-0_
  6
CONTINUOUS
 62
    7
 10
52.161614916222561
 20
378.12522757074231
 11
78.404255603341653
 21
404.3678682578614
  0
ARC
  8
_0-0_
  6
CONTINUOUS
 62
    7
 10
80.525575946901654
 20
402.24654791430231
 40
3.0000000000000009
 50
90.000000000000028
 51
135.00000000000003
  0
LINE
  8
_0-0_
  6
CONTINUOUS
 62
    7
 10
80.525575946901654
 20
405.24654791430231
 11
175.28293525978165
 21
405.24654791430231
  0
ARC
  8
_0-0_
  6
CONTINUOUS
 62
    7
 10
175.28293525978165
 20
408.24654791430231
 40
3.0000000000000009
 50
270
 51
0
  0
LINE
  8
_0-0_
  6
CONTINUOUS
 62
    7
 10
51.282935259782562
 20
376.00390722718322
 11
51.282935259782562
 21
281.2465479143014
  0
ARC
  8
_0-0_
  6
CONTINUOUS
 62
    7
 10
54.282935259782562
 20
376.00390722718322
 40
3.0000000000000009
 50
134.99999999999994
 51
179.99999999999997
  0
ARC
  8
_0-0_
  6
CONTINUOUS
 62
    7
 10
48.282935259782562
 20
281.2465479143014
 40
3.0000000000000009
 50
270
 51
0
  0
ARC
  8
_0-0_
  6
CONTINUOUS
 62
    7
 10
287.58375385978241
 20
408.24654791430231
 40
3.0000000000000009
 50
180
 51
270
  0
LINE
  8
_0-0_
  6
CONTINUOUS
 62
    7
 10
287.58375385978235
 20
405.24654791430231
 11
382.34111317266331
 21
405.24654791430231
  0
ARC
  8
_0-0_
  6
CONTINUOUS
 62
    7
 10
382.34111317266331
 20
402.24654791430231
 40
3.0000000000000009
 50
44.999999999999957
 51
89.999999999999943
  0
LINE
  8
_0-0_
  6
CONTINUOUS
 62
    7
 10
384.46243351622331
 20
404.3678682578614
 11
410.70507420334144
 21
378.12522757074231
  0
ARC
  8
_0-0_
  6
CONTINUOUS
 62
    7
 10
408.58375385978235
 20
376.00390722718322
 40
3.0000000000000009
 50
0.0000000000000063
 51
45.000000000000028
  0
LINE
  8
_0-0_
  6
CONTINUOUS
 62
    7
 10
411.58375385978235
 20
376.00390722718322
 11
411.58375385978235
 21
281.2465479143014
  0
ARC
  8
_0-0_
  6
CONTINUOUS
 62
    7
 10
414.58375385978235
 20
281.2465479143014
 40
3.0000000000000009
 50
180
 51
270
  0
LINE
  8
_0-0_
  6
CONTINUOUS
 62
    7
 10
176.2829352597825
 20
450.64627547498071
 11
11.18086439321246
 21
450.64627547498071
  0
LINE
  8
_0-0_
  6
CONTINUOUS
 62
    7
 10
41.282935259783471
 20
452.64627547498026
 11
41.282935259783471
 21
468.33627633227775
  0
LINE
  8
_0-0_
  6
CONTINUOUS
 62
    7
 10
41.282935259783471
 20
470.64627147498072
 11
40.808522225361003
 21
479.69861143122375
  0
LINE
  8
_0-0_
  6
CONTINUOUS
 62
    7
 10
39.809892690606603
 20
480.64627547498071
 11
12.129828959927863
 21
480.64627547498071
  0
LINE
  8
_0-0_
  6
CONTINUOUS
 62
    7
 10
9.1339403556637535
 20
477.80328334370984
 11
8.7595754880092045
 21
470.65997613291688
  0
LINE
  8
_0-0_
  6
CONTINUOUS
 62
    7
 10
8.7616699463940222
 20
470.64627147498072
 11
177.7829352597825
 21
470.64627147498072
  0
LINE
  8
_0-0_
  6
CONTINUOUS
 62
    7
 10
178.2829352597825
 20
470.14627147498072
 11
178.2829352597825
 21
452.64627547498071
  0
LINE
  8
_0-0_
  6
CONTINUOUS
 62
    7
 10
9.1836053237036595
 20
452.54160356249463
 11
8.2623551790163674
 21
470.1201034968592
  0
ARC
  8
_0-0_
  6
CONTINUOUS
 62
    7
 10
12.129828959927863
 20
477.64627547498071
 40
3.0000000000000009
 50
89.999999999999972
 51
177.00000000000009
  0
ARC
  8
_0-0_
  6
CONTINUOUS
 62
    7
 10
11.18086439321246
 20
452.64627547498026
 40
2
 50
182.99999999999991
 51
270
  0
ARC
  8
_0-0_
  6
CONTINUOUS
 62
    7
 10
39.809892690606603
 20
479.64627547498071
 40
1
 50
3.0000000000000546
 51
90
  0
ARC
  8
_0-0_
  6
CONTINUOUS
 62
    7
 10
8.7616699463940222
 20
470.14627147498072
 40
0.5
 50
90
 51
182.9999999999998
  0
ARC
  8
_0-0_
  6
CONTINUOUS
 62
    7
 10
176.2829352597825
 20
452.64627547498071
 40
2
 50
270
 51
0
  0
ARC
  8
_0-0_
  6
CONTINUOUS
 62
    7
 10
177.7829352597825
 20
470.14627147498072
 40
0.5
 50
0
 51
90
  0
LINE
  8
_0-0_
  6
CONTINUOUS
 62
    7
 10
286.58375385978235
 20
450.64627547498071
 11
451.68582472635245
 21
450.64627547498071
  0
LINE
  8
_0-0_
  6
CONTINUOUS
 62
    7
 10
421.58375385978144
 20
452.64627547498026
 11
421.58375385978144
 21
468.33627633227775
  0
LINE
  8
_0-0_
  6
CONTINUOUS
 62
    7
 10
421.58375385978144
 20
470.64627147498072
 11
422.05816689420391
 21
479.69861143122375
  0
LINE
  8
_0-0_
  6
CONTINUOUS
 62
    7
 10
423.05679642895831
 20
480.64627547498071
 11
450.73686015963705
 21
480.64627547498071
  0
LINE
  8
_0-0_
  6
CONTINUOUS
 62
    7
 10
453.73274876390116
 20
477.80328334370984
 11
454.10711363155571
 21
470.65997613291688
  0
LINE
  8
_0-0_
  6
CONTINUOUS
 62
    7
 10
454.10501917317089
 20
470.64627147498072
 11
285.08375385978235
 21
470.64627147498072
  0
LINE
  8
_0-0_
  6
CONTINUOUS
 62
    7
 10
284.58375385978235
 20
470.14627147498072
 11
284.58375385978235
 21
452.64627547498071
  0
LINE
  8
_0-0_
  6
CONTINUOUS
 62
    7
 10
453.68308379586125
 20
452.54160356249463
 11
454.60433394054854
 21
470.1201034968592
  0
ARC
  8
_0-0_
  6
CONTINUOUS
 62
    7
 10
450.73686015963705
 20
477.64627547498071
 40
3.0000000000000009
 50
2.9999999999999152
 51
90.000000000000028
  0
ARC
  8
_0-0_
  6
CONTINUOUS
 62
    7
 10
451.68582472635245
 20
452.64627547498026
 40
2
 50
270
 51
357.00000000000006
  0
ARC
  8
_0-0_
  6
CONTINUOUS
 62
    7
 10
423.05679642895831
 20
479.64627547498071
 40
1
 50
89.999999999999986
 51
176.99999999999994
  0
ARC
  8
_0-0_
  6
CONTINUOUS
 62
    7
 10
454.10501917317089
 20
470.14627147498072
 40
0.5
 50
357.00000000000017
 51
90.000000000000071
  0
ARC
  8
_0-0_
  6
CONTINUOUS
 62
    7
 10
286.58375385978235
 20
452.64627547498071
 40
2
 50
180
 51
270
  0
ARC
  8
_0-0_
  6
CONTINUOUS
 62
    7
 10
285.08375385978235
 20
470.14627147498072
 40
0.5
 50
90
 51
180
  0
LINE
  8
_0-0_
  6
CONTINUOUS
 62
    7
 10
41.282935259782562
 20
682.98520238083358
 11
13.562060600755785
 21
654.19768972499071
  0
LINE
  8
_0-0_
  6
CONTINUOUS
 62
    7
 10
86.182935259782198
 20
613.96336573877591
 11
86.182935259782198
 21
621.00703902288944
  0
LINE
  8
_0-0_
  6
CONTINUOUS
 62
    7
 10
86.432935259782198
 20
621.44005172478148
 11
92.532935259781652
 21
624.96188836683871
  0
LINE
  8
_0-0_
  6
CONTINUOUS
 62
    7
 10
93.032935259782562
 20
624.96188836683871
 11
99.132935259782016
 21
621.44005172478148
  0
LINE
  8
_0-0_
  6
CONTINUOUS
 62
    7
 10
99.382935259782016
 20
621.00703902288944
 11
99.382935259782016
 21
613.96336573877591
  0
LINE
  8
_0-0_
  6
CONTINUOUS
 62
    7
 10
99.132935259782016
 20
613.53035303688387
 11
93.032935259782562
 21
610.0085163948271
  0
LINE
  8
_0-0_
  6
CONTINUOUS
 62
    7
 10
92.532935259781652
 20
610.0085163948271
 11
86.432935259782198
 21
613.53035303688387
  0
LINE
  8
_0-0_
  6
CONTINUOUS
 62
    7
 10
172.38293525978202
 20
621.00703902288944
 11
172.38293525978202
 21
613.96336573877591
  0
LINE
  8
_0-0_
  6
CONTINUOUS
 62
    7
 10
172.13293525978202
 20
613.53035303688387
 11
166.03293525978165
 21
610.0085163948271
  0
LINE
  8
_0-0_
  6
CONTINUOUS
 62
    7
 10
165.53293525978165
 20
610.0085163948271
 11
159.4329352597822
 21
613.53035303688387
  0
LINE
  8
_0-0_
  6
CONTINUOUS
 62
    7
 10
159.1829352597822
 20
613.96336573877591
 11
159.1829352597822
 21
621.00703902288944
  0
LINE
  8
_0-0_
  6
CONTINUOUS
 62
    7
 10
159.4329352597822
 20
621.44005172478148
 11
165.53293525978165
 21
624.96188836683871
  0
LINE
  8
_0-0_
  6
CONTINUOUS
 62
    7
 10
166.03293525978165
 20
624.96188836683871
 11
172.13293525978202
 21
621.44005172478148
  0
LINE
  8
_0-0_
  6
CONTINUOUS
 62
    7
 10
166.30248788148288
 20
587.50851639482801
 11
172.40248788148233
 21
591.03035303688387
  0
LINE
  8
_0-0_
  6
CONTINUOUS
 62
    7
 10
172.65248788148233
 20
591.46336573877591
 11
172.65248788148233
 21
598.50703902288944
  0
LINE
  8
_0-0_
  6
CONTINUOUS
 62
    7
 10
172.40248788148233
 20
598.94005172478148
 11
166.30248788148288
 21
602.46188836683871
  0
LINE
  8
_0-0_
  6
CONTINUOUS
 62
    7
 10
165.80248788148197
 20
602.46188836683871
 11
159.70248788148251
 21
598.94005172478148
  0
LINE
  8
_0-0_
  6
CONTINUOUS
 62
    7
 10
159.45248788148251
 20
598.50703902288944
 11
159.45248788148251
 21
591.46336573877591
  0
LINE
  8
_0-0_
  6
CONTINUOUS
 62
    7
 10
159.70248788148251
 20
591.03035303688387
 11
165.80248788148197
 21
587.50851639482801
  0
LINE
  8
_0-0_
  6
CONTINUOUS
 62
    7
 10
166.03293525978165
 20
565.0085163948271
 11
172.13293525978202
 21
568.53035303688387
  0
LINE
  8
_0-0_
  6
CONTINUOUS
 62
    7
 10
172.38293525978202
 20
568.96336573877591
 11
172.38293525978202
 21
576.00703902288944
  0
LINE
  8
_0-0_
  6
CONTINUOUS
 62
    7
 10
172.13293525978202
 20
576.44005172478148
 11
166.03293525978165
 21
579.96188836683825
  0
LINE
  8
_0-0_
  6
CONTINUOUS
 62
    7
 10
165.53293525978165
 20
579.96188836683825
 11
159.4329352597822
 21
576.44005172478148
  0
LINE
  8
_0-0_
  6
CONTINUOUS
 62
    7
 10
159.1829352597822
 20
576.00703902288944
 11
159.1829352597822
 21
568.96336573877591
  0
LINE
  8
_0-0_
  6
CONTINUOUS
 62
    7
 10
159.4329352597822
 20
568.53035303688387
 11
165.53293525978165
 21
565.0085163948271
  0
LINE
  8
_0-0_
  6
CONTINUOUS
 62
    7
 10
158.13293525978202
 20
562.44005172478239
 11
152.03293525978165
 21
565.96188836683825
  0
LINE
  8
_0-0_
  6
CONTINUOUS
 62
    7
 10
151.53293525978256
 20
565.96188836683825
 11
145.4329352597822
 21
562.44005172478239
  0
LINE
  8
_0-0_
  6
CONTINUOUS
 62
    7
 10
145.1829352597822
 20
562.00703902288944
 11
145.1829352597822
 21
554.96336573877591
  0
LINE
  8
_0-0_
  6
CONTINUOUS
 62
    7
 10
145.4329352597822
 20
554.53035303688387
 11
151.53293525978256
 21
551.0085163948271
  0
LINE
  8
_0-0_
  6
CONTINUOUS
 62
    7
 10
152.03293525978165
 20
551.0085163948271
 11
158.13293525978202
 21
554.53035303688387
  0
LINE
  8
_0-0_
  6
CONTINUOUS
 62
    7
 10
158.38293525978202
 20
554.96336573877591
 11
158.38293525978202
 21
562.00703902288944
  0
LINE
  8
_0-0_
  6
CONTINUOUS
 62
    7
 10
122.6829352597822
 20
561.73748640118913
 11
122.6829352597822
 21
554.69381311707559
  0
LINE
  8
_0-0_
  6
CONTINUOUS
 62
    7
 10
122.9329352597822
 20
554.26080041518264
 11
129.03293525978256
 21
550.73896377312678
  0
LINE
  8
_0-0_
  6
CONTINUOUS
 62
    7
 10
129.53293525978165
 20
550.73896377312678
 11
135.63293525978202
 21
554.26080041518264
  0
LINE
  8
_0-0_
  6
CONTINUOUS
 62
    7
 10
135.88293525978202
 20
554.69381311707559
 11
135.88293525978202
 21
561.73748640118913
  0
LINE
  8
_0-0_
  6
CONTINUOUS
 62
    7
 10
135.63293525978202
 20
562.17049910308117
 11
129.53293525978165
 21
565.69233574513794
  0
LINE
  8
_0-0_
  6
CONTINUOUS
 62
    7
 10
129.03293525978256
 20
565.69233574513794
 11
122.9329352597822
 21
562.17049910308117
  0
LINE
  8
_0-0_
  6
CONTINUOUS
 62
    7
 10
113.38293525978202
 20
562.00703902288944
 11
113.38293525978202
 21
554.96336573877591
  0
LINE
  8
_0-0_
  6
CONTINUOUS
 62
    7
 10
113.13293525978202
 20
554.53035303688387
 11
107.03293525978165
 21
551.0085163948271
  0
LINE
  8
_0-0_
  6
CONTINUOUS
 62
    7
 10
106.53293525978256
 20
551.0085163948271
 11
100.4329352597822
 21
554.53035303688387
  0
LINE
  8
_0-0_
  6
CONTINUOUS
 62
    7
 10
100.1829352597822
 20
554.96336573877591
 11
100.1829352597822
 21
562.00703902288944
  0
LINE
  8
_0-0_
  6
CONTINUOUS
 62
    7
 10
100.4329352597822
 20
562.44005172478239
 11
106.53293525978256
 21
565.96188836683825
  0
LINE
  8
_0-0_
  6
CONTINUOUS
 62
    7
 10
107.03293525978165
 20
565.96188836683825
 11
113.13293525978202
 21
562.44005172478239
  0
LINE
  8
_0-0_
  6
CONTINUOUS
 62
    7
 10
99.132935259782016
 20
568.53035303688387
 11
93.032935259782562
 21
565.0085163948271
  0
LINE
  8
_0-0_
  6
CONTINUOUS
 62
    7
 10
92.532935259781652
 20
565.0085163948271
 11
86.432935259782198
 21
568.53035303688387
  0
LINE
  8
_0-0_
  6
CONTINUOUS
 62
    7
 10
86.182935259782198
 20
568.96336573877591
 11
86.182935259782198
 21
576.00703902288944
  0
LINE
  8
_0-0_
  6
CONTINUOUS
 62
    7
 10
86.432935259782198
 20
576.44005172478148
 11
92.532935259781652
 21
579.96188836683825
  0
LINE
  8
_0-0_
  6
CONTINUOUS
 62
    7
 10
93.032935259782562
 20
579.96188836683825
 11
99.132935259782016
 21
576.44005172478148
  0
LINE
  8
_0-0_
  6
CONTINUOUS
 62
    7
 10
99.382935259782016
 20
576.00703902288944
 11
99.382935259782016
 21
568.96336573877591
  0
LINE
  8
_0-0_
  6
CONTINUOUS
 62
    7
 10
92.263382638082248
 20
602.46188836683871
 11
86.163382638081885
 21
598.94005172478148
  0
LINE
  8
_0-0_
  6
CONTINUOUS
 62
    7
 10
85.913382638080975
 20
598.50703902288944
 11
85.913382638080975
 21
591.46336573877591
  0
LINE
  8
_0-0_
  6
CONTINUOUS
 62
    7
 10
86.163382638081885
 20
591.03035303688387
 11
92.263382638082248
 21
587.50851639482801
  0
LINE
  8
_0-0_
  6
CONTINUOUS
 62
    7
 10
92.763382638081339
 20
587.5085163948271
 11
98.863382638081703
 21
591.03035303688387
  0
LINE
  8
_0-0_
  6
CONTINUOUS
 62
    7
 10
99.113382638081703
 20
591.46336573877591
 11
99.113382638081703
 21
598.50703902288944
  0
LINE
  8
_0-0_
  6
CONTINUOUS
 62
    7
 10
98.863382638081703
 20
598.94005172478148
 11
92.763382638081339
 21
602.46188836683871
  0
LINE
  8
_0-0_
  6
CONTINUOUS
 62
    7
 10
100.1829352597822
 20
627.96336573877591
 11
100.1829352597822
 21
635.00703902288944
  0
LINE
  8
_0-0_
  6
CONTINUOUS
 62
    7
 10
100.4329352597822
 20
635.44005172478194
 11
106.53293525978256
 21
638.96188836683916
  0
LINE
  8
_0-0_
  6
CONTINUOUS
 62
    7
 10
107.03293525978165
 20
638.96188836683916
 11
113.13293525978202
 21
635.44005172478194
  0
LINE
  8
_0-0_
  6
CONTINUOUS
 62
    7
 10
113.38293525978202
 20
635.00703902288944
 11
113.38293525978202
 21
627.96336573877591
  0
LINE
  8
_0-0_
  6
CONTINUOUS
 62
    7
 10
113.13293525978202
 20
627.53035303688387
 11
107.03293525978165
 21
624.0085163948271
  0
LINE
  8
_0-0_
  6
CONTINUOUS
 62
    7
 10
106.53293525978256
 20
624.0085163948271
 11
100.4329352597822
 21
627.53035303688387
  0
LINE
  8
_0-0_
  6
CONTINUOUS
 62
    7
 10
135.88293525978202
 20
635.27659164458976
 11
135.88293525978202
 21
628.23291836047622
  0
LINE
  8
_0-0_
  6
CONTINUOUS
 62
    7
 10
135.63293525978202
 20
627.79990565858418
 11
129.53293525978165
 21
624.27806901652741
  0
LINE
  8
_0-0_
  6
CONTINUOUS
 62
    7
 10
129.03293525978256
 20
624.27806901652741
 11
122.9329352597822
 21
627.79990565858418
  0
LINE
  8
_0-0_
  6
CONTINUOUS
 62
    7
 10
122.6829352597822
 20
628.23291836047622
 11
122.6829352597822
 21
635.27659164458976
  0
LINE
  8
_0-0_
  6
CONTINUOUS
 62
    7
 10
122.9329352597822
 20
635.70960434648271
 11
129.03293525978256
 21
639.23144098853948
  0
LINE
  8
_0-0_
  6
CONTINUOUS
 62
    7
 10
129.53293525978165
 20
639.23144098853948
 11
135.63293525978202
 21
635.70960434648271
  0
LINE
  8
_0-0_
  6
CONTINUOUS
 62
    7
 10
145.4329352597822
 20
635.44005172478194
 11
151.53293525978256
 21
638.96188836683916
  0
LINE
  8
_0-0_
  6
CONTINUOUS
 62
    7
 10
152.03293525978165
 20
638.96188836683916
 11
158.13293525978202
 21
635.44005172478194
  0
LINE
  8
_0-0_
  6
CONTINUOUS
 62
    7
 10
158.38293525978202
 20
635.00703902288944
 11
158.38293525978202
 21
627.96336573877591
  0
LINE
  8
_0-0_
  6
CONTINUOUS
 62
    7
 10
158.13293525978202
 20
627.53035303688387
 11
152.03293525978165
 21
624.0085163948271
  0
LINE
  8
_0-0_
  6
CONTINUOUS
 62
    7
 10
151.53293525978256
 20
624.0085163948271
 11
145.4329352597822
 21
627.53035303688387
  0
LINE
  8
_0-0_
  6
CONTINUOUS
 62
    7
 10
145.1829352597822
 20
627.96336573877591
 11
145.1829352597822
 21
635.00703902288944
  0
LINE
  8
_0-0_
  6
CONTINUOUS
 62
    7
 10
160.04029457266256
 20
545.98520238083358
 11
44.282935259782562
 21
545.98520238083358
  0
LINE
  8
_0-0_
  6
CONTINUOUS
 62
    7
 10
41.282935259782562
 20
548.98520238083267
 11
41.282935259782562
 21
598.98520238083358
  0
LINE
  8
_0-0_
  6
CONTINUOUS
 62
    7
 10
41.282935259782562
 20
598.98520238083358
 11
13.562060600755785
 21
627.77271503667555
  0
LINE
  8
_0-0_
  6
CONTINUOUS
 62
    7
 10
175.28293525978165
 20
682.98520238083358
 11
41.282935259782562
 21
682.98520238083358
  0
LINE
  8
_0-0_
  6
CONTINUOUS
 62
    7
 10
178.28293525978165
 20
564.22784306795268
 11
178.28293525978165
 21
679.98520238083358
  0
LINE
  8
_0-0_
  6
CONTINUOUS
 62
    7
 10
177.40425560334165
 20
562.10652272439268
 11
161.28293525978256
 21
545.98520238083358
  0
CIRCLE
  8
_0-0_
  6
CONTINUOUS
 62
    7
 10
129.28293525978256
 20
594.98520238083358
 40
24.999999999999996
  0
CIRCLE
  8
_0-0_
  6
CONTINUOUS
 62
    7
 10
165.78293525978256
 20
617.48520238083358
 40
4.2500000000000009
  0
CIRCLE
  8
_0-0_
  6
CONTINUOUS
 62
    7
 10
151.78293525978256
 20
631.48520238083313
 40
4.2500000000000009
  0
CIRCLE
  8
_0-0_
  6
CONTINUOUS
 62
    7
 10
106.78293525978256
 20
631.48520238083313
 40
4.2500000000000009
  0
CIRCLE
  8
_0-0_
  6
CONTINUOUS
 62
    7
 10
92.782935259782562
 20
617.48520238083358
 40
4.2500000000000009
  0
CIRCLE
  8
_0-0_
  6
CONTINUOUS
 62
    7
 10
92.782935259782562
 20
572.48520238083358
 40
4.2500000000000009
  0
CIRCLE
  8
_0-0_
  6
CONTINUOUS
 62
    7
 10
106.78293525978256
 20
558.48520238083358
 40
4.2500000000000009
  0
CIRCLE
  8
_0-0_
  6
CONTINUOUS
 62
    7
 10
151.78293525978256
 20
558.48520238083358
 40
4.2500000000000009
  0
CIRCLE
  8
_0-0_
  6
CONTINUOUS
 62
    7
 10
165.78293525978256
 20
572.48520238083358
 40
4.2500000000000009
  0
CIRCLE
  8
_0-0_
  6
CONTINUOUS
 62
    7
 10
166.05248788148288
 20
594.98520238083358
 40
4.25
  0
CIRCLE
  8
_0-0_
  6
CONTINUOUS
 62
    7
 10
129.28293525978256
 20
631.7547550025339
 40
4.25
  0
CIRCLE
  8
_0-0_
  6
CONTINUOUS
 62
    7
 10
92.513382638081339
 20
594.98520238083358
 40
4.25
  0
CIRCLE
  8
_0-0_
  6
CONTINUOUS
 62
    7
 10
129.28293525978256
 20
558.21564975913236
 40
4.25
  0
ARC
  8
_0-0_
  6
CONTINUOUS
 62
    7
 10
100.6829352597822
 20
635.00703902288944
 40
0.5
 50
120.00000000000185
 51
180
  0
ARC
  8
_0-0_
  6
CONTINUOUS
 62
    7
 10
100.6829352597822
 20
627.96336573877591
 40
0.5
 50
180
 51
239.99999999999937
  0
ARC
  8
_0-0_
  6
CONTINUOUS
 62
    7
 10
106.78293525978256
 20
624.44152909671914
 40
0.5
 50
240
 51
299.99999999999892
  0
ARC
  8
_0-0_
  6
CONTINUOUS
 62
    7
 10
112.88293525978202
 20
627.96336573877591
 40
0.5
 50
299.99999999999886
 51
359.99999999999994
  0
ARC
  8
_0-0_
  6
CONTINUOUS
 62
    7
 10
112.88293525978202
 20
635.00703902288944
 40
0.5
 50
0
 51
59.999999999999829
  0
ARC
  8
_0-0_
  6
CONTINUOUS
 62
    7
 10
106.78293525978256
 20
638.52887566494621
 40
0.5
 50
60.000000000000441
 51
120.00000000000129
  0
ARC
  8
_0-0_
  6
CONTINUOUS
 62
    7
 10
92.782935259782562
 20
624.52887566494621
 40
0.5
 50
59.999999999999829
 51
120.00000000000188
  0
ARC
  8
_0-0_
  6
CONTINUOUS
 62
    7
 10
86.682935259782198
 20
621.00703902288944
 40
0.5
 50
120.0000000000022
 51
180
  0
ARC
  8
_0-0_
  6
CONTINUOUS
 62
    7
 10
86.682935259782198
 20
613.96336573877591
 40
0.5
 50
180
 51
239.99999999999937
  0
ARC
  8
_0-0_
  6
CONTINUOUS
 62
    7
 10
92.782935259782562
 20
610.44152909671914
 40
0.5
 50
240
 51
299.99999999999892
  0
ARC
  8
_0-0_
  6
CONTINUOUS
 62
    7
 10
98.882935259782016
 20
613.96336573877591
 40
0.5
 50
299.99999999999886
 51
359.99999999999994
  0
ARC
  8
_0-0_
  6
CONTINUOUS
 62
    7
 10
98.882935259782016
 20
621.00703902288944
 40
0.5
 50
0
 51
59.999999999999574
  0
ARC
  8
_0-0_
  6
CONTINUOUS
 62
    7
 10
123.1829352597822
 20
628.23291836047622
 40
0.5
 50
180
 51
239.99999999999937
  0
ARC
  8
_0-0_
  6
CONTINUOUS
 62
    7
 10
129.28293525978256
 20
624.71108171841945
 40
0.5
 50
240
 51
299.99999999999892
  0
ARC
  8
_0-0_
  6
CONTINUOUS
 62
    7
 10
135.38293525978202
 20
628.23291836047622
 40
0.5
 50
299.99999999999886
 51
359.99999999999994
  0
ARC
  8
_0-0_
  6
CONTINUOUS
 62
    7
 10
135.38293525978202
 20
635.27659164458976
 40
0.5
 50
0
 51
59.999999999999829
  0
ARC
  8
_0-0_
  6
CONTINUOUS
 62
    7
 10
129.28293525978256
 20
638.79842828664653
 40
0.5
 50
60.000000000000441
 51
120.00000000000188
  0
ARC
  8
_0-0_
  6
CONTINUOUS
 62
    7
 10
123.1829352597822
 20
635.27659164458976
 40
0.5
 50
120.0000000000022
 51
180
  0
ARC
  8
_0-0_
  6
CONTINUOUS
 62
    7
 10
92.513382638081339
 20
602.02887566494712
 40
0.5
 50
59.999999999999829
 51
120.00000000000188
  0
ARC
  8
_0-0_
  6
CONTINUOUS
 62
    7
 10
98.613382638081703
 20
598.50703902288944
 40
0.5
 50
0
 51
60.000000000000469
  0
ARC
  8
_0-0_
  6
CONTINUOUS
 62
    7
 10
98.613382638081703
 20
591.46336573877591
 40
0.5
 50
299.99999999999721
 51
0
  0
ARC
  8
_0-0_
  6
CONTINUOUS
 62
    7
 10
92.513382638081339
 20
587.94152909672005
 40
0.5
 50
240.00000000000111
 51
299.99999999999648
  0
ARC
  8
_0-0_
  6
CONTINUOUS
 62
    7
 10
86.413382638081885
 20
591.46336573877591
 40
0.5
 50
180
 51
240.00000000000176
  0
ARC
  8
_0-0_
  6
CONTINUOUS
 62
    7
 10
86.413382638081885
 20
598.50703902288944
 40
0.5
 50
120.00000000000134
 51
180
  0
ARC
  8
_0-0_
  6
CONTINUOUS
 62
    7
 10
92.782935259782562
 20
579.52887566494621
 40
0.5
 50
59.999999999999829
 51
120.00000000000188
  0
ARC
  8
_0-0_
  6
CONTINUOUS
 62
    7
 10
98.882935259782016
 20
576.00703902288944
 40
0.5
 50
0
 51
59.999999999999574
  0
ARC
  8
_0-0_
  6
CONTINUOUS
 62
    7
 10
98.882935259782016
 20
568.96336573877591
 40
0.5
 50
299.99999999999886
 51
359.99999999999994
  0
ARC
  8
_0-0_
  6
CONTINUOUS
 62
    7
 10
92.782935259782562
 20
565.44152909671914
 40
0.5
 50
239.99999999999943
 51
299.99999999999829
  0
ARC
  8
_0-0_
  6
CONTINUOUS
 62
    7
 10
86.682935259782198
 20
568.96336573877591
 40
0.5
 50
180
 51
239.99999999999932
  0
ARC
  8
_0-0_
  6
CONTINUOUS
 62
    7
 10
86.682935259782198
 20
576.00703902288944
 40
0.5
 50
120.0000000000022
 51
180
  0
ARC
  8
_0-0_
  6
CONTINUOUS
 62
    7
 10
106.78293525978256
 20
565.52887566494621
 40
0.5
 50
59.999999999999829
 51
120.00000000000188
  0
ARC
  8
_0-0_
  6
CONTINUOUS
 62
    7
 10
112.88293525978202
 20
562.00703902288944
 40
0.5
 50
0
 51
59.999999999999574
  0
ARC
  8
_0-0_
  6
CONTINUOUS
 62
    7
 10
112.88293525978202
 20
554.96336573877591
 40
0.5
 50
299.99999999999886
 51
359.99999999999994
  0
ARC
  8
_0-0_
  6
CONTINUOUS
 62
    7
 10
106.78293525978256
 20
551.44152909671914
 40
0.5
 50
239.99999999999943
 51
299.99999999999829
  0
ARC
  8
_0-0_
  6
CONTINUOUS
 62
    7
 10
100.6829352597822
 20
554.96336573877591
 40
0.5
 50
180
 51
239.99999999999932
  0
ARC
  8
_0-0_
  6
CONTINUOUS
 62
    7
 10
100.6829352597822
 20
562.00703902288944
 40
0.5
 50
120.0000000000022
 51
180
  0
ARC
  8
_0-0_
  6
CONTINUOUS
 62
    7
 10
129.28293525978256
 20
565.2593230432459
 40
0.5
 50
59.999999999998153
 51
120.00000000000188
  0
ARC
  8
_0-0_
  6
CONTINUOUS
 62
    7
 10
135.38293525978202
 20
561.73748640118913
 40
0.5
 50
0
 51
59.999999999998685
  0
ARC
  8
_0-0_
  6
CONTINUOUS
 62
    7
 10
135.38293525978202
 20
554.69381311707559
 40
0.5
 50
299.99999999999886
 51
359.99999999999994
  0
ARC
  8
_0-0_
  6
CONTINUOUS
 62
    7
 10
129.28293525978256
 20
551.17197647501882
 40
0.5
 50
240.00000000000111
 51
299.99999999999824
  0
ARC
  8
_0-0_
  6
CONTINUOUS
 62
    7
 10
123.1829352597822
 20
554.69381311707559
 40
0.5
 50
180
 51
240.00000000000176
  0
ARC
  8
_0-0_
  6
CONTINUOUS
 62
    7
 10
123.1829352597822
 20
561.73748640118913
 40
0.5
 50
120.00000000000134
 51
180
  0
ARC
  8
_0-0_
  6
CONTINUOUS
 62
    7
 10
145.6829352597822
 20
562.00703902288944
 40
0.5
 50
120.00000000000185
 51
180
  0
ARC
  8
_0-0_
  6
CONTINUOUS
 62
    7
 10
151.78293525978256
 20
565.52887566494621
 40
0.5
 50
59.999999999999829
 51
120.00000000000129
  0
ARC
  8
_0-0_
  6
CONTINUOUS
 62
    7
 10
157.88293525978202
 20
562.00703902288944
 40
0.5
 50
0
 51
59.999999999999574
  0
ARC
  8
_0-0_
  6
CONTINUOUS
 62
    7
 10
157.88293525978202
 20
554.96336573877591
 40
0.5
 50
299.99999999999886
 51
359.99999999999994
  0
ARC
  8
_0-0_
  6
CONTINUOUS
 62
    7
 10
151.78293525978256
 20
551.44152909671914
 40
0.5
 50
239.99999999999943
 51
299.99999999999829
  0
ARC
  8
_0-0_
  6
CONTINUOUS
 62
    7
 10
145.6829352597822
 20
554.96336573877591
 40
0.5
 50
180
 51
239.99999999999932
  0
ARC
  8
_0-0_
  6
CONTINUOUS
 62
    7
 10
165.78293525978256
 20
565.44152909671914
 40
0.5
 50
239.99999999999937
 51
299.99999999999892
  0
ARC
  8
_0-0_
  6
CONTINUOUS
 62
    7
 10
171.88293525978202
 20
568.96336573877591
 40
0.5
 50
299.99999999999886
 51
359.99999999999994
  0
ARC
  8
_0-0_
  6
CONTINUOUS
 62
    7
 10
171.88293525978202
 20
576.00703902288944
 40
0.5
 50
0
 51
59.999999999999829
  0
ARC
  8
_0-0_
  6
CONTINUOUS
 62
    7
 10
165.78293525978256
 20
579.52887566494621
 40
0.5
 50
60.000000000000441
 51
120.00000000000188
  0
ARC
  8
_0-0_
  6
CONTINUOUS
 62
    7
 10
159.6829352597822
 20
576.00703902288944
 40
0.5
 50
120.0000000000022
 51
180
  0
ARC
  8
_0-0_
  6
CONTINUOUS
 62
    7
 10
159.6829352597822
 20
568.96336573877591
 40
0.5
 50
180
 51
239.99999999999932
  0
ARC
  8
_0-0_
  6
CONTINUOUS
 62
    7
 10
166.05248788148288
 20
602.02887566494712
 40
0.5
 50
59.999999999998153
 51
120.00000000000188
  0
ARC
  8
_0-0_
  6
CONTINUOUS
 62
    7
 10
172.15248788148233
 20
598.50703902288944
 40
0.5
 50
0
 51
59.999999999998685
  0
ARC
  8
_0-0_
  6
CONTINUOUS
 62
    7
 10
172.15248788148233
 20
591.46336573877591
 40
0.5
 50
299.99999999999886
 51
359.99999999999994
  0
ARC
  8
_0-0_
  6
CONTINUOUS
 62
    7
 10
166.05248788148288
 20
587.94152909672005
 40
0.5
 50
240.00000000000111
 51
299.99999999999824
  0
ARC
  8
_0-0_
  6
CONTINUOUS
 62
    7
 10
159.95248788148251
 20
591.46336573877591
 40
0.5
 50
180
 51
240.00000000000176
  0
ARC
  8
_0-0_
  6
CONTINUOUS
 62
    7
 10
159.95248788148251
 20
598.50703902288944
 40
0.5
 50
120.00000000000134
 51
180
  0
ARC
  8
_0-0_
  6
CONTINUOUS
 62
    7
 10
165.78293525978256
 20
624.52887566494621
 40
0.5
 50
59.999999999999829
 51
120.00000000000188
  0
ARC
  8
_0-0_
  6
CONTINUOUS
 62
    7
 10
171.88293525978202
 20
621.00703902288944
 40
0.5
 50
0
 51
59.999999999999574
  0
ARC
  8
_0-0_
  6
CONTINUOUS
 62
    7
 10
171.88293525978202
 20
613.96336573877591
 40
0.5
 50
299.99999999999886
 51
359.99999999999994
  0
ARC
  8
_0-0_
  6
CONTINUOUS
 62
    7
 10
165.78293525978256
 20
610.44152909671914
 40
0.5
 50
239.99999999999943
 51
299.99999999999829
  0
ARC
  8
_0-0_
  6
CONTINUOUS
 62
    7
 10
159.6829352597822
 20
613.96336573877591
 40
0.5
 50
180
 51
239.99999999999932
  0
ARC
  8
_0-0_
  6
CONTINUOUS
 62
    7
 10
159.6829352597822
 20
621.00703902288944
 40
0.5
 50
120.0000000000022
 51
180
  0
ARC
  8
_0-0_
  6
CONTINUOUS
 62
    7
 10
151.78293525978256
 20
638.52887566494621
 40
0.5
 50
59.999999999999829
 51
120.00000000000188
  0
ARC
  8
_0-0_
  6
CONTINUOUS
 62
    7
 10
157.88293525978202
 20
635.00703902288944
 40
0.5
 50
0
 51
59.999999999999574
  0
ARC
  8
_0-0_
  6
CONTINUOUS
 62
    7
 10
157.88293525978202
 20
627.96336573877591
 40
0.5
 50
299.99999999999886
 51
359.99999999999994
  0
ARC
  8
_0-0_
  6
CONTINUOUS
 62
    7
 10
151.78293525978256
 20
624.44152909671914
 40
0.5
 50
239.99999999999943
 51
299.99999999999829
  0
ARC
  8
_0-0_
  6
CONTINUOUS
 62
    7
 10
145.6829352597822
 20
627.96336573877591
 40
0.5
 50
180
 51
239.99999999999932
  0
ARC
  8
_0-0_
  6
CONTINUOUS
 62
    7
 10
145.6829352597822
 20
635.00703902288944
 40
0.5
 50
120.0000000000022
 51
180
  0
ARC
  8
_0-0_
  6
CONTINUOUS
 62
    7
 10
178.28293525978165
 20
663.16255582548649
 40
3.0000000000000009
 50
353.2334729076797
 51
0
  0
ARC
  8
_0-0_
  6
CONTINUOUS
 62
    7
 10
44.282935259782562
 20
548.98520238083267
 40
3.0000000000000009
 50
179.99999999999997
 51
270
  0
ARC
  8
_0-0_
  6
CONTINUOUS
 62
    7
 10
175.28293525978165
 20
679.98520238083358
 40
3.0000000000000009
 50
0
 51
89.999999999999972
  0
ARC
  8
_0-0_
  6
CONTINUOUS
 62
    7
 10
175.28293525978165
 20
564.22784306795268
 40
3.0000000000000009
 50
315
 51
0
  0
ARC
  8
_0-0_
  6
CONTINUOUS
 62
    7
 10
160.04029457266256
 20
548.98520238083267
 40
3.0000000000000009
 50
269.99999999999994
 51
314.99999999999972
  0
CIRCLE
  8
_0-0_
  6
CONTINUOUS
 62
    7
 10
110.28293525978256
 20
662.98520238083313
 40
3.2500000000000004
  0
CIRCLE
  8
_0-0_
  6
CONTINUOUS
 62
    7
 10
130.28293525978165
 20
662.98520238083313
 40
3.2500000000000004
  0
CIRCLE
  8
_0-0_
  6
CONTINUOUS
 62
    7
 10
170.28293525978256
 20
662.98520238083313
 40
3.2500000000000004
  0
CIRCLE
  8
_0-0_
  6
CONTINUOUS
 62
    7
 10
61.282935259782562
 20
613.98520238083358
 40
3.2500000000000009
  0
CIRCLE
  8
_0-0_
  6
CONTINUOUS
 62
    7
 10
61.282935259782562
 20
593.98520238083267
 40
3.2500000000000009
  0
CIRCLE
  8
_0-0_
  6
CONTINUOUS
 62
    7
 10
61.282935259782562
 20
553.98520238083358
 40
3.2500000000000009
  0
ARC
  8
_0-0_
  6
CONTINUOUS
 62
    7
 10
27.282935259782562
 20
640.98520238083358
 40
19.048155375999997
 50
136.08137219584464
 51
223.91862780415536
  0
LINE
  8
_0-0_
  6
CONTINUOUS
 62
    7
 10
284.58375385978241
 20
679.98520238083358
 11
284.58375385978235
 21
564.22784306795268
  0
LINE
  8
_0-0_
  6
CONTINUOUS
 62
    7
 10
285.46243351622235
 20
562.10652272439268
 11
301.58375385978235
 21
545.98520238083358
  0
LINE
  8
_0-0_
  6
CONTINUOUS
 62
    7
 10
302.82639454690144
 20
545.98520238083358
 11
418.58375385978235
 21
545.98520238083358
  0
LINE
  8
_0-0_
  6
CONTINUOUS
 62
    7
 10
421.58375385978235
 20
548.98520238083267
 11
421.58375385978235
 21
598.98520238083358
  0
LINE
  8
_0-0_
  6
CONTINUOUS
 62
    7
 10
421.58375385978235
 20
598.98520238083358
 11
449.30462851880912
 21
627.77271503667555
  0
LINE
  8
_0-0_
  6
CONTINUOUS
 62
    7
 10
376.6837538597818
 20
613.96336573877591
 11
376.6837538597818
 21
621.00703902288944
  0
LINE
  8
_0-0_
  6
CONTINUOUS
 62
    7
 10
376.43375385978271
 20
621.44005172478148
 11
370.33375385978326
 21
624.96188836683871
  0
LINE
  8
_0-0_
  6
CONTINUOUS
 62
    7
 10
369.83375385978235
 20
624.96188836683871
 11
363.73375385978289
 21
621.44005172478148
  0
LINE
  8
_0-0_
  6
CONTINUOUS
 62
    7
 10
363.48375385978289
 20
621.00703902288944
 11
363.48375385978289
 21
613.96336573877591
  0
LINE
  8
_0-0_
  6
CONTINUOUS
 62
    7
 10
363.73375385978289
 20
613.53035303688387
 11
369.83375385978235
 21
610.0085163948271
  0
LINE
  8
_0-0_
  6
CONTINUOUS
 62
    7
 10
370.33375385978326
 20
610.0085163948271
 11
376.43375385978271
 21
613.53035303688387
  0
LINE
  8
_0-0_
  6
CONTINUOUS
 62
    7
 10
290.48375385978289
 20
621.00703902288944
 11
290.48375385978289
 21
613.96336573877591
  0
LINE
  8
_0-0_
  6
CONTINUOUS
 62
    7
 10
290.73375385978198
 20
613.53035303688387
 11
296.83375385978326
 21
610.0085163948271
  0
LINE
  8
_0-0_
  6
CONTINUOUS
 62
    7
 10
297.33375385978326
 20
610.0085163948271
 11
303.43375385978271
 21
613.53035303688387
  0
LINE
  8
_0-0_
  6
CONTINUOUS
 62
    7
 10
303.6837538597818
 20
613.96336573877591
 11
303.6837538597818
 21
621.00703902288944
  0
LINE
  8
_0-0_
  6
CONTINUOUS
 62
    7
 10
303.43375385978271
 20
621.44005172478148
 11
297.33375385978326
 21
624.96188836683871
  0
LINE
  8
_0-0_
  6
CONTINUOUS
 62
    7
 10
296.83375385978326
 20
624.96188836683871
 11
290.73375385978198
 21
621.44005172478148
  0
LINE
  8
_0-0_
  6
CONTINUOUS
 62
    7
 10
296.56420123808203
 20
587.50851639482801
 11
290.46420123808258
 21
591.03035303688387
  0
LINE
  8
_0-0_
  6
CONTINUOUS
 62
    7
 10
290.21420123808258
 20
591.46336573877591
 11
290.21420123808258
 21
598.50703902288944
  0
LINE
  8
_0-0_
  6
CONTINUOUS
 62
    7
 10
290.46420123808258
 20
598.94005172478148
 11
296.56420123808203
 21
602.46188836683871
  0
LINE
  8
_0-0_
  6
CONTINUOUS
 62
    7
 10
297.06420123808203
 20
602.46188836683871
 11
303.1642012380824
 21
598.94005172478148
  0
LINE
  8
_0-0_
  6
CONTINUOUS
 62
    7
 10
303.4142012380824
 20
598.50703902288944
 11
303.4142012380824
 21
591.46336573877591
  0
LINE
  8
_0-0_
  6
CONTINUOUS
 62
    7
 10
303.1642012380824
 20
591.03035303688387
 11
297.06420123808203
 21
587.50851639482801
  0
LINE
  8
_0-0_
  6
CONTINUOUS
 62
    7
 10
296.83375385978326
 20
565.0085163948271
 11
290.73375385978198
 21
568.53035303688387
  0
LINE
  8
_0-0_
  6
CONTINUOUS
 62
    7
 10
290.48375385978289
 20
568.96336573877591
 11
290.48375385978289
 21
576.00703902288944
  0
LINE
  8
_0-0_
  6
CONTINUOUS
 62
    7
 10
290.73375385978198
 20
576.44005172478148
 11
296.83375385978326
 21
579.96188836683825
  0
LINE
  8
_0-0_
  6
CONTINUOUS
 62
    7
 10
297.33375385978326
 20
579.96188836683825
 11
303.43375385978271
 21
576.44005172478148
  0
LINE
  8
_0-0_
  6
CONTINUOUS
 62
    7
 10
303.6837538597818
 20
576.00703902288944
 11
303.6837538597818
 21
568.96336573877591
  0
LINE
  8
_0-0_
  6
CONTINUOUS
 62
    7
 10
303.43375385978271
 20
568.53035303688387
 11
297.33375385978326
 21
565.0085163948271
  0
LINE
  8
_0-0_
  6
CONTINUOUS
 62
    7
 10
304.73375385978289
 20
562.44005172478239
 11
310.83375385978326
 21
565.96188836683825
  0
LINE
  8
_0-0_
  6
CONTINUOUS
 62
    7
 10
311.33375385978235
 20
565.96188836683825
 11
317.4337538597818
 21
562.44005172478239
  0
LINE
  8
_0-0_
  6
CONTINUOUS
 62
    7
 10
317.68375385978271
 20
562.00703902288944
 11
317.68375385978271
 21
554.96336573877591
  0
LINE
  8
_0-0_
  6
CONTINUOUS
 62
    7
 10
317.4337538597818
 20
554.53035303688387
 11
311.33375385978235
 21
551.0085163948271
  0
LINE
  8
_0-0_
  6
CONTINUOUS
 62
    7
 10
310.83375385978326
 20
551.0085163948271
 11
304.73375385978289
 21
554.53035303688387
  0
LINE
  8
_0-0_
  6
CONTINUOUS
 62
    7
 10
304.48375385978289
 20
554.96336573877591
 11
304.48375385978289
 21
562.00703902288944
  0
LINE
  8
_0-0_
  6
CONTINUOUS
 62
    7
 10
340.18375385978271
 20
561.73748640118913
 11
340.18375385978271
 21
554.69381311707559
  0
LINE
  8
_0-0_
  6
CONTINUOUS
 62
    7
 10
339.9337538597818
 20
554.26080041518264
 11
333.83375385978235
 21
550.73896377312678
  0
LINE
  8
_0-0_
  6
CONTINUOUS
 62
    7
 10
333.33375385978326
 20
550.73896377312678
 11
327.23375385978289
 21
554.26080041518264
  0
LINE
  8
_0-0_
  6
CONTINUOUS
 62
    7
 10
326.98375385978289
 20
554.69381311707559
 11
326.98375385978289
 21
561.73748640118913
  0
LINE
  8
_0-0_
  6
CONTINUOUS
 62
    7
 10
327.23375385978289
 20
562.17049910308117
 11
333.33375385978326
 21
565.69233574513794
  0
LINE
  8
_0-0_
  6
CONTINUOUS
 62
    7
 10
333.83375385978235
 20
565.69233574513794
 11
339.9337538597818
 21
562.17049910308117
  0
LINE
  8
_0-0_
  6
CONTINUOUS
 62
    7
 10
349.48375385978289
 20
562.00703902288944
 11
349.48375385978289
 21
554.96336573877591
  0
LINE
  8
_0-0_
  6
CONTINUOUS
 62
    7
 10
349.73375385978289
 20
554.53035303688387
 11
355.83375385978326
 21
551.0085163948271
  0
LINE
  8
_0-0_
  6
CONTINUOUS
 62
    7
 10
356.33375385978235
 20
551.0085163948271
 11
362.4337538597818
 21
554.53035303688387
  0
LINE
  8
_0-0_
  6
CONTINUOUS
 62
    7
 10
362.68375385978271
 20
554.96336573877591
 11
362.68375385978271
 21
562.00703902288944
  0
LINE
  8
_0-0_
  6
CONTINUOUS
 62
    7
 10
362.4337538597818
 20
562.44005172478239
 11
356.33375385978235
 21
565.96188836683825
  0
LINE
  8
_0-0_
  6
CONTINUOUS
 62
    7
 10
355.83375385978326
 20
565.96188836683825
 11
349.73375385978289
 21
562.44005172478239
  0
LINE
  8
_0-0_
  6
CONTINUOUS
 62
    7
 10
363.73375385978289
 20
568.53035303688387
 11
369.83375385978235
 21
565.0085163948271
  0
LINE
  8
_0-0_
  6
CONTINUOUS
 62
    7
 10
370.33375385978326
 20
565.0085163948271
 11
376.43375385978271
 21
568.53035303688387
  0
LINE
  8
_0-0_
  6
CONTINUOUS
 62
    7
 10
376.6837538597818
 20
568.96336573877591
 11
376.6837538597818
 21
576.00703902288944
  0
LINE
  8
_0-0_
  6
CONTINUOUS
 62
    7
 10
376.43375385978271
 20
576.44005172478148
 11
370.33375385978326
 21
579.96188836683825
  0
LINE
  8
_0-0_
  6
CONTINUOUS
 62
    7
 10
369.83375385978235
 20
579.96188836683825
 11
363.73375385978289
 21
576.44005172478148
  0
LINE
  8
_0-0_
  6
CONTINUOUS
 62
    7
 10
363.48375385978289
 20
576.00703902288944
 11
363.48375385978289
 21
568.96336573877591
  0
LINE
  8
_0-0_
  6
CONTINUOUS
 62
    7
 10
370.60330648148266
 20
602.46188836683871
 11
376.70330648148303
 21
598.94005172478148
  0
LINE
  8
_0-0_
  6
CONTINUOUS
 62
    7
 10
376.95330648148303
 20
598.50703902288944
 11
376.95330648148303
 21
591.46336573877591
  0
LINE
  8
_0-0_
  6
CONTINUOUS
 62
    7
 10
376.70330648148303
 20
591.03035303688387
 11
370.60330648148266
 21
587.50851639482801
  0
LINE
  8
_0-0_
  6
CONTINUOUS
 62
    7
 10
370.10330648148266
 20
587.5085163948271
 11
364.0033064814823
 21
591.03035303688387
  0
LINE
  8
_0-0_
  6
CONTINUOUS
 62
    7
 10
363.75330648148321
 20
591.46336573877591
 11
363.75330648148321
 21
598.50703902288944
  0
LINE
  8
_0-0_
  6
CONTINUOUS
 62
    7
 10
364.0033064814823
 20
598.94005172478148
 11
370.10330648148266
 21
602.46188836683871
  0
LINE
  8
_0-0_
  6
CONTINUOUS
 62
    7
 10
362.68375385978271
 20
627.96336573877591
 11
362.68375385978271
 21
635.00703902288944
  0
LINE
  8
_0-0_
  6
CONTINUOUS
 62
    7
 10
362.4337538597818
 20
635.44005172478194
 11
356.33375385978235
 21
638.96188836683916
  0
LINE
  8
_0-0_
  6
CONTINUOUS
 62
    7
 10
355.83375385978326
 20
638.96188836683916
 11
349.73375385978289
 21
635.44005172478194
  0
LINE
  8
_0-0_
  6
CONTINUOUS
 62
    7
 10
349.48375385978289
 20
635.00703902288944
 11
349.48375385978289
 21
627.96336573877591
  0
LINE
  8
_0-0_
  6
CONTINUOUS
 62
    7
 10
349.73375385978289
 20
627.53035303688387
 11
355.83375385978326
 21
624.0085163948271
  0
LINE
  8
_0-0_
  6
CONTINUOUS
 62
    7
 10
356.33375385978235
 20
624.0085163948271
 11
362.4337538597818
 21
627.53035303688387
  0
LINE
  8
_0-0_
  6
CONTINUOUS
 62
    7
 10
326.98375385978289
 20
635.27659164458976
 11
326.98375385978289
 21
628.23291836047622
  0
LINE
  8
_0-0_
  6
CONTINUOUS
 62
    7
 10
327.23375385978289
 20
627.79990565858418
 11
333.33375385978326
 21
624.27806901652741
  0
LINE
  8
_0-0_
  6
CONTINUOUS
 62
    7
 10
333.83375385978235
 20
624.27806901652741
 11
339.9337538597818
 21
627.79990565858418
  0
LINE
  8
_0-0_
  6
CONTINUOUS
 62
    7
 10
340.18375385978271
 20
628.23291836047622
 11
340.18375385978271
 21
635.27659164458976
  0
LINE
  8
_0-0_
  6
CONTINUOUS
 62
    7
 10
339.9337538597818
 20
635.70960434648271
 11
333.83375385978235
 21
639.23144098853948
  0
LINE
  8
_0-0_
  6
CONTINUOUS
 62
    7
 10
333.33375385978326
 20
639.23144098853948
 11
327.23375385978289
 21
635.70960434648271
  0
LINE
  8
_0-0_
  6
CONTINUOUS
 62
    7
 10
317.4337538597818
 20
635.44005172478194
 11
311.33375385978235
 21
638.96188836683916
  0
LINE
  8
_0-0_
  6
CONTINUOUS
 62
    7
 10
310.83375385978326
 20
638.96188836683916
 11
304.73375385978289
 21
635.44005172478194
  0
LINE
  8
_0-0_
  6
CONTINUOUS
 62
    7
 10
304.48375385978289
 20
635.00703902288944
 11
304.48375385978289
 21
627.96336573877591
  0
LINE
  8
_0-0_
  6
CONTINUOUS
 62
    7
 10
304.73375385978289
 20
627.53035303688387
 11
310.83375385978326
 21
624.0085163948271
  0
LINE
  8
_0-0_
  6
CONTINUOUS
 62
    7
 10
311.33375385978235
 20
624.0085163948271
 11
317.4337538597818
 21
627.53035303688387
  0
LINE
  8
_0-0_
  6
CONTINUOUS
 62
    7
 10
317.68375385978271
 20
627.96336573877591
 11
317.68375385978271
 21
635.00703902288944
  0
LINE
  8
_0-0_
  6
CONTINUOUS
 62
    7
 10
449.30462851880912
 20
654.19768972499071
 11
421.58375385978235
 21
682.98520238083358
  0
LINE
  8
_0-0_
  6
CONTINUOUS
 62
    7
 10
421.58375385978235
 20
682.98520238083358
 11
287.58375385978241
 21
682.98520238083358
  0
CIRCLE
  8
_0-0_
  6
CONTINUOUS
 62
    7
 10
333.58375385978235
 20
594.98520238083358
 40
24.999999999999996
  0
CIRCLE
  8
_0-0_
  6
CONTINUOUS
 62
    7
 10
297.08375385978235
 20
617.48520238083358
 40
4.2500000000000009
  0
CIRCLE
  8
_0-0_
  6
CONTINUOUS
 62
    7
 10
311.08375385978235
 20
631.48520238083313
 40
4.2500000000000009
  0
CIRCLE
  8
_0-0_
  6
CONTINUOUS
 62
    7
 10
356.08375385978235
 20
631.48520238083313
 40
4.2500000000000009
  0
CIRCLE
  8
_0-0_
  6
CONTINUOUS
 62
    7
 10
370.08375385978144
 20
617.48520238083358
 40
4.2500000000000009
  0
CIRCLE
  8
_0-0_
  6
CONTINUOUS
 62
    7
 10
370.08375385978144
 20
572.48520238083358
 40
4.2500000000000009
  0
CIRCLE
  8
_0-0_
  6
CONTINUOUS
 62
    7
 10
356.08375385978235
 20
558.48520238083358
 40
4.2500000000000009
  0
CIRCLE
  8
_0-0_
  6
CONTINUOUS
 62
    7
 10
311.08375385978235
 20
558.48520238083358
 40
4.2500000000000009
  0
CIRCLE
  8
_0-0_
  6
CONTINUOUS
 62
    7
 10
297.08375385978235
 20
572.48520238083358
 40
4.2500000000000009
  0
CIRCLE
  8
_0-0_
  6
CONTINUOUS
 62
    7
 10
296.81420123808203
 20
594.98520238083358
 40
4.25
  0
CIRCLE
  8
_0-0_
  6
CONTINUOUS
 62
    7
 10
333.58375385978235
 20
631.7547550025339
 40
4.25
  0
CIRCLE
  8
_0-0_
  6
CONTINUOUS
 62
    7
 10
370.35330648148266
 20
594.98520238083358
 40
4.25
  0
CIRCLE
  8
_0-0_
  6
CONTINUOUS
 62
    7
 10
333.58375385978235
 20
558.21564975913236
 40
4.25
  0
ARC
  8
_0-0_
  6
CONTINUOUS
 62
    7
 10
362.1837538597818
 20
635.00703902288944
 40
0.5
 50
0
 51
59.999999999998153
  0
ARC
  8
_0-0_
  6
CONTINUOUS
 62
    7
 10
362.1837538597818
 20
627.96336573877591
 40
0.5
 50
300.00000000000063
 51
0
  0
ARC
  8
_0-0_
  6
CONTINUOUS
 62
    7
 10
356.08375385978235
 20
624.44152909671914
 40
0.5
 50
240.00000000000105
 51
299.99999999999994
  0
ARC
  8
_0-0_
  6
CONTINUOUS
 62
    7
 10
349.98375385978289
 20
627.96336573877591
 40
0.5
 50
180.00000000000006
 51
240.00000000000114
  0
ARC
  8
_0-0_
  6
CONTINUOUS
 62
    7
 10
349.98375385978289
 20
635.00703902288944
 40
0.5
 50
120.00000000000017
 51
180
  0
ARC
  8
_0-0_
  6
CONTINUOUS
 62
    7
 10
356.08375385978235
 20
638.52887566494621
 40
0.5
 50
59.999999999998685
 51
119.99999999999956
  0
ARC
  8
_0-0_
  6
CONTINUOUS
 62
    7
 10
370.08375385978144
 20
624.52887566494621
 40
0.5
 50
59.999999999998124
 51
120.00000000000017
  0
ARC
  8
_0-0_
  6
CONTINUOUS
 62
    7
 10
376.1837538597818
 20
621.00703902288944
 40
0.5
 50
0
 51
59.999999999997797
  0
ARC
  8
_0-0_
  6
CONTINUOUS
 62
    7
 10
376.1837538597818
 20
613.96336573877591
 40
0.5
 50
300.00000000000063
 51
0
  0
ARC
  8
_0-0_
  6
CONTINUOUS
 62
    7
 10
370.08375385978144
 20
610.44152909671914
 40
0.5
 50
240.00000000000105
 51
299.99999999999994
  0
ARC
  8
_0-0_
  6
CONTINUOUS
 62
    7
 10
363.98375385978289
 20
613.96336573877591
 40
0.5
 50
180.00000000000006
 51
240.00000000000114
  0
ARC
  8
_0-0_
  6
CONTINUOUS
 62
    7
 10
363.98375385978289
 20
621.00703902288944
 40
0.5
 50
120.00000000000043
 51
180
  0
ARC
  8
_0-0_
  6
CONTINUOUS
 62
    7
 10
339.6837538597818
 20
628.23291836047622
 40
0.5
 50
300.00000000000063
 51
0
  0
ARC
  8
_0-0_
  6
CONTINUOUS
 62
    7
 10
333.58375385978235
 20
624.71108171841945
 40
0.5
 50
240.00000000000105
 51
299.99999999999994
  0
ARC
  8
_0-0_
  6
CONTINUOUS
 62
    7
 10
327.48375385978289
 20
628.23291836047622
 40
0.5
 50
180.00000000000006
 51
240.00000000000114
  0
ARC
  8
_0-0_
  6
CONTINUOUS
 62
    7
 10
327.48375385978289
 20
635.27659164458976
 40
0.5
 50
120.00000000000017
 51
180
  0
ARC
  8
_0-0_
  6
CONTINUOUS
 62
    7
 10
333.58375385978235
 20
638.79842828664653
 40
0.5
 50
59.999999999998124
 51
119.99999999999956
  0
ARC
  8
_0-0_
  6
CONTINUOUS
 62
    7
 10
339.6837538597818
 20
635.27659164458976
 40
0.5
 50
0
 51
59.999999999997797
  0
ARC
  8
_0-0_
  6
CONTINUOUS
 62
    7
 10
370.35330648148266
 20
602.02887566494712
 40
0.5
 50
59.999999999998124
 51
120.00000000000017
  0
ARC
  8
_0-0_
  6
CONTINUOUS
 62
    7
 10
364.25330648148321
 20
598.50703902288944
 40
0.5
 50
119.99999999999953
 51
180
  0
ARC
  8
_0-0_
  6
CONTINUOUS
 62
    7
 10
364.25330648148321
 20
591.46336573877591
 40
0.5
 50
179.99999999999997
 51
240.00000000000279
  0
ARC
  8
_0-0_
  6
CONTINUOUS
 62
    7
 10
370.35330648148266
 20
587.94152909672005
 40
0.5
 50
240.0000000000035
 51
299.99999999999886
  0
ARC
  8
_0-0_
  6
CONTINUOUS
 62
    7
 10
376.45330648148303
 20
591.46336573877591
 40
0.5
 50
299.99999999999824
 51
0
  0
ARC
  8
_0-0_
  6
CONTINUOUS
 62
    7
 10
376.45330648148303
 20
598.50703902288944
 40
0.5
 50
0
 51
59.999999999998657
  0
ARC
  8
_0-0_
  6
CONTINUOUS
 62
    7
 10
370.08375385978144
 20
579.52887566494621
 40
0.5
 50
59.999999999998124
 51
120.00000000000017
  0
ARC
  8
_0-0_
  6
CONTINUOUS
 62
    7
 10
363.98375385978289
 20
576.00703902288944
 40
0.5
 50
120.00000000000043
 51
180
  0
ARC
  8
_0-0_
  6
CONTINUOUS
 62
    7
 10
363.98375385978289
 20
568.96336573877591
 40
0.5
 50
180.00000000000006
 51
240.00000000000114
  0
ARC
  8
_0-0_
  6
CONTINUOUS
 62
    7
 10
370.08375385978144
 20
565.44152909671914
 40
0.5
 50
240.00000000000171
 51
300.00000000000057
  0
ARC
  8
_0-0_
  6
CONTINUOUS
 62
    7
 10
376.1837538597818
 20
568.96336573877591
 40
0.5
 50
300.00000000000068
 51
0
  0
ARC
  8
_0-0_
  6
CONTINUOUS
 62
    7
 10
376.1837538597818
 20
576.00703902288944
 40
0.5
 50
0
 51
59.999999999997797
  0
ARC
  8
_0-0_
  6
CONTINUOUS
 62
    7
 10
356.08375385978235
 20
565.52887566494621
 40
0.5
 50
59.999999999998124
 51
120.00000000000017
  0
ARC
  8
_0-0_
  6
CONTINUOUS
 62
    7
 10
349.98375385978289
 20
562.00703902288944
 40
0.5
 50
120.00000000000043
 51
180
  0
ARC
  8
_0-0_
  6
CONTINUOUS
 62
    7
 10
349.98375385978289
 20
554.96336573877591
 40
0.5
 50
180.00000000000006
 51
240.00000000000114
  0
ARC
  8
_0-0_
  6
CONTINUOUS
 62
    7
 10
356.08375385978235
 20
551.44152909671914
 40
0.5
 50
240.00000000000171
 51
300.00000000000057
  0
ARC
  8
_0-0_
  6
CONTINUOUS
 62
    7
 10
362.1837538597818
 20
554.96336573877591
 40
0.5
 50
300.00000000000068
 51
0
  0
ARC
  8
_0-0_
  6
CONTINUOUS
 62
    7
 10
362.1837538597818
 20
562.00703902288944
 40
0.5
 50
0
 51
59.999999999997797
  0
ARC
  8
_0-0_
  6
CONTINUOUS
 62
    7
 10
333.58375385978235
 20
565.2593230432459
 40
0.5
 50
59.999999999998124
 51
120.00000000000185
  0
ARC
  8
_0-0_
  6
CONTINUOUS
 62
    7
 10
327.48375385978289
 20
561.73748640118913
 40
0.5
 50
120.00000000000131
 51
180
  0
ARC
  8
_0-0_
  6
CONTINUOUS
 62
    7
 10
327.48375385978289
 20
554.69381311707559
 40
0.5
 50
180.00000000000006
 51
240.00000000000114
  0
ARC
  8
_0-0_
  6
CONTINUOUS
 62
    7
 10
333.58375385978235
 20
551.17197647501882
 40
0.5
 50
240.00000000000176
 51
299.99999999999892
  0
ARC
  8
_0-0_
  6
CONTINUOUS
 62
    7
 10
339.6837538597818
 20
554.69381311707559
 40
0.5
 50
299.99999999999824
 51
0
  0
ARC
  8
_0-0_
  6
CONTINUOUS
 62
    7
 10
339.6837538597818
 20
561.73748640118913
 40
0.5
 50
0
 51
59.999999999998657
  0
ARC
  8
_0-0_
  6
CONTINUOUS
 62
    7
 10
317.1837538597818
 20
562.00703902288944
 40
0.5
 50
0
 51
59.999999999998153
  0
ARC
  8
_0-0_
  6
CONTINUOUS
 62
    7
 10
311.08375385978235
 20
565.52887566494621
 40
0.5
 50
59.999999999998685
 51
120.00000000000017
  0
ARC
  8
_0-0_
  6
CONTINUOUS
 62
    7
 10
304.98375385978289
 20
562.00703902288944
 40
0.5
 50
120.00000000000043
 51
180
  0
ARC
  8
_0-0_
  6
CONTINUOUS
 62
    7
 10
304.98375385978289
 20
554.96336573877591
 40
0.5
 50
180.00000000000006
 51
240.00000000000114
  0
ARC
  8
_0-0_
  6
CONTINUOUS
 62
    7
 10
311.08375385978235
 20
551.44152909671914
 40
0.5
 50
240.00000000000171
 51
300.00000000000057
  0
ARC
  8
_0-0_
  6
CONTINUOUS
 62
    7
 10
317.1837538597818
 20
554.96336573877591
 40
0.5
 50
300.00000000000068
 51
0
  0
ARC
  8
_0-0_
  6
CONTINUOUS
 62
    7
 10
297.08375385978235
 20
565.44152909671914
 40
0.5
 50
240.00000000000105
 51
300.00000000000057
  0
ARC
  8
_0-0_
  6
CONTINUOUS
 62
    7
 10
290.98375385978198
 20
568.96336573877591
 40
0.5
 50
180.00000000000006
 51
240.00000000000114
  0
ARC
  8
_0-0_
  6
CONTINUOUS
 62
    7
 10
290.98375385978198
 20
576.00703902288944
 40
0.5
 50
120.00000000000017
 51
180
  0
ARC
  8
_0-0_
  6
CONTINUOUS
 62
    7
 10
297.08375385978235
 20
579.52887566494621
 40
0.5
 50
59.999999999998124
 51
119.99999999999956
  0
ARC
  8
_0-0_
  6
CONTINUOUS
 62
    7
 10
303.1837538597818
 20
576.00703902288944
 40
0.5
 50
0
 51
59.999999999997797
  0
ARC
  8
_0-0_
  6
CONTINUOUS
 62
    7
 10
303.1837538597818
 20
568.96336573877591
 40
0.5
 50
300.00000000000068
 51
0
  0
ARC
  8
_0-0_
  6
CONTINUOUS
 62
    7
 10
296.81420123808203
 20
602.02887566494712
 40
0.5
 50
59.999999999998124
 51
120.00000000000185
  0
ARC
  8
_0-0_
  6
CONTINUOUS
 62
    7
 10
290.71420123808167
 20
598.50703902288944
 40
0.5
 50
120.00000000000131
 51
180
  0
ARC
  8
_0-0_
  6
CONTINUOUS
 62
    7
 10
290.71420123808167
 20
591.46336573877591
 40
0.5
 50
180.00000000000006
 51
240.00000000000114
  0
ARC
  8
_0-0_
  6
CONTINUOUS
 62
    7
 10
296.81420123808203
 20
587.94152909672005
 40
0.5
 50
240.00000000000176
 51
299.99999999999892
  0
ARC
  8
_0-0_
  6
CONTINUOUS
 62
    7
 10
302.9142012380824
 20
591.46336573877591
 40
0.5
 50
299.99999999999824
 51
0
  0
ARC
  8
_0-0_
  6
CONTINUOUS
 62
    7
 10
302.9142012380824
 20
598.50703902288944
 40
0.5
 50
0
 51
59.999999999998657
  0
ARC
  8
_0-0_
  6
CONTINUOUS
 62
    7
 10
297.08375385978235
 20
624.52887566494621
 40
0.5
 50
59.999999999998124
 51
120.00000000000017
  0
ARC
  8
_0-0_
  6
CONTINUOUS
 62
    7
 10
290.98375385978198
 20
621.00703902288944
 40
0.5
 50
120.00000000000043
 51
180
  0
ARC
  8
_0-0_
  6
CONTINUOUS
 62
    7
 10
290.98375385978198
 20
613.96336573877591
 40
0.5
 50
180.00000000000006
 51
240.00000000000114
  0
ARC
  8
_0-0_
  6
CONTINUOUS
 62
    7
 10
297.08375385978235
 20
610.44152909671914
 40
0.5
 50
240.00000000000171
 51
300.00000000000057
  0
ARC
  8
_0-0_
  6
CONTINUOUS
 62
    7
 10
303.1837538597818
 20
613.96336573877591
 40
0.5
 50
300.00000000000068
 51
0
  0
ARC
  8
_0-0_
  6
CONTINUOUS
 62
    7
 10
303.1837538597818
 20
621.00703902288944
 40
0.5
 50
0
 51
59.999999999997797
  0
ARC
  8
_0-0_
  6
CONTINUOUS
 62
    7
 10
311.08375385978235
 20
638.52887566494621
 40
0.5
 50
59.999999999998124
 51
120.00000000000017
  0
ARC
  8
_0-0_
  6
CONTINUOUS
 62
    7
 10
304.98375385978289
 20
635.00703902288944
 40
0.5
 50
120.00000000000043
 51
180
  0
ARC
  8
_0-0_
  6
CONTINUOUS
 62
    7
 10
304.98375385978289
 20
627.96336573877591
 40
0.5
 50
180.00000000000006
 51
240.00000000000114
  0
ARC
  8
_0-0_
  6
CONTINUOUS
 62
    7
 10
311.08375385978235
 20
624.44152909671914
 40
0.5
 50
240.00000000000171
 51
300.00000000000057
  0
ARC
  8
_0-0_
  6
CONTINUOUS
 62
    7
 10
317.1837538597818
 20
627.96336573877591
 40
0.5
 50
300.00000000000068
 51
0
  0
ARC
  8
_0-0_
  6
CONTINUOUS
 62
    7
 10
317.1837538597818
 20
635.00703902288944
 40
0.5
 50
0
 51
59.999999999997797
  0
ARC
  8
_0-0_
  6
CONTINUOUS
 62
    7
 10
284.58375385978235
 20
663.16255582548649
 40
3.0000000000000009
 50
180
 51
186.76652709232027
  0
ARC
  8
_0-0_
  6
CONTINUOUS
 62
    7
 10
418.58375385978235
 20
548.98520238083267
 40
3.0000000000000009
 50
270
 51
0
  0
ARC
  8
_0-0_
  6
CONTINUOUS
 62
    7
 10
287.58375385978241
 20
679.98520238083358
 40
3.0000000000000009
 50
90
 51
180
  0
ARC
  8
_0-0_
  6
CONTINUOUS
 62
    7
 10
287.58375385978235
 20
564.22784306795268
 40
3.0000000000000009
 50
180
 51
225
  0
ARC
  8
_0-0_
  6
CONTINUOUS
 62
    7
 10
302.82639454690144
 20
548.98520238083267
 40
3.0000000000000009
 50
225.0000000000002
 51
270
  0
CIRCLE
  8
_0-0_
  6
CONTINUOUS
 62
    7
 10
352.58375385978241
 20
662.98520238083313
 40
3.2500000000000004
  0
CIRCLE
  8
_0-0_
  6
CONTINUOUS
 62
    7
 10
332.58375385978331
 20
662.98520238083313
 40
3.2500000000000004
  0
CIRCLE
  8
_0-0_
  6
CONTINUOUS
 62
    7
 10
292.58375385978235
 20
662.98520238083313
 40
3.2500000000000004
  0
CIRCLE
  8
_0-0_
  6
CONTINUOUS
 62
    7
 10
401.58375385978144
 20
613.98520238083358
 40
3.2500000000000009
  0
CIRCLE
  8
_0-0_
  6
CONTINUOUS
 62
    7
 10
401.58375385978144
 20
593.98520238083267
 40
3.2500000000000009
  0
CIRCLE
  8
_0-0_
  6
CONTINUOUS
 62
    7
 10
401.58375385978144
 20
553.98520238083358
 40
3.2500000000000009
  0
ARC
  8
_0-0_
  6
CONTINUOUS
 62
    7
 10
435.58375385978235
 20
640.98520238083358
 40
19.048155375999997
 50
316.08137219584455
 51
43.918627804155356
  0
LINE
  8
_0-0_
  6
CONTINUOUS
 62
    7
 10
52.161614916222561
 20
645.86388203727358
 11
78.404255603341653
 21
672.10652272439268
  0
ARC
  8
_0-0_
  6
CONTINUOUS
 62
    7
 10
80.525575946901654
 20
669.98520238083358
 40
3.0000000000000009
 50
90.000000000000028
 51
135.00000000000003
  0
LINE
  8
_0-0_
  6
CONTINUOUS
 62
    7
 10
80.525575946901654
 20
672.98520238083358
 11
175.28293525978165
 21
672.98520238083358
  0
ARC
  8
_0-0_
  6
CONTINUOUS
 62
    7
 10
175.28293525978165
 20
675.98520238083358
 40
3.0000000000000009
 50
270
 51
0
  0
LINE
  8
_0-0_
  6
CONTINUOUS
 62
    7
 10
51.282935259782562
 20
643.74256169371449
 11
51.282935259782562
 21
548.98520238083267
  0
ARC
  8
_0-0_
  6
CONTINUOUS
 62
    7
 10
54.282935259782562
 20
643.74256169371449
 40
3.0000000000000009
 50
134.99999999999994
 51
179.99999999999997
  0
ARC
  8
_0-0_
  6
CONTINUOUS
 62
    7
 10
48.282935259782562
 20
548.98520238083267
 40
3.0000000000000009
 50
270
 51
0
  0
ARC
  8
_0-0_
  6
CONTINUOUS
 62
    7
 10
287.58375385978241
 20
675.98520238083358
 40
3.0000000000000009
 50
180
 51
270
  0
LINE
  8
_0-0_
  6
CONTINUOUS
 62
    7
 10
287.58375385978235
 20
672.98520238083358
 11
382.34111317266331
 21
672.98520238083358
  0
ARC
  8
_0-0_
  6
CONTINUOUS
 62
    7
 10
382.34111317266331
 20
669.98520238083358
 40
3.0000000000000009
 50
44.999999999999957
 51
89.999999999999943
  0
LINE
  8
_0-0_
  6
CONTINUOUS
 62
    7
 10
384.46243351622331
 20
672.10652272439268
 11
410.70507420334144
 21
645.86388203727358
  0
ARC
  8
_0-0_
  6
CONTINUOUS
 62
    7
 10
408.58375385978235
 20
643.74256169371449
 40
3.0000000000000009
 50
0.0000000000000063
 51
45.000000000000028
  0
LINE
  8
_0-0_
  6
CONTINUOUS
 62
    7
 10
411.58375385978235
 20
643.74256169371449
 11
411.58375385978235
 21
548.98520238083267
  0
ARC
  8
_0-0_
  6
CONTINUOUS
 62
    7
 10
414.58375385978235
 20
548.98520238083267
 40
3.0000000000000009
 50
180
 51
270
  0
LINE
  8
_0-0_
  6
CONTINUOUS
 62
    7
 10
176.2829352597825
 20
718.38492994151204
 11
11.18086439321246
 21
718.38492994151204
  0
LINE
  8
_0-0_
  6
CONTINUOUS
 62
    7
 10
41.282935259783471
 20
720.38492994151159
 11
41.282935259783471
 21
736.07493079880908
  0
LINE
  8
_0-0_
  6
CONTINUOUS
 62
    7
 10
41.282935259783471
 20
738.38492594151205
 11
40.808522225361003
 21
747.43726589775508
  0
LINE
  8
_0-0_
  6
CONTINUOUS
 62
    7
 10
39.809892690606603
 20
748.38492994151204
 11
12.129828959927863
 21
748.38492994151204
  0
LINE
  8
_0-0_
  6
CONTINUOUS
 62
    7
 10
9.1339403556637535
 20
745.54193781024117
 11
8.7595754880092045
 21
738.39863059944821
  0
LINE
  8
_0-0_
  6
CONTINUOUS
 62
    7
 10
8.7616699463940222
 20
738.38492594151205
 11
177.7829352597825
 21
738.38492594151205
  0
LINE
  8
_0-0_
  6
CONTINUOUS
 62
    7
 10
178.2829352597825
 20
737.88492594151205
 11
178.2829352597825
 21
720.38492994151204
  0
LINE
  8
_0-0_
  6
CONTINUOUS
 62
    7
 10
9.1836053237036595
 20
720.28025802902596
 11
8.2623551790163674
 21
737.85875796339053
  0
ARC
  8
_0-0_
  6
CONTINUOUS
 62
    7
 10
12.129828959927863
 20
745.38492994151204
 40
3.0000000000000009
 50
89.999999999999972
 51
177.00000000000009
  0
ARC
  8
_0-0_
  6
CONTINUOUS
 62
    7
 10
11.18086439321246
 20
720.38492994151159
 40
2
 50
182.99999999999991
 51
270
  0
ARC
  8
_0-0_
  6
CONTINUOUS
 62
    7
 10
39.809892690606603
 20
747.38492994151204
 40
1
 50
3.0000000000000546
 51
90
  0
ARC
  8
_0-0_
  6
CONTINUOUS
 62
    7
 10
8.7616699463940222
 20
737.88492594151205
 40
0.5
 50
90
 51
182.9999999999998
  0
ARC
  8
_0-0_
  6
CONTINUOUS
 62
    7
 10
176.2829352597825
 20
720.38492994151204
 40
2
 50
270
 51
0
  0
ARC
  8
_0-0_
  6
CONTINUOUS
 62
    7
 10
177.7829352597825
 20
737.88492594151205
 40
0.5
 50
0
 51
90
  0
LINE
  8
_0-0_
  6
CONTINUOUS
 62
    7
 10
286.58375385978235
 20
718.38492994151204
 11
451.68582472635245
 21
718.38492994151204
  0
LINE
  8
_0-0_
  6
CONTINUOUS
 62
    7
 10
421.58375385978144
 20
720.38492994151159
 11
421.58375385978144
 21
736.07493079880908
  0
LINE
  8
_0-0_
  6
CONTINUOUS
 62
    7
 10
421.58375385978144
 20
738.38492594151205
 11
422.05816689420391
 21
747.43726589775508
  0
LINE
  8
_0-0_
  6
CONTINUOUS
 62
    7
 10
423.05679642895831
 20
748.38492994151204
 11
450.73686015963705
 21
748.38492994151204
  0
LINE
  8
_0-0_
  6
CONTINUOUS
 62
    7
 10
453.73274876390116
 20
745.54193781024117
 11
454.10711363155571
 21
738.39863059944821
  0
LINE
  8
_0-0_
  6
CONTINUOUS
 62
    7
 10
454.10501917317089
 20
738.38492594151205
 11
285.08375385978235
 21
738.38492594151205
  0
LINE
  8
_0-0_
  6
CONTINUOUS
 62
    7
 10
284.58375385978235
 20
737.88492594151205
 11
284.58375385978235
 21
720.38492994151204
  0
LINE
  8
_0-0_
  6
CONTINUOUS
 62
    7
 10
453.68308379586125
 20
720.28025802902596
 11
454.60433394054854
 21
737.85875796339053
  0
ARC
  8
_0-0_
  6
CONTINUOUS
 62
    7
 10
450.73686015963705
 20
745.38492994151204
 40
3.0000000000000009
 50
2.9999999999999152
 51
90.000000000000028
  0
ARC
  8
_0-0_
  6
CONTINUOUS
 62
    7
 10
451.68582472635245
 20
720.38492994151159
 40
2
 50
270
 51
357.00000000000006
  0
ARC
  8
_0-0_
  6
CONTINUOUS
 62
    7
 10
423.05679642895831
 20
747.38492994151204
 40
1
 50
89.999999999999986
 51
176.99999999999994
  0
ARC
  8
_0-0_
  6
CONTINUOUS
 62
    7
 10
454.10501917317089
 20
737.88492594151205
 40
0.5
 50
357.00000000000017
 51
90.000000000000071
  0
ARC
  8
_0-0_
  6
CONTINUOUS
 62
    7
 10
286.58375385978235
 20
720.38492994151204
 40
2
 50
180
 51
270
  0
ARC
  8
_0-0_
  6
CONTINUOUS
 62
    7
 10
285.08375385978235
 20
737.88492594151205
 40
0.5
 50
90
 51
180
  0
CIRCLE
  8
_0-0_
  6
CONTINUOUS
 62
    7
 10
27.282935259782562
 20
640.98520238083358
 40
5.1999998092651367
  0
CIRCLE
  8
_0-0_
  6
CONTINUOUS
 62
    7
 10
435.58375385978235
 20
640.98520238083358
 40
5.1999998092651367
  0
LINE
  8
_0-1_
  6
CENTER1
 62
  152
 10
9.2829352597825618
 20
105.50789344777104
 11
42.969287271612984
 21
105.50789344777104
  0
LINE
  8
_0-1_
  6
CENTER1
 62
  152
 10
54.826853264530428
 20
18.507893447771039
 11
68.197574941657649
 21
18.507893447771039
  0
LINE
  8
_0-1_
  6
CENTER1
 62
  152
 10
61.282935259781652
 20
9.0078934477710391
 11
61.282935259781652
 21
83.659620367315711
  0
LINE
  8
_0-1_
  6
CENTER1
 62
  152
 10
54.826853264530428
 20
78.507893447771039
 11
68.197574941657649
 21
78.507893447771039
  0
LINE
  8
_0-1_
  6
CENTER1
 62
  152
 10
85.080872308546304
 20
82.007893447771039
 11
173.70478990519018
 21
82.007893447771039
  0
LINE
  8
_0-1_
  6
CENTER1
 62
  152
 10
165.78293525978256
 20
90.295159872111526
 11
165.78293525978256
 21
73.75545314457986
  0
LINE
  8
_0-1_
  6
CENTER1
 62
  152
 10
166.05248788148288
 20
67.795159872111526
 11
166.05248788148288
 21
51.25545314457986
  0
LINE
  8
_0-1_
  6
CENTER1
 62
  152
 10
165.78293525978256
 20
45.295159872111526
 11
165.78293525978256
 21
28.75545314457986
  0
LINE
  8
_0-1_
  6
CENTER1
 62
  152
 10
159.70478990519018
 20
23.007893447771039
 11
144.08087230854539
 21
23.007893447771039
  0
LINE
  8
_0-1_
  6
CENTER1
 62
  152
 10
137.20478990519018
 20
22.738340826069816
 11
121.58087230854539
 21
22.738340826069816
  0
LINE
  8
_0-1_
  6
CENTER1
 62
  152
 10
114.70478990519018
 20
23.007893447771039
 11
99.080872308545395
 21
23.007893447771039
  0
LINE
  8
_0-1_
  6
CENTER1
 62
  152
 10
92.782935259782562
 20
28.75545314457986
 11
92.782935259782562
 21
45.295159872111526
  0
LINE
  8
_0-1_
  6
CENTER1
 62
  152
 10
92.513382638081339
 20
51.25545314457986
 11
92.513382638081339
 21
67.795159872111526
  0
LINE
  8
_0-1_
  6
CENTER1
 62
  152
 10
92.782935259782562
 20
73.75545314457986
 11
92.782935259782562
 21
90.295159872111526
  0
LINE
  8
ADD_LINE
  6
DOT
 62
  152
 10
100.28293525978165
 20
92.197381671118819
 11
100.28293525978165
 21
99.818405224421895
  0
LINE
  8
ADD_LINE
  6
DOT
 62
  152
 10
100.23293525978238
 20
99.731802684043487
 11
106.83293525978183
 21
103.54231446069525
  0
LINE
  8
ADD_LINE
  6
DOT
 62
  152
 10
106.73293525978238
 20
103.54231446069525
 11
113.33293525978183
 21
99.731802684043487
  0
LINE
  8
ADD_LINE
  6
DOT
 62
  152
 10
113.28293525978256
 20
99.818405224421895
 11
113.28293525978256
 21
92.197381671118819
  0
LINE
  8
ADD_LINE
  6
DOT
 62
  152
 10
113.33293525978183
 20
92.283984211497682
 11
106.73293525978238
 21
88.473472434845917
  0
LINE
  8
ADD_LINE
  6
DOT
 62
  152
 10
106.83293525978183
 20
88.473472434845917
 11
100.23293525978238
 21
92.283984211497682
  0
LINE
  8
_0-1_
  6
CENTER1
 62
  152
 10
99.080872308545395
 20
96.007893447770584
 11
114.70478990519018
 21
96.007893447770584
  0
LINE
  8
_0-1_
  6
CENTER1
 62
  152
 10
121.58087230854539
 20
96.277446069471353
 11
137.20478990519018
 21
96.277446069471353
  0
LINE
  8
_0-1_
  6
CENTER1
 62
  152
 10
144.08087230854539
 20
96.007893447770584
 11
159.70478990519018
 21
96.007893447770584
  0
LINE
  8
_0-1_
  6
CENTER1
 62
  152
 10
151.78293525978256
 20
104.29515987211153
 11
151.78293525978256
 21
14.75545314457986
  0
LINE
  8
_0-1_
  6
CENTER1
 62
  152
 10
27.282935259782562
 20
87.507893447771039
 11
27.282935259782562
 21
123.50789344777104
  0
LINE
  8
_0-1_
  6
CENTER1
 62
  152
 10
170.28293525978256
 20
133.96397544302317
 11
170.28293525978256
 21
120.59325376589595
  0
LINE
  8
_0-1_
  6
CENTER1
 62
  152
 10
181.27768829729098
 20
127.50789344777058
 11
103.68071817646046
 21
127.50789344777058
  0
LINE
  8
_0-1_
  6
CENTER1
 62
  152
 10
110.28293525978256
 20
133.96397544302317
 11
110.28293525978256
 21
120.59325376589595
  0
LINE
  8
_0-1_
  6
CENTER1
 62
  152
 10
106.78293525978256
 20
104.29515987211153
 11
106.78293525978256
 21
14.75545314457986
  0
LINE
  8
_0-1_
  6
CENTER1
 62
  152
 10
129.28293525978256
 20
14.485900522879547
 11
129.28293525978256
 21
104.56471249381184
  0
LINE
  8
_0-1_
  6
CENTER1
 62
  152
 10
130.28293525978165
 20
120.59325376589595
 11
130.28293525978165
 21
133.96397544302317
  0
LINE
  8
_0-1_
  6
CENTER1
 62
  152
 10
54.826853264530428
 20
58.50789344777013
 11
68.197574941657649
 21
58.50789344777013
  0
LINE
  8
_0-1_
  6
CENTER1
 62
  152
 10
84.811319686845081
 20
59.507893447771039
 11
173.9743425268905
 21
59.507893447771039
  0
LINE
  8
_0-1_
  6
CENTER1
 62
  152
 10
173.70478990519018
 20
37.007893447771039
 11
85.080872308546304
 21
37.007893447771039
  0
LINE
  8
_0-1_
  6
CENTER1
 62
  152
 10
453.58375385978235
 20
105.50789344777104
 11
417.58375385978235
 21
105.50789344777104
  0
LINE
  8
_0-1_
  6
CENTER1
 62
  152
 10
408.03983585503448
 20
18.507893447771039
 11
394.66911417790726
 21
18.507893447771039
  0
LINE
  8
_0-1_
  6
CENTER1
 62
  152
 10
401.58375385978326
 20
9.0078934477710391
 11
401.58375385978326
 21
83.659620367315711
  0
LINE
  8
_0-1_
  6
CENTER1
 62
  152
 10
408.03983585503448
 20
78.507893447771039
 11
394.66911417790726
 21
78.507893447771039
  0
LINE
  8
_0-1_
  6
CENTER1
 62
  152
 10
377.78581681101861
 20
82.007893447771039
 11
289.16189921437473
 21
82.007893447771039
  0
LINE
  8
_0-1_
  6
CENTER1
 62
  152
 10
297.08375385978235
 20
90.295159872111526
 11
297.08375385978235
 21
73.75545314457986
  0
LINE
  8
_0-1_
  6
CENTER1
 62
  152
 10
296.81420123808203
 20
67.795159872111526
 11
296.81420123808203
 21
51.25545314457986
  0
LINE
  8
_0-1_
  6
CENTER1
 62
  152
 10
297.08375385978235
 20
45.295159872111526
 11
297.08375385978235
 21
28.75545314457986
  0
LINE
  8
_0-1_
  6
CENTER1
 62
  152
 10
303.16189921437473
 20
23.007893447771039
 11
318.78581681101861
 21
23.007893447771039
  0
LINE
  8
_0-1_
  6
CENTER1
 62
  152
 10
325.66189921437473
 20
22.738340826069816
 11
341.28581681101861
 21
22.738340826069816
  0
LINE
  8
_0-1_
  6
CENTER1
 62
  152
 10
348.16189921437473
 20
23.007893447771039
 11
363.78581681101861
 21
23.007893447771039
  0
LINE
  8
_0-1_
  6
CENTER1
 62
  152
 10
370.08375385978144
 20
28.75545314457986
 11
370.08375385978144
 21
45.295159872111526
  0
LINE
  8
_0-1_
  6
CENTER1
 62
  152
 10
370.35330648148266
 20
51.25545314457986
 11
370.35330648148266
 21
67.795159872111526
  0
LINE
  8
_0-1_
  6
CENTER1
 62
  152
 10
370.08375385978144
 20
73.75545314457986
 11
370.08375385978144
 21
90.295159872111526
  0
LINE
  8
ADD_LINE
  6
DOT
 62
  152
 10
362.58375385978326
 20
92.197381671118819
 11
362.58375385978326
 21
99.818405224421895
  0
LINE
  8
ADD_LINE
  6
DOT
 62
  152
 10
362.63375385978253
 20
99.731802684043487
 11
356.03375385978217
 21
103.54231446069525
  0
LINE
  8
ADD_LINE
  6
DOT
 62
  152
 10
356.13375385978253
 20
103.54231446069525
 11
349.53375385978217
 21
99.731802684043487
  0
LINE
  8
ADD_LINE
  6
DOT
 62
  152
 10
349.58375385978235
 20
99.818405224421895
 11
349.58375385978235
 21
92.197381671118819
  0
LINE
  8
ADD_LINE
  6
DOT
 62
  152
 10
349.53375385978217
 20
92.283984211497682
 11
356.13375385978253
 21
88.473472434845917
  0
LINE
  8
ADD_LINE
  6
DOT
 62
  152
 10
356.03375385978217
 20
88.473472434845917
 11
362.63375385978253
 21
92.283984211497682
  0
LINE
  8
_0-1_
  6
CENTER1
 62
  152
 10
363.78581681101861
 20
96.007893447770584
 11
348.16189921437473
 21
96.007893447770584
  0
LINE
  8
_0-1_
  6
CENTER1
 62
  152
 10
341.28581681101861
 20
96.277446069471353
 11
325.66189921437473
 21
96.277446069471353
  0
LINE
  8
_0-1_
  6
CENTER1
 62
  152
 10
318.78581681101861
 20
96.007893447770584
 11
303.16189921437473
 21
96.007893447770584
  0
LINE
  8
_0-1_
  6
CENTER1
 62
  152
 10
311.08375385978235
 20
104.29515987211153
 11
311.08375385978235
 21
14.75545314457986
  0
LINE
  8
_0-1_
  6
CENTER1
 62
  152
 10
333.58375385978235
 20
14.485900522879547
 11
333.58375385978235
 21
104.56471249381184
  0
LINE
  8
_0-1_
  6
CENTER1
 62
  152
 10
332.58375385978326
 20
120.59325376589595
 11
332.58375385978331
 21
133.96397544302317
  0
LINE
  8
_0-1_
  6
CENTER1
 62
  152
 10
352.58375385978241
 20
133.96397544302317
 11
352.58375385978235
 21
120.59325376589595
  0
LINE
  8
_0-1_
  6
CENTER1
 62
  152
 10
359.18597094310451
 20
127.50789344777058
 11
281.58900082227302
 21
127.50789344777058
  0
LINE
  8
_0-1_
  6
CENTER1
 62
  152
 10
435.58375385978235
 20
123.50789344777104
 11
435.58375385978235
 21
87.507893447771039
  0
LINE
  8
_0-1_
  6
CENTER1
 62
  152
 10
292.58375385978235
 20
133.96397544302317
 11
292.58375385978235
 21
120.59325376589595
  0
LINE
  8
_0-1_
  6
CENTER1
 62
  152
 10
288.89234659267441
 20
59.507893447771039
 11
378.05536943271983
 21
59.507893447771039
  0
LINE
  8
_0-1_
  6
CENTER1
 62
  152
 10
394.66911417790726
 20
58.50789344777013
 11
408.03983585503448
 21
58.50789344777013
  0
LINE
  8
_0-1_
  6
CENTER1
 62
  152
 10
377.78581681101861
 20
37.007893447771039
 11
289.16189921437473
 21
37.007893447771039
  0
LINE
  8
_0-1_
  6
CENTER1
 62
  152
 10
356.08375385978235
 20
14.75545314457986
 11
356.08375385978235
 21
104.29515987211153
  0
CIRCLE
  8
_0-1_
  6
CONTINUOUS
 62
  152
 10
27.282935259782562
 20
105.50789344777104
 40
10
  0
CIRCLE
  8
_0-1_
  6
CONTINUOUS
 62
  152
 10
435.58375385978235
 20
105.50789344777104
 40
10
  0
LINE
  8
_0-1_
  6
DASHED2
 62
  152
 10
41.282935259782562
 20
94.772903483692517
 11
41.282935259782562
 21
116.24288341184911
  0
ARC
  8
_0-1_
  6
DASHED2
 62
  152
 10
37.759575487982829
 20
116.24288341184911
 40
3.5233597718000005
 50
0
 51
45.697806698115791
  0
ARC
  8
_0-1_
  6
DASHED2
 62
  152
 10
27.282935259782562
 20
105.50789344777104
 40
18.523359771800003
 50
45.697806698116267
 51
314.30219330188373
  0
ARC
  8
_0-1_
  6
DASHED2
 62
  152
 10
37.759575487982829
 20
94.772903483692517
 40
3.5233597718000005
 50
314.30219330188424
 51
0
  0
ARC
  8
_0-1_
  6
DASHED2
 62
  152
 10
435.58375385978235
 20
105.50789344777104
 40
18.523359771800003
 50
225.69780669811627
 51
134.30219330188373
  0
ARC
  8
_0-1_
  6
DASHED2
 62
  152
 10
425.10711363158208
 20
116.24288341184911
 40
3.5233597718000005
 50
134.30219330188422
 51
180
  0
LINE
  8
_0-1_
  6
DASHED2
 62
  152
 10
421.58375385978235
 20
116.24288341184911
 11
421.58375385978235
 21
94.772903483692517
  0
ARC
  8
_0-1_
  6
DASHED2
 62
  152
 10
425.10711363158208
 20
94.772903483692517
 40
3.5233597718000005
 50
180
 51
225.69780669811578
  0
LINE
  8
_0-1_
  6
DASHED2
 62
  152
 10
176.2829352597825
 20
192.40761700844951
 11
55.610589739348825
 21
192.40761700844951
  0
LINE
  8
_0-1_
  6
DASHED2
 62
  152
 10
53.613330669839115
 20
190.51228892093513
 11
53.314116848440563
 21
184.80294909596341
  0
ARC
  8
_0-1_
  6
DASHED2
 62
  152
 10
55.610589739348825
 20
190.40761700844905
 40
2
 50
90
 51
176.99999999999937
  0
ARC
  8
_0-1_
  6
DASHED2
 62
  152
 10
176.2829352597825
 20
194.40761700844951
 40
2
 50
270
 51
0
  0
LINE
  8
_0-1_
  6
DASHED2
 62
  152
 10
286.58375385978235
 20
192.40761700844951
 11
407.25609938021609
 21
192.40761700844951
  0
LINE
  8
_0-1_
  6
DASHED2
 62
  152
 10
409.25335844972579
 20
190.51228892093513
 11
409.55257227112435
 21
184.80294909596341
  0
ARC
  8
_0-1_
  6
DASHED2
 62
  152
 10
407.25609938021609
 20
190.40761700844905
 40
2
 50
3.0000000000006275
 51
89.999999999999986
  0
ARC
  8
_0-1_
  6
DASHED2
 62
  152
 10
286.58375385978235
 20
194.40761700844951
 40
2
 50
180
 51
270
  0
LINE
  8
_0-1_
  6
CENTER1
 62
  152
 10
27.282935259782562
 20
219.8874909450642
 11
27.282935259782562
 21
176.94447116865251
  0
LINE
  8
_0-1_
  6
CENTER1
 62
  152
 10
435.58375385978235
 20
219.8874909450642
 11
435.58375385978235
 21
176.94447116865251
  0
TEXT
  8
_0-1_
 62
    7
 10
27.970087196925078
 20
155.18170927525989
 40
4.2999999999999998
 41
0.744186046511628
 50
0
  1
APDC-M20L
  0
TEXT
  8
_0-1_
 62
    7
 10
274.27090579692486
 20
155.18170927525989
 40
4.2999999999999998
 41
0.744186046511628
 50
0
  1
APDC-M20R
  0
LINE
  8
_0-1_
  6
CENTER1
 62
  152
 10
9.2829352597825618
 20
373.24654791430231
 11
42.969287271612984
 21
373.24654791430231
  0
LINE
  8
_0-1_
  6
CENTER1
 62
  152
 10
54.826853264530428
 20
286.24654791430231
 11
68.197574941657649
 21
286.24654791430231
  0
LINE
  8
_0-1_
  6
CENTER1
 62
  152
 10
61.282935259781652
 20
276.74654791430225
 11
61.282935259781652
 21
351.39827483384698
  0
LINE
  8
_0-1_
  6
CENTER1
 62
  152
 10
54.826853264530428
 20
346.24654791430231
 11
68.197574941657649
 21
346.24654791430231
  0
LINE
  8
_0-1_
  6
CENTER1
 62
  152
 10
85.080872308546304
 20
349.74654791430231
 11
173.70478990519018
 21
349.74654791430231
  0
LINE
  8
_0-1_
  6
CENTER1
 62
  152
 10
165.78293525978256
 20
358.0338143386428
 11
165.78293525978256
 21
341.49410761111113
  0
LINE
  8
_0-1_
  6
CENTER1
 62
  152
 10
166.05248788148288
 20
335.5338143386428
 11
166.05248788148288
 21
318.99410761111113
  0
LINE
  8
_0-1_
  6
CENTER1
 62
  152
 10
165.78293525978256
 20
313.0338143386428
 11
165.78293525978256
 21
296.49410761111113
  0
LINE
  8
_0-1_
  6
CENTER1
 62
  152
 10
159.70478990519018
 20
290.74654791430231
 11
144.08087230854539
 21
290.74654791430231
  0
LINE
  8
_0-1_
  6
CENTER1
 62
  152
 10
137.20478990519018
 20
290.47699529260109
 11
121.58087230854539
 21
290.47699529260109
  0
LINE
  8
_0-1_
  6
CENTER1
 62
  152
 10
114.70478990519018
 20
290.74654791430231
 11
99.080872308545395
 21
290.74654791430231
  0
LINE
  8
_0-1_
  6
CENTER1
 62
  152
 10
92.782935259782562
 20
296.49410761111113
 11
92.782935259782562
 21
313.0338143386428
  0
LINE
  8
_0-1_
  6
CENTER1
 62
  152
 10
92.513382638081339
 20
318.99410761111113
 11
92.513382638081339
 21
335.5338143386428
  0
LINE
  8
_0-1_
  6
CENTER1
 62
  152
 10
92.782935259782562
 20
341.49410761111113
 11
92.782935259782562
 21
358.0338143386428
  0
LINE
  8
ADD_LINE
  6
DOT
 62
  152
 10
100.28293525978165
 20
359.93603613765009
 11
100.28293525978165
 21
367.55705969095317
  0
LINE
  8
ADD_LINE
  6
DOT
 62
  152
 10
100.23293525978238
 20
367.47045715057476
 11
106.83293525978183
 21
371.28096892722652
  0
LINE
  8
ADD_LINE
  6
DOT
 62
  152
 10
106.73293525978238
 20
371.28096892722652
 11
113.33293525978183
 21
367.47045715057476
  0
LINE
  8
ADD_LINE
  6
DOT
 62
  152
 10
113.28293525978256
 20
367.55705969095317
 11
113.28293525978256
 21
359.93603613765009
  0
LINE
  8
ADD_LINE
  6
DOT
 62
  152
 10
113.33293525978183
 20
360.02263867802895
 11
106.73293525978238
 21
356.21212690137719
  0
LINE
  8
ADD_LINE
  6
DOT
 62
  152
 10
106.83293525978183
 20
356.21212690137719
 11
100.23293525978238
 21
360.02263867802895
  0
LINE
  8
_0-1_
  6
CENTER1
 62
  152
 10
99.080872308545395
 20
363.74654791430186
 11
114.70478990519018
 21
363.74654791430186
  0
LINE
  8
_0-1_
  6
CENTER1
 62
  152
 10
121.58087230854539
 20
364.01610053600263
 11
137.20478990519018
 21
364.01610053600263
  0
LINE
  8
_0-1_
  6
CENTER1
 62
  152
 10
144.08087230854539
 20
363.74654791430186
 11
159.70478990519018
 21
363.74654791430186
  0
LINE
  8
_0-1_
  6
CENTER1
 62
  152
 10
151.78293525978256
 20
372.0338143386428
 11
151.78293525978256
 21
282.49410761111113
  0
LINE
  8
_0-1_
  6
CENTER1
 62
  152
 10
27.282935259782562
 20
355.24654791430231
 11
27.282935259782562
 21
391.24654791430231
  0
LINE
  8
_0-1_
  6
CENTER1
 62
  152
 10
170.28293525978256
 20
401.70262990955445
 11
170.28293525978256
 21
388.33190823242722
  0
LINE
  8
_0-1_
  6
CENTER1
 62
  152
 10
181.27768829729098
 20
395.24654791430186
 11
103.68071817646046
 21
395.24654791430186
  0
LINE
  8
_0-1_
  6
CENTER1
 62
  152
 10
110.28293525978256
 20
401.70262990955445
 11
110.28293525978256
 21
388.33190823242722
  0
LINE
  8
_0-1_
  6
CENTER1
 62
  152
 10
106.78293525978256
 20
372.0338143386428
 11
106.78293525978256
 21
282.49410761111113
  0
LINE
  8
_0-1_
  6
CENTER1
 62
  152
 10
129.28293525978256
 20
282.22455498941082
 11
129.28293525978256
 21
372.30336696034311
  0
LINE
  8
_0-1_
  6
CENTER1
 62
  152
 10
130.28293525978165
 20
388.33190823242722
 11
130.28293525978165
 21
401.70262990955445
  0
LINE
  8
_0-1_
  6
CENTER1
 62
  152
 10
54.826853264530428
 20
326.2465479143014
 11
68.197574941657649
 21
326.2465479143014
  0
LINE
  8
_0-1_
  6
CENTER1
 62
  152
 10
84.811319686845081
 20
327.24654791430231
 11
173.9743425268905
 21
327.24654791430231
  0
LINE
  8
_0-1_
  6
CENTER1
 62
  152
 10
173.70478990519018
 20
304.74654791430231
 11
85.080872308546304
 21
304.74654791430231
  0
LINE
  8
_0-1_
  6
CENTER1
 62
  152
 10
453.58375385978235
 20
373.24654791430231
 11
417.58375385978235
 21
373.24654791430231
  0
LINE
  8
_0-1_
  6
CENTER1
 62
  152
 10
408.03983585503448
 20
286.24654791430231
 11
394.66911417790726
 21
286.24654791430231
  0
LINE
  8
_0-1_
  6
CENTER1
 62
  152
 10
401.58375385978326
 20
276.74654791430225
 11
401.58375385978326
 21
351.39827483384698
  0
LINE
  8
_0-1_
  6
CENTER1
 62
  152
 10
408.03983585503448
 20
346.24654791430231
 11
394.66911417790726
 21
346.24654791430231
  0
LINE
  8
_0-1_
  6
CENTER1
 62
  152
 10
377.78581681101861
 20
349.74654791430231
 11
289.16189921437473
 21
349.74654791430231
  0
LINE
  8
_0-1_
  6
CENTER1
 62
  152
 10
297.08375385978235
 20
358.0338143386428
 11
297.08375385978235
 21
341.49410761111113
  0
LINE
  8
_0-1_
  6
CENTER1
 62
  152
 10
296.81420123808203
 20
335.5338143386428
 11
296.81420123808203
 21
318.99410761111113
  0
LINE
  8
_0-1_
  6
CENTER1
 62
  152
 10
297.08375385978235
 20
313.0338143386428
 11
297.08375385978235
 21
296.49410761111113
  0
LINE
  8
_0-1_
  6
CENTER1
 62
  152
 10
303.16189921437473
 20
290.74654791430231
 11
318.78581681101861
 21
290.74654791430231
  0
LINE
  8
_0-1_
  6
CENTER1
 62
  152
 10
325.66189921437473
 20
290.47699529260109
 11
341.28581681101861
 21
290.47699529260109
  0
LINE
  8
_0-1_
  6
CENTER1
 62
  152
 10
348.16189921437473
 20
290.74654791430231
 11
363.78581681101861
 21
290.74654791430231
  0
LINE
  8
_0-1_
  6
CENTER1
 62
  152
 10
370.08375385978144
 20
296.49410761111113
 11
370.08375385978144
 21
313.0338143386428
  0
LINE
  8
_0-1_
  6
CENTER1
 62
  152
 10
370.35330648148266
 20
318.99410761111113
 11
370.35330648148266
 21
335.5338143386428
  0
LINE
  8
_0-1_
  6
CENTER1
 62
  152
 10
370.08375385978144
 20
341.49410761111113
 11
370.08375385978144
 21
358.0338143386428
  0
LINE
  8
ADD_LINE
  6
DOT
 62
  152
 10
362.58375385978326
 20
359.93603613765009
 11
362.58375385978326
 21
367.55705969095317
  0
LINE
  8
ADD_LINE
  6
DOT
 62
  152
 10
362.63375385978253
 20
367.47045715057476
 11
356.03375385978217
 21
371.28096892722652
  0
LINE
  8
ADD_LINE
  6
DOT
 62
  152
 10
356.13375385978253
 20
371.28096892722652
 11
349.53375385978217
 21
367.47045715057476
  0
LINE
  8
ADD_LINE
  6
DOT
 62
  152
 10
349.58375385978235
 20
367.55705969095317
 11
349.58375385978235
 21
359.93603613765009
  0
LINE
  8
ADD_LINE
  6
DOT
 62
  152
 10
349.53375385978217
 20
360.02263867802895
 11
356.13375385978253
 21
356.21212690137719
  0
LINE
  8
ADD_LINE
  6
DOT
 62
  152
 10
356.03375385978217
 20
356.21212690137719
 11
362.63375385978253
 21
360.02263867802895
  0
LINE
  8
_0-1_
  6
CENTER1
 62
  152
 10
363.78581681101861
 20
363.74654791430186
 11
348.16189921437473
 21
363.74654791430186
  0
LINE
  8
_0-1_
  6
CENTER1
 62
  152
 10
341.28581681101861
 20
364.01610053600263
 11
325.66189921437473
 21
364.01610053600263
  0
LINE
  8
_0-1_
  6
CENTER1
 62
  152
 10
318.78581681101861
 20
363.74654791430186
 11
303.16189921437473
 21
363.74654791430186
  0
LINE
  8
_0-1_
  6
CENTER1
 62
  152
 10
311.08375385978235
 20
372.0338143386428
 11
311.08375385978235
 21
282.49410761111113
  0
LINE
  8
_0-1_
  6
CENTER1
 62
  152
 10
333.58375385978235
 20
282.22455498941082
 11
333.58375385978235
 21
372.30336696034311
  0
LINE
  8
_0-1_
  6
CENTER1
 62
  152
 10
332.58375385978326
 20
388.33190823242722
 11
332.58375385978331
 21
401.70262990955445
  0
LINE
  8
_0-1_
  6
CENTER1
 62
  152
 10
352.58375385978241
 20
401.70262990955445
 11
352.58375385978235
 21
388.33190823242722
  0
LINE
  8
_0-1_
  6
CENTER1
 62
  152
 10
359.18597094310451
 20
395.24654791430186
 11
281.58900082227302
 21
395.24654791430186
  0
LINE
  8
_0-1_
  6
CENTER1
 62
  152
 10
435.58375385978235
 20
391.24654791430231
 11
435.58375385978235
 21
355.24654791430231
  0
LINE
  8
_0-1_
  6
CENTER1
 62
  152
 10
292.58375385978235
 20
401.70262990955445
 11
292.58375385978235
 21
388.33190823242722
  0
LINE
  8
_0-1_
  6
CENTER1
 62
  152
 10
288.89234659267441
 20
327.24654791430231
 11
378.05536943271983
 21
327.24654791430231
  0
LINE
  8
_0-1_
  6
CENTER1
 62
  152
 10
394.66911417790726
 20
326.2465479143014
 11
408.03983585503448
 21
326.2465479143014
  0
LINE
  8
_0-1_
  6
CENTER1
 62
  152
 10
377.78581681101861
 20
304.74654791430231
 11
289.16189921437473
 21
304.74654791430231
  0
LINE
  8
_0-1_
  6
CENTER1
 62
  152
 10
356.08375385978235
 20
282.49410761111113
 11
356.08375385978235
 21
372.0338143386428
  0
CIRCLE
  8
_0-1_
  6
CONTINUOUS
 62
  152
 10
27.282935259782562
 20
373.24654791430231
 40
8
  0
CIRCLE
  8
_0-1_
  6
CONTINUOUS
 62
  152
 10
435.58375385978235
 20
373.24654791430231
 40
8
  0
TEXT
  8
_0-1_
 62
    7
 10
27.970087196925078
 20
422.92036374179116
 40
4.2999999999999998
 41
0.744186046511628
 50
0
  1
APDC-M16L
  0
ARC
  8
_0-1_
  6
DASHED2
 62
  152
 10
27.282935259782562
 20
373.24654791430231
 40
18.523359771800003
 50
45.697806698116267
 51
314.30219330188373
  0
ARC
  8
_0-1_
  6
DASHED2
 62
  152
 10
37.759575487982829
 20
383.98153787838038
 40
3.5233597718000005
 50
0
 51
45.697806698115791
  0
LINE
  8
_0-1_
  6
DASHED2
 62
  152
 10
41.282935259782562
 20
362.51155795022379
 11
41.282935259782562
 21
383.98153787838038
  0
ARC
  8
_0-1_
  6
DASHED2
 62
  152
 10
37.759575487982829
 20
362.51155795022379
 40
3.5233597718000005
 50
314.30219330188424
 51
0
  0
ARC
  8
_0-1_
  6
DASHED2
 62
  152
 10
435.58375385978235
 20
373.24654791430231
 40
18.523359771800003
 50
225.69780669811627
 51
134.30219330188373
  0
ARC
  8
_0-1_
  6
DASHED2
 62
  152
 10
425.10711363158208
 20
383.98153787838038
 40
3.5233597718000005
 50
134.30219330188422
 51
180
  0
LINE
  8
_0-1_
  6
DASHED2
 62
  152
 10
421.58375385978235
 20
383.98153787838038
 11
421.58375385978235
 21
362.51155795022379
  0
ARC
  8
_0-1_
  6
DASHED2
 62
  152
 10
425.10711363158208
 20
362.51155795022379
 40
3.5233597718000005
 50
180
 51
225.69780669811578
  0
LINE
  8
_0-1_
  6
DASHED2
 62
  152
 10
176.2829352597825
 20
460.14627147498072
 11
55.610589739348825
 21
460.14627147498072
  0
LINE
  8
_0-1_
  6
DASHED2
 62
  152
 10
53.613330669839115
 20
458.25094338746635
 11
53.314116848440563
 21
452.54160356249463
  0
ARC
  8
_0-1_
  6
DASHED2
 62
  152
 10
55.610589739348825
 20
458.14627147498027
 40
2
 50
90
 51
176.99999999999937
  0
ARC
  8
_0-1_
  6
DASHED2
 62
  152
 10
176.2829352597825
 20
462.14627147498072
 40
2
 50
270
 51
0
  0
LINE
  8
_0-1_
  6
DASHED2
 62
  152
 10
286.58375385978235
 20
460.14627147498072
 11
407.25609938021609
 21
460.14627147498072
  0
LINE
  8
_0-1_
  6
DASHED2
 62
  152
 10
409.25335844972579
 20
458.25094338746635
 11
409.55257227112435
 21
452.54160356249463
  0
ARC
  8
_0-1_
  6
DASHED2
 62
  152
 10
407.25609938021609
 20
458.14627147498027
 40
2
 50
3.0000000000006275
 51
89.999999999999986
  0
ARC
  8
_0-1_
  6
DASHED2
 62
  152
 10
286.58375385978235
 20
462.14627147498072
 40
2
 50
180
 51
270
  0
LINE
  8
_0-1_
  6
CENTER1
 62
  152
 10
27.282935259782562
 20
485.17992423045177
 11
27.282935259782562
 21
439.37403646894609
  0
LINE
  8
_0-1_
  6
CENTER1
 62
  152
 10
435.58375385978235
 20
485.17992423045177
 11
435.58375385978235
 21
439.37403646894609
  0
TEXT
  8
_0-1_
 62
    7
 10
274.27090579692486
 20
422.92036374179116
 40
4.2999999999999998
 41
0.744186046511628
 50
0
  1
APDC-M16R
  0
TEXT
  8
_0-1_
 62
    7
 10
217.8592188105236
 20
486.96479871498582
 40
4.2999999999999998
 41
0.744186046511628
 50
0
  1
APDC-M16S
  0
TEXT
  8
_0-1_
 62
    7
 10
217.8592188105236
 20
219.22614424845455
 40
4.2999999999999998
 41
0.744186046511628
 50
0
  1
APDC-M20S
  0
LINE
  8
_0-1_
  6
CENTER1
 62
  152
 10
9.2829352597825618
 20
640.98520238083358
 11
42.969287271612984
 21
640.98520238083358
  0
LINE
  8
_0-1_
  6
CENTER1
 62
  152
 10
54.826853264530428
 20
553.98520238083358
 11
68.197574941657649
 21
553.98520238083358
  0
LINE
  8
_0-1_
  6
CENTER1
 62
  152
 10
61.282935259781652
 20
544.48520238083358
 11
61.282935259781652
 21
619.13692930037826
  0
LINE
  8
_0-1_
  6
CENTER1
 62
  152
 10
54.826853264530428
 20
613.98520238083358
 11
68.197574941657649
 21
613.98520238083358
  0
LINE
  8
_0-1_
  6
CENTER1
 62
  152
 10
85.080872308546304
 20
617.48520238083358
 11
173.70478990519018
 21
617.48520238083358
  0
LINE
  8
_0-1_
  6
CENTER1
 62
  152
 10
165.78293525978256
 20
625.77246880517407
 11
165.78293525978256
 21
609.23276207764241
  0
LINE
  8
_0-1_
  6
CENTER1
 62
  152
 10
166.05248788148288
 20
603.27246880517407
 11
166.05248788148288
 21
586.73276207764241
  0
LINE
  8
_0-1_
  6
CENTER1
 62
  152
 10
165.78293525978256
 20
580.77246880517407
 11
165.78293525978256
 21
564.23276207764241
  0
LINE
  8
_0-1_
  6
CENTER1
 62
  152
 10
159.70478990519018
 20
558.48520238083358
 11
144.08087230854539
 21
558.48520238083358
  0
LINE
  8
_0-1_
  6
CENTER1
 62
  152
 10
137.20478990519018
 20
558.21564975913236
 11
121.58087230854539
 21
558.21564975913236
  0
LINE
  8
_0-1_
  6
CENTER1
 62
  152
 10
114.70478990519018
 20
558.48520238083358
 11
99.080872308545395
 21
558.48520238083358
  0
LINE
  8
_0-1_
  6
CENTER1
 62
  152
 10
92.782935259782562
 20
564.23276207764241
 11
92.782935259782562
 21
580.77246880517407
  0
LINE
  8
_0-1_
  6
CENTER1
 62
  152
 10
92.513382638081339
 20
586.73276207764241
 11
92.513382638081339
 21
603.27246880517407
  0
LINE
  8
_0-1_
  6
CENTER1
 62
  152
 10
92.782935259782562
 20
609.23276207764241
 11
92.782935259782562
 21
625.77246880517407
  0
LINE
  8
ADD_LINE
  6
DOT
 62
  152
 10
100.28293525978165
 20
627.67469060418136
 11
100.28293525978165
 21
635.29571415748444
  0
LINE
  8
ADD_LINE
  6
DOT
 62
  152
 10
100.23293525978238
 20
635.20911161710603
 11
106.83293525978183
 21
639.0196233937578
  0
LINE
  8
ADD_LINE
  6
DOT
 62
  152
 10
106.73293525978238
 20
639.0196233937578
 11
113.33293525978183
 21
635.20911161710603
  0
LINE
  8
ADD_LINE
  6
DOT
 62
  152
 10
113.28293525978256
 20
635.29571415748444
 11
113.28293525978256
 21
627.67469060418136
  0
LINE
  8
ADD_LINE
  6
DOT
 62
  152
 10
113.33293525978183
 20
627.76129314456023
 11
106.73293525978238
 21
623.95078136790846
  0
LINE
  8
ADD_LINE
  6
DOT
 62
  152
 10
106.83293525978183
 20
623.95078136790846
 11
100.23293525978238
 21
627.76129314456023
  0
LINE
  8
_0-1_
  6
CENTER1
 62
  152
 10
99.080872308545395
 20
631.48520238083313
 11
114.70478990519018
 21
631.48520238083313
  0
LINE
  8
_0-1_
  6
CENTER1
 62
  152
 10
121.58087230854539
 20
631.7547550025339
 11
137.20478990519018
 21
631.7547550025339
  0
LINE
  8
_0-1_
  6
CENTER1
 62
  152
 10
144.08087230854539
 20
631.48520238083313
 11
159.70478990519018
 21
631.48520238083313
  0
LINE
  8
_0-1_
  6
CENTER1
 62
  152
 10
151.78293525978256
 20
639.77246880517407
 11
151.78293525978256
 21
550.23276207764241
  0
LINE
  8
_0-1_
  6
CENTER1
 62
  152
 10
27.282935259782562
 20
622.98520238083358
 11
27.282935259782562
 21
658.98520238083358
  0
LINE
  8
_0-1_
  6
CENTER1
 62
  152
 10
170.28293525978256
 20
669.44128437608572
 11
170.28293525978256
 21
656.0705626989585
  0
LINE
  8
_0-1_
  6
CENTER1
 62
  152
 10
181.27768829729098
 20
662.98520238083313
 11
103.68071817646046
 21
662.98520238083313
  0
LINE
  8
_0-1_
  6
CENTER1
 62
  152
 10
110.28293525978256
 20
669.44128437608572
 11
110.28293525978256
 21
656.0705626989585
  0
LINE
  8
_0-1_
  6
CENTER1
 62
  152
 10
106.78293525978256
 20
639.77246880517407
 11
106.78293525978256
 21
550.23276207764241
  0
LINE
  8
_0-1_
  6
CENTER1
 62
  152
 10
129.28293525978256
 20
549.96320945594209
 11
129.28293525978256
 21
640.04202142687438
  0
LINE
  8
_0-1_
  6
CENTER1
 62
  152
 10
130.28293525978165
 20
656.0705626989585
 11
130.28293525978165
 21
669.44128437608572
  0
LINE
  8
_0-1_
  6
CENTER1
 62
  152
 10
54.826853264530428
 20
593.98520238083267
 11
68.197574941657649
 21
593.98520238083267
  0
LINE
  8
_0-1_
  6
CENTER1
 62
  152
 10
84.811319686845081
 20
594.98520238083358
 11
173.9743425268905
 21
594.98520238083358
  0
LINE
  8
_0-1_
  6
CENTER1
 62
  152
 10
173.70478990519018
 20
572.48520238083358
 11
85.080872308546304
 21
572.48520238083358
  0
LINE
  8
_0-1_
  6
CENTER1
 62
  152
 10
453.58375385978235
 20
640.98520238083358
 11
417.58375385978235
 21
640.98520238083358
  0
LINE
  8
_0-1_
  6
CENTER1
 62
  152
 10
408.03983585503448
 20
553.98520238083358
 11
394.66911417790726
 21
553.98520238083358
  0
LINE
  8
_0-1_
  6
CENTER1
 62
  152
 10
401.58375385978326
 20
544.48520238083358
 11
401.58375385978326
 21
619.13692930037826
  0
LINE
  8
_0-1_
  6
CENTER1
 62
  152
 10
408.03983585503448
 20
613.98520238083358
 11
394.66911417790726
 21
613.98520238083358
  0
LINE
  8
_0-1_
  6
CENTER1
 62
  152
 10
377.78581681101861
 20
617.48520238083358
 11
289.16189921437473
 21
617.48520238083358
  0
LINE
  8
_0-1_
  6
CENTER1
 62
  152
 10
297.08375385978235
 20
625.77246880517407
 11
297.08375385978235
 21
609.23276207764241
  0
LINE
  8
_0-1_
  6
CENTER1
 62
  152
 10
296.81420123808203
 20
603.27246880517407
 11
296.81420123808203
 21
586.73276207764241
  0
LINE
  8
_0-1_
  6
CENTER1
 62
  152
 10
297.08375385978235
 20
580.77246880517407
 11
297.08375385978235
 21
564.23276207764241
  0
LINE
  8
_0-1_
  6
CENTER1
 62
  152
 10
303.16189921437473
 20
558.48520238083358
 11
318.78581681101861
 21
558.48520238083358
  0
LINE
  8
_0-1_
  6
CENTER1
 62
  152
 10
325.66189921437473
 20
558.21564975913236
 11
341.28581681101861
 21
558.21564975913236
  0
LINE
  8
_0-1_
  6
CENTER1
 62
  152
 10
348.16189921437473
 20
558.48520238083358
 11
363.78581681101861
 21
558.48520238083358
  0
LINE
  8
_0-1_
  6
CENTER1
 62
  152
 10
370.08375385978144
 20
564.23276207764241
 11
370.08375385978144
 21
580.77246880517407
  0
LINE
  8
_0-1_
  6
CENTER1
 62
  152
 10
370.35330648148266
 20
586.73276207764241
 11
370.35330648148266
 21
603.27246880517407
  0
LINE
  8
_0-1_
  6
CENTER1
 62
  152
 10
370.08375385978144
 20
609.23276207764241
 11
370.08375385978144
 21
625.77246880517407
  0
LINE
  8
ADD_LINE
  6
DOT
 62
  152
 10
362.58375385978326
 20
627.67469060418136
 11
362.58375385978326
 21
635.29571415748444
  0
LINE
  8
ADD_LINE
  6
DOT
 62
  152
 10
362.63375385978253
 20
635.20911161710603
 11
356.03375385978217
 21
639.0196233937578
  0
LINE
  8
ADD_LINE
  6
DOT
 62
  152
 10
356.13375385978253
 20
639.0196233937578
 11
349.53375385978217
 21
635.20911161710603
  0
LINE
  8
ADD_LINE
  6
DOT
 62
  152
 10
349.58375385978235
 20
635.29571415748444
 11
349.58375385978235
 21
627.67469060418136
  0
LINE
  8
ADD_LINE
  6
DOT
 62
  152
 10
349.53375385978217
 20
627.76129314456023
 11
356.13375385978253
 21
623.95078136790846
  0
LINE
  8
ADD_LINE
  6
DOT
 62
  152
 10
356.03375385978217
 20
623.95078136790846
 11
362.63375385978253
 21
627.76129314456023
  0
LINE
  8
_0-1_
  6
CENTER1
 62
  152
 10
363.78581681101861
 20
631.48520238083313
 11
348.16189921437473
 21
631.48520238083313
  0
LINE
  8
_0-1_
  6
CENTER1
 62
  152
 10
341.28581681101861
 20
631.7547550025339
 11
325.66189921437473
 21
631.7547550025339
  0
LINE
  8
_0-1_
  6
CENTER1
 62
  152
 10
318.78581681101861
 20
631.48520238083313
 11
303.16189921437473
 21
631.48520238083313
  0
LINE
  8
_0-1_
  6
CENTER1
 62
  152
 10
311.08375385978235
 20
639.77246880517407
 11
311.08375385978235
 21
550.23276207764241
  0
LINE
  8
_0-1_
  6
CENTER1
 62
  152
 10
333.58375385978235
 20
549.96320945594209
 11
333.58375385978235
 21
640.04202142687438
  0
LINE
  8
_0-1_
  6
CENTER1
 62
  152
 10
332.58375385978326
 20
656.0705626989585
 11
332.58375385978331
 21
669.44128437608572
  0
LINE
  8
_0-1_
  6
CENTER1
 62
  152
 10
352.58375385978241
 20
669.44128437608572
 11
352.58375385978235
 21
656.0705626989585
  0
LINE
  8
_0-1_
  6
CENTER1
 62
  152
 10
359.18597094310451
 20
662.98520238083313
 11
281.58900082227302
 21
662.98520238083313
  0
LINE
  8
_0-1_
  6
CENTER1
 62
  152
 10
435.58375385978235
 20
658.98520238083358
 11
435.58375385978235
 21
622.98520238083358
  0
LINE
  8
_0-1_
  6
CENTER1
 62
  152
 10
292.58375385978235
 20
669.44128437608572
 11
292.58375385978235
 21
656.0705626989585
  0
LINE
  8
_0-1_
  6
CENTER1
 62
  152
 10
288.89234659267441
 20
594.98520238083358
 11
378.05536943271983
 21
594.98520238083358
  0
LINE
  8
_0-1_
  6
CENTER1
 62
  152
 10
394.66911417790726
 20
593.98520238083267
 11
408.03983585503448
 21
593.98520238083267
  0
LINE
  8
_0-1_
  6
CENTER1
 62
  152
 10
377.78581681101861
 20
572.48520238083358
 11
289.16189921437473
 21
572.48520238083358
  0
LINE
  8
_0-1_
  6
CENTER1
 62
  152
 10
356.08375385978235
 20
550.23276207764241
 11
356.08375385978235
 21
639.77246880517407
  0
ARC
  8
_0-1_
  6
DASHED2
 62
  152
 10
27.282935259782562
 20
640.98520238083358
 40
18.523359771800003
 50
45.697806698116267
 51
314.30219330188373
  0
ARC
  8
_0-1_
  6
DASHED2
 62
  152
 10
37.759575487982829
 20
651.72019234491165
 40
3.5233597718000005
 50
0
 51
45.697806698115791
  0
LINE
  8
_0-1_
  6
DASHED2
 62
  152
 10
41.282935259782562
 20
630.25021241675506
 11
41.282935259782562
 21
651.72019234491165
  0
ARC
  8
_0-1_
  6
DASHED2
 62
  152
 10
37.759575487982829
 20
630.25021241675506
 40
3.5233597718000005
 50
314.30219330188424
 51
0
  0
ARC
  8
_0-1_
  6
DASHED2
 62
  152
 10
435.58375385978235
 20
640.98520238083358
 40
18.523359771800003
 50
225.69780669811627
 51
134.30219330188373
  0
ARC
  8
_0-1_
  6
DASHED2
 62
  152
 10
425.10711363158208
 20
651.72019234491165
 40
3.5233597718000005
 50
134.30219330188422
 51
180
  0
LINE
  8
_0-1_
  6
DASHED2
 62
  152
 10
421.58375385978235
 20
651.72019234491165
 11
421.58375385978235
 21
630.25021241675506
  0
ARC
  8
_0-1_
  6
DASHED2
 62
  152
 10
425.10711363158208
 20
630.25021241675506
 40
3.5233597718000005
 50
180
 51
225.69780669811578
  0
LINE
  8
_0-1_
  6
DASHED2
 62
  152
 10
176.2829352597825
 20
727.88492594151205
 11
55.610589739348825
 21
727.88492594151205
  0
LINE
  8
_0-1_
  6
DASHED2
 62
  152
 10
53.613330669839115
 20
725.98959785399768
 11
53.314116848440563
 21
720.28025802902596
  0
ARC
  8
_0-1_
  6
DASHED2
 62
  152
 10
55.610589739348825
 20
725.8849259415116
 40
2
 50
90
 51
176.99999999999937
  0
ARC
  8
_0-1_
  6
DASHED2
 62
  152
 10
176.2829352597825
 20
729.88492594151205
 40
2
 50
270
 51
0
  0
LINE
  8
_0-1_
  6
DASHED2
 62
  152
 10
286.58375385978235
 20
727.88492594151205
 11
407.25609938021609
 21
727.88492594151205
  0
LINE
  8
_0-1_
  6
DASHED2
 62
  152
 10
409.25335844972579
 20
725.98959785399768
 11
409.55257227112435
 21
720.28025802902596
  0
ARC
  8
_0-1_
  6
DASHED2
 62
  152
 10
407.25609938021609
 20
725.8849259415116
 40
2
 50
3.0000000000006275
 51
89.999999999999986
  0
ARC
  8
_0-1_
  6
DASHED2
 62
  152
 10
286.58375385978235
 20
729.88492594151205
 40
2
 50
180
 51
270
  0
LINE
  8
_0-1_
  6
CENTER1
 62
  152
 10
27.282935259782562
 20
752.9185786969831
 11
27.282935259782562
 21
707.1126909354773
  0
LINE
  8
_0-1_
  6
CENTER1
 62
  152
 10
435.58375385978235
 20
752.9185786969831
 11
435.58375385978235
 21
707.1126909354773
  0
CIRCLE
  8
_0-1_
  6
CONTINUOUS
 62
  152
 10
27.282935259782562
 20
640.98520238083358
 40
6
  0
CIRCLE
  8
_0-1_
  6
CONTINUOUS
 62
  152
 10
435.58375385978235
 20
640.98520238083358
 40
6
  0
TEXT
  8
_0-1_
 62
    7
 10
27.970087196925078
 20
690.65901820832244
 40
4.2999999999999998
 41
0.744186046511628
 50
0
  1
APDC-M12L
  0
TEXT
  8
_0-1_
 62
    7
 10
274.27090579692486
 20
690.65901820832244
 40
4.2999999999999998
 41
0.744186046511628
 50
0
  1
APDC-M12R
  0
TEXT
  8
_0-1_
 62
    7
 10
217.8592188105236
 20
754.70345318151715
 40
4.2999999999999998
 41
0.744186046511628
 50
0
  1
APDC-M12S
  0
ENDSEC
  0
EOF
