  0
SECTION
  2
HEADER
  9
$ACADVER
  1
AC1009
  9
$INSBASE
 10
0
 20
0
 30
0
  9
$EXTMIN
 10
0
 20
0
  9
$EXTMAX
 10
1189
 20
841
  9
$LIMMIN
 10
0
 20
0
  9
$LIMMAX
 10
1189
 20
841
  9
$LTSCALE
 40
1
  0
ENDSEC
  0
SECTION
  2
TABLES
  0
TABLE
  2
LTYPE
 70
     9
  0
LTYPE
  2
CONTINUOUS
 70
    64
  3
実線
 72
    65
 73
     0
 40
0.0
  0
LTYPE
  2
DASHED1
 70
    64
  3
--  --  --  --  --  --  --  --  
 72
    65
 73
     2
 40
2.5
 49
1.25
 49
-1.25
  0
LTYPE
  2
DASHED2
 70
    64
  3
----    ----    ----    ----    
 72
    65
 73
     2
 40
5.0
 49
2.5
 49
-2.5
  0
LTYPE
  2
DASHED3
 70
    64
  3
------  ------  ------  ------  
 72
    65
 73
     2
 40
5.0
 49
3.75
 49
-1.25
  0
LTYPE
  2
CENTER1
 70
    64
  3
----- - ----- - ----- - ----- - 
 72
    65
 73
     4
 40
10.0
 49
6.25
 49
-1.25
 49
1.25
 49
-1.25
  0
LTYPE
  2
CENTER2
 70
    64
  3
----------  --  ----------  --  
 72
    65
 73
     4
 40
20.0
 49
12.5
 49
-2.5
 49
2.5
 49
-2.5
  0
LTYPE
  2
PHANTOM1
 70
    64
  3
--- - - --- - - --- - - --- - - 
 72
    65
 73
     6
 40
10.0
 49
3.25
 49
-1.25
 49
1.25
 49
-1.25
 49
1.25
 49
-1.25
  0
LTYPE
  2
PHANTOM2
 70
    64
  3
--------  -  -  --------  -  -  
 72
    65
 73
     6
 40
20.0
 49
10.0
 49
-2.5
 49
1.25
 49
-2.5
 49
1.25
 49
-2.5
  0
LTYPE
  2
DOT
 70
    64
  3
-   -   -   -   -   -   -   -   
 72
    65
 73
     2
 40
2.5
 49
0.625
 49
-1.875
  0
LTYPE
  2
DUMMY
 70
    64
  3
ダミー
 72
    65
 73
     0
 40
0.0
  0
LTYPE
  2
RAND1
 70
    64
  3
ランダム線1
 72
    65
 73
     4
 40
10.0
 49
1.0
 49
-2.0
 49
3.0
 49
-4.0
  0
LTYPE
  2
RAND2
 70
    64
  3
ランダム線2
 72
    65
 73
     4
 40
14.0
 49
2.0
 49
-3.0
 49
4.0
 49
-5.0
  0
LTYPE
  2
RAND3
 70
    64
  3
ランダム線3
 72
    65
 73
     4
 40
18.0
 49
3.0
 49
-4.0
 49
5.0
 49
-6.0
  0
LTYPE
  2
RAND4
 70
    64
  3
ランダム線4
 72
    65
 73
     4
 40
22.0
 49
4.0
 49
-5.0
 49
6.0
 49
-7.0
  0
LTYPE
  2
RAND5
 70
    64
  3
ランダム線5
 72
    65
 73
     4
 40
26.0
 49
5.0
 49
-6.0
 49
7.0
 49
-8.0
  0
LTYPE
  2
LONG1
 70
    64
  3
----------  --  ----------  --  
 72
    65
 73
     4
 40
40.0
 49
32.5
 49
-2.5
 49
2.5
 49
-2.5
  0
LTYPE
  2
LONG2
 70
    64
  3
--------  -  -  --------  -  -  
 72
    65
 73
     6
 40
40.0
 49
30.0
 49
-2.5
 49
1.25
 49
-2.5
 49
1.25
 49
-2.5
  0
LTYPE
  2
LONG3
 70
    64
  3
+++++++++++++++..+++++++++++++++
 72
    65
 73
     2
 40
40.0
 49
37.5
 49
-2.5
  0
LTYPE
  2
LONG4
 70
    64
  3
+++++++++++++++..+++++++++++++++
 72
    65
 73
     2
 40
80.0
 49
75.0
 49
-5.0
  0
LTYPE
  2
LONG5
 70
    64
  3
----------  --  ----------  --  
 72
    65
 73
     4
 40
60.0
 49
37.5
 49
-7.5
 49
7.5
 49
-7.5
  0
LTYPE
  2
dashed
 70
   64
  3
-------   -------------   ------
 72
   65
 73
    2
 40
7.5
 49
6
 49
-1.5
  0
LTYPE
  2
dashed_spaced
 70
   64
  3
----        --------        ----
 72
   65
 73
    2
 40
12
 49
6
 49
-6
  0
LTYPE
  2
long_dashed_dotted
 70
   64
  3
------------- --- --------------
 72
   65
 73
    4
 40
15.25
 49
12
 49
-1.5
 49
0.25
 49
-1.5
  0
LTYPE
  2
long_dashed_double-dotted
 70
   64
  3
----------- --- --- ------------
 72
   65
 73
    6
 40
17
 49
12
 49
-1.5
 49
0.25
 49
-1.5
 49
0.25
 49
-1.5
  0
LTYPE
  2
long_dashed_triplicate-dotted
 70
   64
  3
--------- --- --- --- ----------
 72
   65
 73
    8
 40
18.75
 49
12
 49
-1.5
 49
0.25
 49
-1.5
 49
0.25
 49
-1.5
 49
0.25
 49
-1.5
  0
LTYPE
  2
dotted
 70
   64
  3
   -       -       -       -    
 72
   65
 73
    2
 40
1.75
 49
0.25
 49
-1.5
  0
LTYPE
  2
chain
 70
   64
  3
-------------- -- --------------
 72
   65
 73
    4
 40
18.5
 49
12
 49
-1.5
 49
3.5
 49
-1.5
  0
LTYPE
  2
chain_double_dash
 70
   64
  3
------------ -- -- -------------
 72
   65
 73
    6
 40
23.5
 49
12
 49
-1.5
 49
3.5
 49
-1.5
 49
3.5
 49
-1.5
  0
LTYPE
  2
dashed_dotted
 70
   64
  3
-----------     -     ----------
 72
   65
 73
    4
 40
9.25
 49
6
 49
-1.5
 49
0.25
 49
-1.5
  0
LTYPE
  2
double-dashed_dotted
 70
   64
  3
------   -----------   -   -----
 72
   65
 73
    6
 40
16.75
 49
6
 49
-1.5
 49
6
 49
-1.5
 49
0.25
 49
-1.5
  0
LTYPE
  2
dashed_double-dotted
 70
   64
  3
---------    -    -    ---------
 72
   65
 73
    6
 40
11
 49
6
 49
-1.5
 49
0.25
 49
-1.5
 49
0.25
 49
-1.5
  0
LTYPE
  2
double-dashed_double-dotted
 70
   64
  3
-----   ---------   -   -   ----
 72
   65
 73
    8
 40
18.5
 49
6
 49
-1.5
 49
6
 49
-1.5
 49
0.25
 49
-1.5
 49
0.25
 49
-1.5
  0
LTYPE
  2
dashed_triplicate-dotted
 70
   64
  3
-------    -    -    -    ------
 72
   65
 73
    8
 40
12.75
 49
6
 49
-1.5
 49
0.25
 49
-1.5
 49
0.25
 49
-1.5
 49
0.25
 49
-1.5
  0
LTYPE
  2
double-dashed_triplicate-dotted
 70
   64
  3
-----  ---------  -  -  -  -----
 72
   65
 73
   10
 40
20.25
 49
6
 49
-1.5
 49
6
 49
-1.5
 49
0.25
 49
-1.5
 49
0.25
 49
-1.5
 49
0.25
 49
-1.5
  0
LTYPE
  2
undefined
 70
   64
  3
--------------------------------
 72
   65
 73
    0
 40
0
  0
ENDTAB
  0
TABLE
  2
STYLE
  5
3
100
AcDbSymbolTable
 70
     1
  0
STYLE
  5
10
100
AcDbSymbolTableRecord
100
AcDbTextStyleTableRecord
  2
STANDARD
 70
     0
 40
0.0
 41
1.0
 50
0.0
 71
     0
 42
0.2
  3
txt
  4
bigfont.shx
  0
STYLE
  5
26
100
AcDbSymbolTableRecord
100
AcDbTextStyleTableRecord
  2
TATEGAKI
 70
    68
 40
0.0
 41
1.0
 50
0.0
 71
     0
 42
1.0
  3
txt
  4
bigfont.shx
  0
ENDTAB
  0
TABLE
  2
LAYER
 70
    3
  0
LAYER
  2
_0-0_
 70
   64
 62
    7
  6
CONTINUOUS
  0
LAYER
  2
_0-1_
 70
   64
 62
    7
  6
CONTINUOUS
  0
LAYER
  2
ADD_LINE
 70
   64
 62
    7
  6
CONTINUOUS
  0
ENDTAB
  0
ENDSEC
  0
SECTION
  2
BLOCKS
  0
ENDSEC
  0
SECTION
  2
ENTITIES
  0
LINE
  8
_0-0_
  6
CONTINUOUS
 62
    7
 10
191.23392360738433
 20
188.03086052321572
 11
191.23392360738433
 21
40.030860523215722
  0
LINE
  8
_0-0_
  6
CONTINUOUS
 62
    7
 10
191.23392360738433
 20
40.030860523215722
 11
190.23392360738433
 21
39.030860523215722
  0
LINE
  8
_0-0_
  6
CONTINUOUS
 62
    7
 10
190.23392360738433
 20
39.030860523215722
 11
7.2339236073843267
 21
39.030860523215722
  0
LINE
  8
_0-0_
  6
CONTINUOUS
 62
    7
 10
7.2339236073843267
 20
39.030860523215722
 11
6.2339236073843267
 21
40.030860523215722
  0
LINE
  8
_0-0_
  6
CONTINUOUS
 62
    7
 10
6.2339236073843267
 20
40.030860523215722
 11
6.2339236073843267
 21
188.03086052321572
  0
LINE
  8
_0-0_
  6
CONTINUOUS
 62
    7
 10
6.2339236073843267
 20
188.03086052321572
 11
7.2339236073843267
 21
189.03086052321572
  0
LINE
  8
_0-0_
  6
CONTINUOUS
 62
    7
 10
7.2339236073843267
 20
189.03086052321572
 11
190.23392360738433
 21
189.03086052321572
  0
LINE
  8
_0-0_
  6
CONTINUOUS
 62
    7
 10
190.23392360738433
 20
189.03086052321572
 11
191.23392360738433
 21
188.03086052321572
  0
CIRCLE
  8
_0-0_
  6
CONTINUOUS
 62
    7
 10
26.233923607384327
 20
109.03086052321572
 40
3.2999999523162833
  0
CIRCLE
  8
_0-0_
  6
CONTINUOUS
 62
    7
 10
26.233923607384327
 20
49.030860523215722
 40
3.2999999523162833
  0
CIRCLE
  8
_0-0_
  6
CONTINUOUS
 62
    7
 10
181.23392360738433
 20
169.03086052321572
 40
3.2999999523162842
  0
CIRCLE
  8
_0-0_
  6
CONTINUOUS
 62
    7
 10
121.23392360738433
 20
169.03086052321572
 40
3.2999999523162842
  0
CIRCLE
  8
_0-0_
  6
CONTINUOUS
 62
    7
 10
57.233923607384327
 20
138.03086052321572
 40
10
  0
CIRCLE
  8
_0-0_
  6
CONTINUOUS
 62
    7
 10
106.23392360738433
 20
51.030860523215722
 40
4
  0
CIRCLE
  8
_0-0_
  6
CONTINUOUS
 62
    7
 10
118.23392360738433
 20
65.030860523215722
 40
4
  0
CIRCLE
  8
_0-0_
  6
CONTINUOUS
 62
    7
 10
106.23392360738433
 20
96.030860523215722
 40
4
  0
CIRCLE
  8
_0-0_
  6
CONTINUOUS
 62
    7
 10
118.23392360738433
 20
117.03086052321572
 40
4
  0
CIRCLE
  8
_0-0_
  6
CONTINUOUS
 62
    7
 10
170.23392360738433
 20
117.03086052321572
 40
4
  0
CIRCLE
  8
_0-0_
  6
CONTINUOUS
 62
    7
 10
179.23392360738433
 20
96.030860523215722
 40
4
  0
CIRCLE
  8
_0-0_
  6
CONTINUOUS
 62
    7
 10
170.23392360738433
 20
65.030860523215722
 40
4
  0
CIRCLE
  8
_0-0_
  6
CONTINUOUS
 62
    7
 10
179.23392360738433
 20
51.030860523215722
 40
4
  0
LINE
  8
_0-0_
  6
CONTINUOUS
 62
    7
 10
424.23392360738433
 20
188.03086052321572
 11
424.23392360738433
 21
40.030860523215722
  0
LINE
  8
_0-0_
  6
CONTINUOUS
 62
    7
 10
424.23392360738433
 20
40.030860523215722
 11
423.23392360738433
 21
39.030860523215722
  0
LINE
  8
_0-0_
  6
CONTINUOUS
 62
    7
 10
423.23392360738433
 20
39.030860523215722
 11
240.23392360738433
 21
39.030860523215722
  0
LINE
  8
_0-0_
  6
CONTINUOUS
 62
    7
 10
240.23392360738433
 20
39.030860523215722
 11
239.23392360738433
 21
40.030860523215722
  0
LINE
  8
_0-0_
  6
CONTINUOUS
 62
    7
 10
239.23392360738433
 20
40.030860523215722
 11
239.23392360738433
 21
188.03086052321572
  0
LINE
  8
_0-0_
  6
CONTINUOUS
 62
    7
 10
239.23392360738433
 20
188.03086052321572
 11
240.23392360738433
 21
189.03086052321572
  0
LINE
  8
_0-0_
  6
CONTINUOUS
 62
    7
 10
240.23392360738433
 20
189.03086052321572
 11
423.23392360738433
 21
189.03086052321572
  0
LINE
  8
_0-0_
  6
CONTINUOUS
 62
    7
 10
423.23392360738433
 20
189.03086052321572
 11
424.23392360738433
 21
188.03086052321572
  0
CIRCLE
  8
_0-0_
  6
CONTINUOUS
 62
    7
 10
259.23392360738433
 20
109.03086052321572
 40
3.2999999523162833
  0
CIRCLE
  8
_0-0_
  6
CONTINUOUS
 62
    7
 10
259.23392360738433
 20
49.030860523215722
 40
3.2999999523162833
  0
CIRCLE
  8
_0-0_
  6
CONTINUOUS
 62
    7
 10
414.23392360738433
 20
169.03086052321572
 40
3.2999999523162842
  0
CIRCLE
  8
_0-0_
  6
CONTINUOUS
 62
    7
 10
354.23392360738433
 20
169.03086052321572
 40
3.2999999523162842
  0
CIRCLE
  8
_0-0_
  6
CONTINUOUS
 62
    7
 10
290.23392360738433
 20
138.03086052321572
 40
8
  0
CIRCLE
  8
_0-0_
  6
CONTINUOUS
 62
    7
 10
339.23392360738433
 20
51.030860523215722
 40
4
  0
CIRCLE
  8
_0-0_
  6
CONTINUOUS
 62
    7
 10
339.23392360738433
 20
96.030860523215722
 40
4
  0
CIRCLE
  8
_0-0_
  6
CONTINUOUS
 62
    7
 10
351.23392360738433
 20
65.030860523215722
 40
4
  0
CIRCLE
  8
_0-0_
  6
CONTINUOUS
 62
    7
 10
351.23392360738433
 20
117.03086052321572
 40
4
  0
CIRCLE
  8
_0-0_
  6
CONTINUOUS
 62
    7
 10
403.23392360738433
 20
117.03086052321572
 40
4
  0
CIRCLE
  8
_0-0_
  6
CONTINUOUS
 62
    7
 10
412.23392360738433
 20
96.030860523215722
 40
4
  0
CIRCLE
  8
_0-0_
  6
CONTINUOUS
 62
    7
 10
403.23392360738433
 20
65.030860523215722
 40
4
  0
CIRCLE
  8
_0-0_
  6
CONTINUOUS
 62
    7
 10
412.23392360738433
 20
51.030860523215722
 40
4
  0
LINE
  8
_0-0_
  6
CONTINUOUS
 62
    7
 10
657.23392360738433
 20
188.03086052321572
 11
656.23392360738433
 21
189.03086052321572
  0
LINE
  8
_0-0_
  6
CONTINUOUS
 62
    7
 10
656.23392360738433
 20
189.03086052321572
 11
473.23392360738433
 21
189.03086052321572
  0
LINE
  8
_0-0_
  6
CONTINUOUS
 62
    7
 10
473.23392360738433
 20
189.03086052321572
 11
472.23392360738433
 21
188.03086052321572
  0
LINE
  8
_0-0_
  6
CONTINUOUS
 62
    7
 10
472.23392360738433
 20
188.03086052321572
 11
472.23392360738433
 21
40.030860523215722
  0
LINE
  8
_0-0_
  6
CONTINUOUS
 62
    7
 10
472.23392360738433
 20
40.030860523215722
 11
473.23392360738433
 21
39.030860523215722
  0
LINE
  8
_0-0_
  6
CONTINUOUS
 62
    7
 10
473.23392360738433
 20
39.030860523215722
 11
656.23392360738433
 21
39.030860523215722
  0
LINE
  8
_0-0_
  6
CONTINUOUS
 62
    7
 10
656.23392360738433
 20
39.030860523215722
 11
657.23392360738433
 21
40.030860523215722
  0
LINE
  8
_0-0_
  6
CONTINUOUS
 62
    7
 10
657.23392360738433
 20
40.030860523215722
 11
657.23392360738433
 21
188.03086052321572
  0
LINE
  8
_0-0_
  6
CONTINUOUS
 62
    7
 10
472.23392360738433
 20
19.814606776710832
 11
472.23392360738433
 21
4.814606776710832
  0
LINE
  8
_0-0_
  6
CONTINUOUS
 62
    7
 10
472.23392360738433
 20
4.814606776710832
 11
657.23392360738433
 21
4.814606776710832
  0
LINE
  8
_0-0_
  6
CONTINUOUS
 62
    7
 10
657.23392360738433
 20
4.814606776710832
 11
657.23392360738433
 21
19.814606776710832
  0
LINE
  8
_0-0_
  6
CONTINUOUS
 62
    7
 10
657.23392360738433
 20
19.814606776710832
 11
472.23392360738433
 21
19.814606776710832
  0
CIRCLE
  8
_0-0_
  6
CONTINUOUS
 62
    7
 10
492.23392360738433
 20
109.03086052321572
 40
3.2999999523162833
  0
CIRCLE
  8
_0-0_
  6
CONTINUOUS
 62
    7
 10
492.23392360738433
 20
49.030860523215722
 40
3.2999999523162833
  0
CIRCLE
  8
_0-0_
  6
CONTINUOUS
 62
    7
 10
647.23392360738433
 20
169.03086052321572
 40
3.2999999523162842
  0
CIRCLE
  8
_0-0_
  6
CONTINUOUS
 62
    7
 10
587.23392360738433
 20
169.03086052321572
 40
3.2999999523162842
  0
CIRCLE
  8
_0-0_
  6
CONTINUOUS
 62
    7
 10
523.23392360738433
 20
138.03086052321572
 40
6
  0
CIRCLE
  8
_0-0_
  6
CONTINUOUS
 62
    7
 10
584.23392360738433
 20
117.03086052321572
 40
4
  0
CIRCLE
  8
_0-0_
  6
CONTINUOUS
 62
    7
 10
572.23392360738433
 20
96.030860523215722
 40
4
  0
CIRCLE
  8
_0-0_
  6
CONTINUOUS
 62
    7
 10
572.23392360738433
 20
51.030860523215722
 40
4
  0
CIRCLE
  8
_0-0_
  6
CONTINUOUS
 62
    7
 10
584.23392360738433
 20
65.030860523215722
 40
4
  0
CIRCLE
  8
_0-0_
  6
CONTINUOUS
 62
    7
 10
645.23392360738433
 20
51.030860523215722
 40
4
  0
CIRCLE
  8
_0-0_
  6
CONTINUOUS
 62
    7
 10
636.23392360738433
 20
65.030860523215722
 40
4
  0
CIRCLE
  8
_0-0_
  6
CONTINUOUS
 62
    7
 10
636.23392360738433
 20
117.03086052321572
 40
4
  0
CIRCLE
  8
_0-0_
  6
CONTINUOUS
 62
    7
 10
645.23392360738433
 20
96.030860523215722
 40
4
  0
LINE
  8
_0-0_
  6
CONTINUOUS
 62
    7
 10
473.23392360738433
 20
19.814606776710832
 11
473.23392360738433
 21
4.814606776710832
  0
LINE
  8
_0-0_
  6
CONTINUOUS
 62
    7
 10
656.23392360738433
 20
4.814606776710832
 11
656.23392360738433
 21
19.814606776710832
  0
LINE
  8
_0-0_
  6
CONTINUOUS
 62
    7
 10
239.23392360738433
 20
19.814606776710832
 11
239.23392360738433
 21
4.814606776710832
  0
LINE
  8
_0-0_
  6
CONTINUOUS
 62
    7
 10
239.23392360738433
 20
4.814606776710832
 11
424.23392360738433
 21
4.814606776710832
  0
LINE
  8
_0-0_
  6
CONTINUOUS
 62
    7
 10
424.23392360738433
 20
4.814606776710832
 11
424.23392360738433
 21
19.814606776710832
  0
LINE
  8
_0-0_
  6
CONTINUOUS
 62
    7
 10
424.23392360738433
 20
19.814606776710832
 11
239.23392360738433
 21
19.814606776710832
  0
LINE
  8
_0-0_
  6
CONTINUOUS
 62
    7
 10
240.23392360738433
 20
19.814606776710832
 11
240.23392360738433
 21
4.814606776710832
  0
LINE
  8
_0-0_
  6
CONTINUOUS
 62
    7
 10
423.23392360738433
 20
4.814606776710832
 11
423.23392360738433
 21
19.814606776710832
  0
LINE
  8
_0-0_
  6
CONTINUOUS
 62
    7
 10
6.2339236073843267
 20
19.814606776710832
 11
6.2339236073843267
 21
4.814606776710832
  0
LINE
  8
_0-0_
  6
CONTINUOUS
 62
    7
 10
6.2339236073843267
 20
4.814606776710832
 11
191.23392360738433
 21
4.814606776710832
  0
LINE
  8
_0-0_
  6
CONTINUOUS
 62
    7
 10
191.23392360738433
 20
4.814606776710832
 11
191.23392360738433
 21
19.814606776710832
  0
LINE
  8
_0-0_
  6
CONTINUOUS
 62
    7
 10
191.23392360738433
 20
19.814606776710832
 11
6.2339236073843267
 21
19.814606776710832
  0
LINE
  8
_0-0_
  6
CONTINUOUS
 62
    7
 10
7.2339236073843267
 20
19.814606776710832
 11
7.2339236073843267
 21
4.814606776710832
  0
LINE
  8
_0-0_
  6
CONTINUOUS
 62
    7
 10
190.23392360738433
 20
4.814606776710832
 11
190.23392360738433
 21
19.814606776710832
  0
LINE
  8
_0-1_
  6
CENTER1
 62
  152
 10
181.23392360738433
 20
176.75246614792417
 11
181.23392360738433
 21
161.19708761247597
  0
LINE
  8
_0-1_
  6
CENTER1
 62
  152
 10
188.05989067020744
 20
169.03086052321572
 11
109.5571002880846
 21
169.03086052321572
  0
LINE
  8
_0-1_
  6
CENTER1
 62
  152
 10
121.23392360738433
 20
176.436173580093
 11
121.23392360738433
 21
161.19708761247597
  0
LINE
  8
_0-1_
  6
CENTER1
 62
  152
 10
118.23392360738433
 20
123.38358065731444
 11
118.23392360738433
 21
58.311041447633841
  0
LINE
  8
_0-1_
  6
CENTER1
 62
  152
 10
111.28877420542847
 20
65.030860523215722
 11
177.38856616246574
 21
65.030860523215722
  0
LINE
  8
_0-1_
  6
CENTER1
 62
  152
 10
170.23392360738433
 20
58.311041447633841
 11
170.23392360738433
 21
123.38358065731444
  0
LINE
  8
_0-1_
  6
CENTER1
 62
  152
 10
177.38856616246574
 20
117.03086052321572
 11
111.28877420542847
 21
117.03086052321572
  0
LINE
  8
_0-1_
  6
CENTER1
 62
  152
 10
106.23392360738433
 20
102.38358065731444
 11
106.23392360738433
 21
42.778420220024998
  0
LINE
  8
_0-1_
  6
CENTER1
 62
  152
 10
98.531860656148069
 20
51.030860523215722
 11
187.15577825279286
 21
51.030860523215722
  0
LINE
  8
_0-1_
  6
CENTER1
 62
  152
 10
179.23392360738433
 20
42.778420220024998
 11
179.23392360738433
 21
104.31812694755621
  0
LINE
  8
_0-1_
  6
CENTER1
 62
  152
 10
187.15577825279286
 20
96.030860523215722
 11
116.07513129663073
 21
96.030860523215722
  0
LINE
  8
_0-1_
  6
CENTER1
 62
  152
 10
113.38856616246574
 20
96.030860523215722
 11
99.288774205428467
 21
96.030860523215722
  0
LINE
  8
_0-1_
  6
CENTER1
 62
  152
 10
70.610780739354936
 20
138.03086052321572
 11
44.184731004912805
 21
138.03086052321572
  0
LINE
  8
_0-1_
  6
CENTER1
 62
  152
 10
57.233923607384327
 20
124.81084864849225
 11
57.233923607384327
 21
152.39593565198851
  0
LINE
  8
_0-1_
  6
CENTER1
 62
  152
 10
34.06769651812408
 20
109.03086052321572
 11
17.282343924902648
 21
109.03086052321572
  0
LINE
  8
_0-1_
  6
CENTER1
 62
  152
 10
26.233923607384327
 20
116.00216540367836
 11
26.233923607384327
 21
42.242891973044777
  0
LINE
  8
_0-1_
  6
CENTER1
 62
  152
 10
34.06769651812408
 20
49.030860523215722
 11
17.391573736681835
 21
49.030860523215722
  0
CIRCLE
  8
_0-1_
  6
CONTINUOUS
 62
  152
 10
106.23392360738433
 20
96.030860523215722
 40
3.4500000476837158
  0
CIRCLE
  8
_0-1_
  6
CONTINUOUS
 62
  152
 10
106.23392360738433
 20
51.030860523215722
 40
3.4500000476837158
  0
CIRCLE
  8
_0-1_
  6
CONTINUOUS
 62
  152
 10
179.23392360738433
 20
51.030860523215722
 40
3.4500000476837158
  0
CIRCLE
  8
_0-1_
  6
CONTINUOUS
 62
  152
 10
179.23392360738433
 20
96.030860523215722
 40
3.4500000476837158
  0
CIRCLE
  8
_0-1_
  6
CONTINUOUS
 62
  152
 10
118.23392360738433
 20
117.03086052321572
 40
3.4500000476837158
  0
CIRCLE
  8
_0-1_
  6
CONTINUOUS
 62
  152
 10
170.23392360738433
 20
117.03086052321572
 40
3.4500000476837158
  0
CIRCLE
  8
_0-1_
  6
CONTINUOUS
 62
  152
 10
170.23392360738433
 20
65.030860523215722
 40
3.4500000476837158
  0
CIRCLE
  8
_0-1_
  6
CONTINUOUS
 62
  152
 10
118.23392360738433
 20
65.030860523215722
 40
3.4500000476837158
  0
CIRCLE
  8
_0-1_
  6
CONTINUOUS
 62
  152
 10
57.233923607384327
 20
138.03086052321572
 40
9
  0
LINE
  8
_0-1_
  6
CENTER1
 62
  152
 10
414.23392360738433
 20
176.75246614792439
 11
414.23392360738433
 21
161.19708761247597
  0
LINE
  8
_0-1_
  6
CENTER1
 62
  152
 10
421.05989067020744
 20
169.03086052321572
 11
342.5571002880846
 21
169.03086052321572
  0
LINE
  8
_0-1_
  6
CENTER1
 62
  152
 10
354.23392360738433
 20
176.43617358009323
 11
354.23392360738433
 21
161.19708761247597
  0
LINE
  8
_0-1_
  6
CENTER1
 62
  152
 10
351.23392360738433
 20
123.38358065731444
 11
351.23392360738433
 21
58.311041447633841
  0
LINE
  8
_0-1_
  6
CENTER1
 62
  152
 10
344.28877420542847
 20
65.030860523215722
 11
410.38856616246574
 21
65.030860523215722
  0
LINE
  8
_0-1_
  6
CENTER1
 62
  152
 10
403.23392360738433
 20
58.311041447633841
 11
403.23392360738433
 21
123.38358065731444
  0
LINE
  8
_0-1_
  6
CENTER1
 62
  152
 10
410.38856616246574
 20
117.03086052321572
 11
344.28877420542847
 21
117.03086052321572
  0
LINE
  8
_0-1_
  6
CENTER1
 62
  152
 10
339.23392360738433
 20
102.38358065731444
 11
339.23392360738433
 21
42.778420220024998
  0
LINE
  8
_0-1_
  6
CENTER1
 62
  152
 10
331.53186065614807
 20
51.030860523215722
 11
420.15577825279286
 21
51.030860523215722
  0
LINE
  8
_0-1_
  6
CENTER1
 62
  152
 10
412.23392360738433
 20
42.778420220024998
 11
412.23392360738433
 21
104.31812694755621
  0
LINE
  8
_0-1_
  6
CENTER1
 62
  152
 10
420.15577825279286
 20
96.030860523215722
 11
349.07513129663164
 21
96.030860523215722
  0
LINE
  8
_0-1_
  6
CENTER1
 62
  152
 10
346.38856616246574
 20
96.030860523215722
 11
332.28877420542847
 21
96.030860523215722
  0
LINE
  8
_0-1_
  6
CENTER1
 62
  152
 10
303.61078073935494
 20
138.03086052321572
 11
277.18473100491281
 21
138.03086052321572
  0
LINE
  8
_0-1_
  6
CENTER1
 62
  152
 10
290.23392360738433
 20
124.81084864849225
 11
290.23392360738433
 21
152.39593565198851
  0
LINE
  8
_0-1_
  6
CENTER1
 62
  152
 10
267.06769651812408
 20
109.03086052321572
 11
250.28234392490265
 21
109.03086052321572
  0
LINE
  8
_0-1_
  6
CENTER1
 62
  152
 10
259.23392360738433
 20
116.00216540367836
 11
259.23392360738433
 21
42.242891973044777
  0
LINE
  8
_0-1_
  6
CENTER1
 62
  152
 10
267.06769651812408
 20
49.030860523215722
 11
250.39157373668183
 21
49.030860523215722
  0
CIRCLE
  8
_0-1_
  6
CONTINUOUS
 62
  152
 10
339.23392360738433
 20
96.030860523215722
 40
3.4500000476837158
  0
CIRCLE
  8
_0-1_
  6
CONTINUOUS
 62
  152
 10
339.23392360738433
 20
51.030860523215722
 40
3.4500000476837158
  0
CIRCLE
  8
_0-1_
  6
CONTINUOUS
 62
  152
 10
412.23392360738433
 20
51.030860523215722
 40
3.4500000476837158
  0
CIRCLE
  8
_0-1_
  6
CONTINUOUS
 62
  152
 10
351.23392360738433
 20
117.03086052321572
 40
3.4500000476837158
  0
CIRCLE
  8
_0-1_
  6
CONTINUOUS
 62
  152
 10
403.23392360738433
 20
117.03086052321572
 40
3.4500000476837158
  0
CIRCLE
  8
_0-1_
  6
CONTINUOUS
 62
  152
 10
403.23392360738433
 20
65.030860523215722
 40
3.4500000476837158
  0
CIRCLE
  8
_0-1_
  6
CONTINUOUS
 62
  152
 10
351.23392360738433
 20
65.030860523215722
 40
3.4500000476837158
  0
CIRCLE
  8
_0-1_
  6
CONTINUOUS
 62
  152
 10
290.23392360738433
 20
138.03086052321572
 40
7.0999999046325684
  0
CIRCLE
  8
_0-1_
  6
CONTINUOUS
 62
  152
 10
412.23392360738433
 20
96.030860523215722
 40
3.4500000476837158
  0
LINE
  8
_0-1_
  6
CENTER1
 62
  152
 10
647.23392360738433
 20
176.75246614792439
 11
647.23392360738433
 21
161.19708761247597
  0
LINE
  8
_0-1_
  6
CENTER1
 62
  152
 10
654.05989067020744
 20
169.03086052321572
 11
575.5571002880846
 21
169.03086052321572
  0
LINE
  8
_0-1_
  6
CENTER1
 62
  152
 10
587.23392360738433
 20
176.43617358009323
 11
587.23392360738433
 21
161.19708761247597
  0
LINE
  8
_0-1_
  6
CENTER1
 62
  152
 10
584.23392360738433
 20
123.38358065731444
 11
584.23392360738433
 21
58.311041447633841
  0
LINE
  8
_0-1_
  6
CENTER1
 62
  152
 10
577.28877420542847
 20
65.030860523215722
 11
643.38856616246483
 21
65.030860523215722
  0
LINE
  8
_0-1_
  6
CENTER1
 62
  152
 10
636.23392360738433
 20
58.311041447633841
 11
636.23392360738433
 21
123.38358065731444
  0
LINE
  8
_0-1_
  6
CENTER1
 62
  152
 10
643.38856616246483
 20
117.03086052321572
 11
577.28877420542847
 21
117.03086052321572
  0
LINE
  8
_0-1_
  6
CENTER1
 62
  152
 10
572.23392360738433
 20
102.38358065731444
 11
572.23392360738433
 21
42.778420220024998
  0
LINE
  8
_0-1_
  6
CENTER1
 62
  152
 10
564.53186065614807
 20
51.030860523215722
 11
653.15577825279286
 21
51.030860523215722
  0
LINE
  8
_0-1_
  6
CENTER1
 62
  152
 10
645.23392360738433
 20
42.778420220024998
 11
645.23392360738433
 21
104.31812694755621
  0
LINE
  8
_0-1_
  6
CENTER1
 62
  152
 10
653.15577825279286
 20
96.030860523215722
 11
582.07513129663164
 21
96.030860523215722
  0
LINE
  8
_0-1_
  6
CENTER1
 62
  152
 10
579.38856616246483
 20
96.030860523215722
 11
565.28877420542847
 21
96.030860523215722
  0
LINE
  8
_0-1_
  6
CENTER1
 62
  152
 10
536.61078073935494
 20
138.03086052321572
 11
510.18473100491281
 21
138.03086052321572
  0
LINE
  8
_0-1_
  6
CENTER1
 62
  152
 10
523.23392360738433
 20
124.81084864849225
 11
523.23392360738433
 21
152.39593565198851
  0
LINE
  8
_0-1_
  6
CENTER1
 62
  152
 10
500.06769651812408
 20
109.03086052321572
 11
483.28234392490265
 21
109.03086052321572
  0
LINE
  8
_0-1_
  6
CENTER1
 62
  152
 10
492.23392360738433
 20
116.00216540367836
 11
492.23392360738433
 21
42.242891973044777
  0
LINE
  8
_0-1_
  6
CENTER1
 62
  152
 10
500.06769651812408
 20
49.030860523215722
 11
483.39157373668093
 21
49.030860523215722
  0
CIRCLE
  8
_0-1_
  6
CONTINUOUS
 62
  152
 10
572.23392360738433
 20
96.030860523215722
 40
3.4500000476837158
  0
CIRCLE
  8
_0-1_
  6
CONTINUOUS
 62
  152
 10
572.23392360738433
 20
51.030860523215722
 40
3.4500000476837158
  0
CIRCLE
  8
_0-1_
  6
CONTINUOUS
 62
  152
 10
645.23392360738433
 20
51.030860523215722
 40
3.4500000476837158
  0
CIRCLE
  8
_0-1_
  6
CONTINUOUS
 62
  152
 10
645.23392360738433
 20
96.030860523215722
 40
3.4500000476837158
  0
CIRCLE
  8
_0-1_
  6
CONTINUOUS
 62
  152
 10
584.23392360738433
 20
117.03086052321572
 40
3.4500000476837158
  0
CIRCLE
  8
_0-1_
  6
CONTINUOUS
 62
  152
 10
636.23392360738433
 20
117.03086052321572
 40
3.4500000476837158
  0
CIRCLE
  8
_0-1_
  6
CONTINUOUS
 62
  152
 10
636.23392360738433
 20
65.030860523215722
 40
3.4500000476837158
  0
CIRCLE
  8
_0-1_
  6
CONTINUOUS
 62
  152
 10
584.23392360738433
 20
65.030860523215722
 40
3.4500000476837158
  0
CIRCLE
  8
_0-1_
  6
CONTINUOUS
 62
  152
 10
523.23392360738433
 20
138.03086052321572
 40
5.1999998092651367
  0
TEXT
  8
_0-1_
 62
    7
 10
7.2339236073843267
 20
189.03086052321572
 40
5
 41
1
 50
0
  1
AP4I-M20
  0
TEXT
  8
_0-1_
 62
    7
 10
240.23392360738433
 20
189.03086052321572
 40
5
 41
1
 50
0
  1
AP4I-M16
  0
TEXT
  8
_0-1_
 62
    7
 10
473.23392360738433
 20
189.03086052321572
 40
5
 41
1
 50
0
  1
AP4I-M12
  0
ENDSEC
  0
EOF
