  0
SECTION
  2
HEADER
  9
$ACADVER
  1
AC1009
  9
$INSBASE
 10
0
 20
0
 30
0
  9
$EXTMIN
 10
0
 20
0
  9
$EXTMAX
 10
1189
 20
841
  9
$LIMMIN
 10
0
 20
0
  9
$LIMMAX
 10
1189
 20
841
  9
$LTSCALE
 40
1
  0
ENDSEC
  0
SECTION
  2
TABLES
  0
TABLE
  2
LTYPE
 70
     9
  0
LTYPE
  2
CONTINUOUS
 70
    64
  3
実線
 72
    65
 73
     0
 40
0.0
  0
LTYPE
  2
DASHED1
 70
    64
  3
--  --  --  --  --  --  --  --  
 72
    65
 73
     2
 40
2.5
 49
1.25
 49
-1.25
  0
LTYPE
  2
DASHED2
 70
    64
  3
----    ----    ----    ----    
 72
    65
 73
     2
 40
5.0
 49
2.5
 49
-2.5
  0
LTYPE
  2
DASHED3
 70
    64
  3
------  ------  ------  ------  
 72
    65
 73
     2
 40
5.0
 49
3.75
 49
-1.25
  0
LTYPE
  2
CENTER1
 70
    64
  3
----- - ----- - ----- - ----- - 
 72
    65
 73
     4
 40
10.0
 49
6.25
 49
-1.25
 49
1.25
 49
-1.25
  0
LTYPE
  2
CENTER2
 70
    64
  3
----------  --  ----------  --  
 72
    65
 73
     4
 40
20.0
 49
12.5
 49
-2.5
 49
2.5
 49
-2.5
  0
LTYPE
  2
PHANTOM1
 70
    64
  3
--- - - --- - - --- - - --- - - 
 72
    65
 73
     6
 40
10.0
 49
3.25
 49
-1.25
 49
1.25
 49
-1.25
 49
1.25
 49
-1.25
  0
LTYPE
  2
PHANTOM2
 70
    64
  3
--------  -  -  --------  -  -  
 72
    65
 73
     6
 40
20.0
 49
10.0
 49
-2.5
 49
1.25
 49
-2.5
 49
1.25
 49
-2.5
  0
LTYPE
  2
DOT
 70
    64
  3
-   -   -   -   -   -   -   -   
 72
    65
 73
     2
 40
2.5
 49
0.625
 49
-1.875
  0
LTYPE
  2
DUMMY
 70
    64
  3
ダミー
 72
    65
 73
     0
 40
0.0
  0
LTYPE
  2
RAND1
 70
    64
  3
ランダム線1
 72
    65
 73
     4
 40
10.0
 49
1.0
 49
-2.0
 49
3.0
 49
-4.0
  0
LTYPE
  2
RAND2
 70
    64
  3
ランダム線2
 72
    65
 73
     4
 40
14.0
 49
2.0
 49
-3.0
 49
4.0
 49
-5.0
  0
LTYPE
  2
RAND3
 70
    64
  3
ランダム線3
 72
    65
 73
     4
 40
18.0
 49
3.0
 49
-4.0
 49
5.0
 49
-6.0
  0
LTYPE
  2
RAND4
 70
    64
  3
ランダム線4
 72
    65
 73
     4
 40
22.0
 49
4.0
 49
-5.0
 49
6.0
 49
-7.0
  0
LTYPE
  2
RAND5
 70
    64
  3
ランダム線5
 72
    65
 73
     4
 40
26.0
 49
5.0
 49
-6.0
 49
7.0
 49
-8.0
  0
LTYPE
  2
LONG1
 70
    64
  3
----------  --  ----------  --  
 72
    65
 73
     4
 40
40.0
 49
32.5
 49
-2.5
 49
2.5
 49
-2.5
  0
LTYPE
  2
LONG2
 70
    64
  3
--------  -  -  --------  -  -  
 72
    65
 73
     6
 40
40.0
 49
30.0
 49
-2.5
 49
1.25
 49
-2.5
 49
1.25
 49
-2.5
  0
LTYPE
  2
LONG3
 70
    64
  3
+++++++++++++++..+++++++++++++++
 72
    65
 73
     2
 40
40.0
 49
37.5
 49
-2.5
  0
LTYPE
  2
LONG4
 70
    64
  3
+++++++++++++++..+++++++++++++++
 72
    65
 73
     2
 40
80.0
 49
75.0
 49
-5.0
  0
LTYPE
  2
LONG5
 70
    64
  3
----------  --  ----------  --  
 72
    65
 73
     4
 40
60.0
 49
37.5
 49
-7.5
 49
7.5
 49
-7.5
  0
LTYPE
  2
dashed
 70
   64
  3
-------   -------------   ------
 72
   65
 73
    2
 40
7.5
 49
6
 49
-1.5
  0
LTYPE
  2
dashed_spaced
 70
   64
  3
----        --------        ----
 72
   65
 73
    2
 40
12
 49
6
 49
-6
  0
LTYPE
  2
long_dashed_dotted
 70
   64
  3
------------- --- --------------
 72
   65
 73
    4
 40
15.25
 49
12
 49
-1.5
 49
0.25
 49
-1.5
  0
LTYPE
  2
long_dashed_double-dotted
 70
   64
  3
----------- --- --- ------------
 72
   65
 73
    6
 40
17
 49
12
 49
-1.5
 49
0.25
 49
-1.5
 49
0.25
 49
-1.5
  0
LTYPE
  2
long_dashed_triplicate-dotted
 70
   64
  3
--------- --- --- --- ----------
 72
   65
 73
    8
 40
18.75
 49
12
 49
-1.5
 49
0.25
 49
-1.5
 49
0.25
 49
-1.5
 49
0.25
 49
-1.5
  0
LTYPE
  2
dotted
 70
   64
  3
   -       -       -       -    
 72
   65
 73
    2
 40
1.75
 49
0.25
 49
-1.5
  0
LTYPE
  2
chain
 70
   64
  3
-------------- -- --------------
 72
   65
 73
    4
 40
18.5
 49
12
 49
-1.5
 49
3.5
 49
-1.5
  0
LTYPE
  2
chain_double_dash
 70
   64
  3
------------ -- -- -------------
 72
   65
 73
    6
 40
23.5
 49
12
 49
-1.5
 49
3.5
 49
-1.5
 49
3.5
 49
-1.5
  0
LTYPE
  2
dashed_dotted
 70
   64
  3
-----------     -     ----------
 72
   65
 73
    4
 40
9.25
 49
6
 49
-1.5
 49
0.25
 49
-1.5
  0
LTYPE
  2
double-dashed_dotted
 70
   64
  3
------   -----------   -   -----
 72
   65
 73
    6
 40
16.75
 49
6
 49
-1.5
 49
6
 49
-1.5
 49
0.25
 49
-1.5
  0
LTYPE
  2
dashed_double-dotted
 70
   64
  3
---------    -    -    ---------
 72
   65
 73
    6
 40
11
 49
6
 49
-1.5
 49
0.25
 49
-1.5
 49
0.25
 49
-1.5
  0
LTYPE
  2
double-dashed_double-dotted
 70
   64
  3
-----   ---------   -   -   ----
 72
   65
 73
    8
 40
18.5
 49
6
 49
-1.5
 49
6
 49
-1.5
 49
0.25
 49
-1.5
 49
0.25
 49
-1.5
  0
LTYPE
  2
dashed_triplicate-dotted
 70
   64
  3
-------    -    -    -    ------
 72
   65
 73
    8
 40
12.75
 49
6
 49
-1.5
 49
0.25
 49
-1.5
 49
0.25
 49
-1.5
 49
0.25
 49
-1.5
  0
LTYPE
  2
double-dashed_triplicate-dotted
 70
   64
  3
-----  ---------  -  -  -  -----
 72
   65
 73
   10
 40
20.25
 49
6
 49
-1.5
 49
6
 49
-1.5
 49
0.25
 49
-1.5
 49
0.25
 49
-1.5
 49
0.25
 49
-1.5
  0
LTYPE
  2
undefined
 70
   64
  3
--------------------------------
 72
   65
 73
    0
 40
0
  0
ENDTAB
  0
TABLE
  2
STYLE
  5
3
100
AcDbSymbolTable
 70
     1
  0
STYLE
  5
10
100
AcDbSymbolTableRecord
100
AcDbTextStyleTableRecord
  2
STANDARD
 70
     0
 40
0.0
 41
1.0
 50
0.0
 71
     0
 42
0.2
  3
txt
  4
bigfont.shx
  0
STYLE
  5
26
100
AcDbSymbolTableRecord
100
AcDbTextStyleTableRecord
  2
TATEGAKI
 70
    68
 40
0.0
 41
1.0
 50
0.0
 71
     0
 42
1.0
  3
txt
  4
bigfont.shx
  0
ENDTAB
  0
TABLE
  2
LAYER
 70
    2
  0
LAYER
  2
_0-0_
 70
   64
 62
    7
  6
CONTINUOUS
  0
LAYER
  2
ADD_LINE
 70
   64
 62
    7
  6
CONTINUOUS
  0
ENDTAB
  0
ENDSEC
  0
SECTION
  2
BLOCKS
  0
ENDSEC
  0
SECTION
  2
ENTITIES
  0
TEXT
  8
_0-0_
 62
    7
 10
93.916034605723212
 20
477.29951590260276
 40
4.2999999999999998
 41
0.744186046511628
 50
0
  1
AP40-M12L
  0
TEXT
  8
_0-0_
 62
    7
 10
370.01685320572335
 20
477.29951590260276
 40
4.2999999999999998
 41
0.744186046511628
 50
0
  1
AP40-M12R
  0
TEXT
  8
_0-0_
 62
    7
 10
93.916034605722984
 20
209.56086143607149
 40
4.2999999999999998
 41
0.744186046511628
 50
0
  1
AP40-M16L
  0
TEXT
  8
_0-0_
 62
    7
 10
370.01685320572335
 20
209.56086143607149
 40
4.2999999999999998
 41
0.744186046511628
 50
0
  1
AP40-M16R
  0
LINE
  8
_0-0_
  6
CONTINUOUS
 62
    7
 10
217.07317940560444
 20
144.24421429662675
 11
52.073179405604492
 21
144.24421429662675
  0
LINE
  8
_0-0_
  6
CONTINUOUS
 62
    7
 10
52.073179405604492
 20
144.24421429662675
 11
52.073179405604492
 21
115.58745733714056
  0
LINE
  8
_0-0_
  6
CONTINUOUS
 62
    7
 10
52.427644164523258
 20
112.94858448816547
 11
79.059286128437293
 21
15.605341447651654
  0
LINE
  8
_0-0_
  6
CENTER1
 62
  152
 10
88.823179405604435
 20
20.744214296626751
 11
105.32317940560444
 21
20.744214296626751
  0
LINE
  8
_0-0_
  6
CENTER1
 62
  152
 10
97.073179405604435
 20
12.494214296626751
 11
97.073179405604435
 21
28.994214296626751
  0
LINE
  8
_0-0_
  6
CONTINUOUS
 62
    7
 10
88.704821369518697
 20
8.2442142966267511
 11
149.07317940560444
 21
8.2442142966267511
  0
LINE
  8
_0-0_
  6
CONTINUOUS
 62
    7
 10
156.14424721746997
 20
11.173146484761332
 11
214.14424721746997
 21
69.173146484761332
  0
LINE
  8
_0-0_
  6
CONTINUOUS
 62
    7
 10
217.07317940560444
 20
76.244214296626751
 11
217.07317940560444
 21
144.24421429662675
  0
LINE
  8
_0-0_
  6
CONTINUOUS
 62
    7
 10
217.07317940560444
 20
141.04421429662688
 11
52.073179405604492
 21
141.04421429662688
  0
LINE
  8
_0-0_
  6
CONTINUOUS
 62
    7
 10
60.315303415417361
 20
136.27263499556028
 11
60.316086557001313
 21
136.27314483521229
  0
LINE
  8
_0-0_
  6
CONTINUOUS
 62
    7
 10
60.316086557000631
 20
136.27314483521349
 11
60.618638171616908
 21
136.41589212158556
  0
LINE
  8
_0-0_
  6
CONTINUOUS
 62
    7
 10
60.618638171616908
 20
136.41589212158556
 11
60.931021155007898
 21
136.47766194709277
  0
LINE
  8
_0-0_
  6
CONTINUOUS
 62
    7
 10
60.931021155007898
 20
136.47766194709277
 11
61.217964212116044
 21
136.45158957530242
  0
LINE
  8
_0-0_
  6
CONTINUOUS
 62
    7
 10
61.217964212116044
 20
136.45158957530242
 11
61.447012935129237
 21
136.34080311514651
  0
LINE
  8
_0-0_
  6
CONTINUOUS
 62
    7
 10
61.447012935129237
 20
136.34080311514651
 11
61.557962542181599
 21
136.22036985025488
  0
LINE
  8
_0-0_
  6
CONTINUOUS
 62
    7
 10
61.557962542181599
 20
136.22036985025488
 11
61.57123251686437
 21
136.19873697906689
  0
LINE
  8
_0-0_
  6
CONTINUOUS
 62
    7
 10
61.491059383719971
 20
136.3376009190747
 11
62.973179405604583
 21
133.7704937382556
  0
LINE
  8
_0-0_
  6
CONTINUOUS
 62
    7
 10
62.851947518941301
 20
133.9804735254537
 11
62.832324241083711
 21
134.01172564735651
  0
LINE
  8
_0-0_
  6
CONTINUOUS
 62
    7
 10
62.832324241083711
 20
134.01172564735651
 11
62.718818241518989
 21
134.13122053745678
  0
LINE
  8
_0-0_
  6
CONTINUOUS
 62
    7
 10
62.718818241518989
 20
134.13122053745678
 11
62.485485280324497
 21
134.24194600447242
  0
LINE
  8
_0-0_
  6
CONTINUOUS
 62
    7
 10
62.485485280324497
 20
134.24194600447242
 11
62.195874696254236
 21
134.26674802098182
  0
LINE
  8
_0-0_
  6
CONTINUOUS
 62
    7
 10
62.195874696254236
 20
134.26674802098182
 11
61.882581315056427
 21
134.20292640907786
  0
LINE
  8
_0-0_
  6
CONTINUOUS
 62
    7
 10
61.882581315056427
 20
134.20292640907786
 11
61.580898704775905
 21
134.05772320072901
  0
LINE
  8
_0-0_
  6
CONTINUOUS
 62
    7
 10
61.580898704776132
 20
134.05772320072867
 11
61.580462539883342
 21
134.05743125868634
  0
LINE
  8
_0-0_
  6
CENTER1
 62
  152
 10
68.473179405604583
 20
139.5371075154402
 11
68.473179405604583
 21
108.9513210778133
  0
LINE
  8
_0-0_
  6
CONTINUOUS
 62
    7
 10
74.811159303194358
 20
111.16507609873418
 11
74.811992408077117
 21
111.16549939941387
  0
LINE
  8
_0-0_
  6
CONTINUOUS
 62
    7
 10
74.811992408077117
 20
111.16549939941387
 11
75.086890991704763
 21
111.35614314044153
  0
LINE
  8
_0-0_
  6
CONTINUOUS
 62
    7
 10
75.086890991704763
 20
111.35614314044153
 11
75.296576721476072
 21
111.59578982701561
  0
LINE
  8
_0-0_
  6
CONTINUOUS
 62
    7
 10
75.296576721476072
 20
111.59578982701561
 11
75.417468913723155
 21
111.85732598980559
  0
LINE
  8
_0-0_
  6
CONTINUOUS
 62
    7
 10
75.417468913723155
 20
111.85732598980559
 11
75.436049386339278
 21
112.11108123271742
  0
LINE
  8
_0-0_
  6
CONTINUOUS
 62
    7
 10
75.436049386339278
 20
112.11108123271742
 11
75.387225923051915
 21
112.26738304332571
  0
LINE
  8
_0-0_
  6
CONTINUOUS
 62
    7
 10
75.387225923051915
 20
112.26738304332571
 11
75.375126294344795
 21
112.28969161418655
  0
LINE
  8
_0-0_
  6
CONTINUOUS
 62
    7
 10
75.455299427489194
 20
112.15082767417869
 11
73.973179405604583
 21
114.71793485499791
  0
LINE
  8
_0-0_
  6
CONTINUOUS
 62
    7
 10
74.094411292267409
 20
114.50795506780025
 11
74.111664784325171
 21
114.47533475076057
  0
LINE
  8
_0-0_
  6
CONTINUOUS
 62
    7
 10
74.111664784325171
 20
114.47533475076057
 11
74.158397395496308
 21
114.31728822556181
  0
LINE
  8
_0-0_
  6
CONTINUOUS
 62
    7
 10
74.158397395496308
 20
114.31728822556181
 11
74.137621982183532
 21
114.05985322011452
  0
LINE
  8
_0-0_
  6
CONTINUOUS
 62
    7
 10
74.137621982183532
 20
114.05985322011452
 11
74.014295866507041
 21
113.79664208885612
  0
LINE
  8
_0-0_
  6
CONTINUOUS
 62
    7
 10
74.014295866507041
 20
113.79664208885612
 11
73.802378038688971
 21
113.55723286785297
  0
LINE
  8
_0-0_
  6
CONTINUOUS
 62
    7
 10
73.802378038688971
 20
113.55723286785297
 11
73.525787066407361
 21
113.36856966764526
  0
LINE
  8
_0-0_
  6
CONTINUOUS
 62
    7
 10
73.525787066407361
 20
113.36856966764526
 11
73.525316154736515
 21
113.36833790878813
  0
LINE
  8
_0-0_
  6
CONTINUOUS
 62
    7
 10
63.421042656473332
 20
113.36833790878899
 11
63.42057174480226
 21
113.36856966764657
  0
LINE
  8
_0-0_
  6
CONTINUOUS
 62
    7
 10
63.420571744801578
 20
113.36856966764492
 11
63.143980772519058
 21
113.55723286785138
  0
LINE
  8
_0-0_
  6
CONTINUOUS
 62
    7
 10
63.143980772519058
 20
113.55723286785138
 11
62.932062944702579
 21
113.79664208885703
  0
LINE
  8
_0-0_
  6
CONTINUOUS
 62
    7
 10
62.932062944702579
 20
113.79664208885703
 11
62.80873682902677
 21
114.05985322011651
  0
LINE
  8
_0-0_
  6
CONTINUOUS
 62
    7
 10
62.80873682902677
 20
114.05985322011651
 11
62.78796141570831
 21
114.31728822555436
  0
LINE
  8
_0-0_
  6
CONTINUOUS
 62
    7
 10
62.78796141570831
 20
114.31728822555436
 11
62.834694026425154
 21
114.47533474981026
  0
LINE
  8
_0-0_
  6
CONTINUOUS
 62
    7
 10
62.834694026425154
 20
114.47533474981026
 11
62.851947518961765
 21
114.50795506783521
  0
LINE
  8
_0-0_
  6
CONTINUOUS
 62
    7
 10
62.973179405604583
 20
114.71793485499791
 11
61.491059383719971
 21
112.15082767417874
  0
LINE
  8
_0-0_
  6
CONTINUOUS
 62
    7
 10
61.510309424869433
 20
112.11108123271663
 11
61.528889897486238
 21
111.85732598980616
  0
LINE
  8
_0-0_
  6
CONTINUOUS
 62
    7
 10
61.528889897486238
 20
111.85732598980616
 11
61.649782089732639
 21
111.59578982701521
  0
LINE
  8
_0-0_
  6
CONTINUOUS
 62
    7
 10
61.649782089732639
 20
111.59578982701521
 11
61.85946781950463
 21
111.35614314044199
  0
LINE
  8
_0-0_
  6
CONTINUOUS
 62
    7
 10
61.85946781950463
 20
111.35614314044199
 11
62.134366403131821
 21
111.16549939941348
  0
LINE
  8
_0-0_
  6
CONTINUOUS
 62
    7
 10
62.134366403132731
 20
111.1654993994153
 11
62.135199508015262
 21
111.16507609873469
  0
LINE
  8
_0-0_
  6
CONTINUOUS
 62
    7
 10
61.510309424869433
 20
112.11108123271663
 11
61.559132888165209
 21
112.26738304334197
  0
LINE
  8
_0-0_
  6
CONTINUOUS
 62
    7
 10
61.559132888165209
 20
112.26738304334197
 11
61.571232516898476
 21
112.28969161424601
  0
LINE
  8
_0-0_
  6
CONTINUOUS
 62
    7
 10
57.473179405604583
 20
124.24421429662675
 11
54.50893936183536
 21
124.24421429662675
  0
LINE
  8
_0-0_
  6
CONTINUOUS
 62
    7
 10
54.484142954390222
 20
124.280758542017
 11
54.273674703996107
 21
124.42372732477287
  0
LINE
  8
_0-0_
  6
CONTINUOUS
 62
    7
 10
54.273674703996107
 20
124.42372732477287
 11
54.107623839135954
 21
124.65919111577296
  0
LINE
  8
_0-0_
  6
CONTINUOUS
 62
    7
 10
54.107623839135954
 20
124.65919111577296
 11
54.004926585516728
 21
124.96060762785305
  0
LINE
  8
_0-0_
  6
CONTINUOUS
 62
    7
 10
54.004926585516728
 20
124.96060762785305
 11
53.977273554528324
 21
125.29399865525284
  0
LINE
  8
_0-0_
  6
CONTINUOUS
 62
    7
 10
53.977273554528324
 20
125.29399865525284
 11
53.977323517827585
 21
125.29493179558523
  0
LINE
  8
_0-0_
  6
CONTINUOUS
 62
    7
 10
54.484142954390222
 20
124.280758542017
 11
54.643916024687201
 21
124.24488999622042
  0
LINE
  8
_0-0_
  6
CONTINUOUS
 62
    7
 10
54.643916024687201
 20
124.24488999622042
 11
54.669285628108696
 21
124.24421429662675
  0
LINE
  8
_0-0_
  6
CENTER1
 62
  152
 10
53.180286186791022
 20
124.24421429662675
 11
83.766072624417859
 21
124.24421429662675
  0
LINE
  8
_0-0_
  6
CONTINUOUS
 62
    7
 10
82.672684107212319
 20
124.42372732477287
 11
82.838734972073155
 21
124.6591911157729
  0
LINE
  8
_0-0_
  6
CONTINUOUS
 62
    7
 10
82.838734972073155
 20
124.6591911157729
 11
82.941432225692381
 21
124.96060762785305
  0
LINE
  8
_0-0_
  6
CONTINUOUS
 62
    7
 10
82.941432225692381
 20
124.96060762785305
 11
82.969085256681694
 21
125.29399865525289
  0
LINE
  8
_0-0_
  6
CONTINUOUS
 62
    7
 10
82.969085256679648
 20
125.29399865525278
 11
82.969035293381069
 21
125.29493179558523
  0
LINE
  8
_0-0_
  6
CONTINUOUS
 62
    7
 10
82.672684107212319
 20
124.42372732477287
 11
82.462215856817124
 21
124.280758542017
  0
LINE
  8
_0-0_
  6
CONTINUOUS
 62
    7
 10
82.462215856817124
 20
124.280758542017
 11
82.302442786677489
 21
124.24488999622872
  0
LINE
  8
_0-0_
  6
CONTINUOUS
 62
    7
 10
82.302442786677489
 20
124.24488999622872
 11
82.277073183016569
 21
124.24421429662675
  0
LINE
  8
_0-0_
  6
CONTINUOUS
 62
    7
 10
82.437419449373579
 20
124.24421429662675
 11
79.473179405604583
 21
124.24421429662675
  0
LINE
  8
_0-0_
  6
CONTINUOUS
 62
    7
 10
79.715643178892265
 20
124.24421429662675
 11
79.752519949301245
 21
124.24558249280216
  0
LINE
  8
_0-0_
  6
CONTINUOUS
 62
    7
 10
79.752519949301245
 20
124.24558249280216
 11
79.912758559585541
 21
124.28413412686052
  0
LINE
  8
_0-0_
  6
CONTINUOUS
 62
    7
 10
79.912758559585541
 20
124.28413412686052
 11
80.125316107461572
 21
124.43084366528728
  0
LINE
  8
_0-0_
  6
CONTINUOUS
 62
    7
 10
80.125316107461572
 20
124.43084366528728
 11
80.291600575859889
 21
124.66925278004231
  0
LINE
  8
_0-0_
  6
CONTINUOUS
 62
    7
 10
80.291600575859889
 20
124.66925278004231
 11
80.392976129239401
 21
124.97248361294913
  0
LINE
  8
_0-0_
  6
CONTINUOUS
 62
    7
 10
80.392976129239401
 20
124.97248361294913
 11
80.41806776723331
 21
125.30635002150638
  0
LINE
  8
_0-0_
  6
CONTINUOUS
 62
    7
 10
80.418067767233993
 20
125.30635002150643
 11
80.418033020457074
 21
125.30687372240493
  0
LINE
  8
_0-0_
  6
CONTINUOUS
 62
    7
 10
75.365896271324914
 20
134.05743125868469
 11
75.365460106433716
 21
134.05772320072981
  0
LINE
  8
_0-0_
  6
CONTINUOUS
 62
    7
 10
75.365460106433716
 20
134.05772320072981
 11
75.063777496153193
 21
134.2029264090786
  0
LINE
  8
_0-0_
  6
CONTINUOUS
 62
    7
 10
75.063777496153193
 20
134.2029264090786
 11
74.750484114954929
 21
134.26674802098171
  0
LINE
  8
_0-0_
  6
CONTINUOUS
 62
    7
 10
74.750484114954929
 20
134.26674802098171
 11
74.460873530885124
 21
134.24194600447311
  0
LINE
  8
_0-0_
  6
CONTINUOUS
 62
    7
 10
74.460873530885124
 20
134.24194600447311
 11
74.227540569691314
 21
134.13122053745843
  0
LINE
  8
_0-0_
  6
CONTINUOUS
 62
    7
 10
74.227540569691314
 20
134.13122053745843
 11
74.114034569471528
 21
134.01172564639376
  0
LINE
  8
_0-0_
  6
CONTINUOUS
 62
    7
 10
74.114034569471528
 20
134.01172564639376
 11
74.094411292267637
 21
133.98047352545319
  0
LINE
  8
_0-0_
  6
CONTINUOUS
 62
    7
 10
73.973179405604583
 20
133.77049373825554
 11
75.455299427489194
 21
136.33760091907476
  0
LINE
  8
_0-0_
  6
CONTINUOUS
 62
    7
 10
75.499345876083112
 20
136.3408031151518
 11
75.728394599093576
 21
136.45158957530299
  0
LINE
  8
_0-0_
  6
CONTINUOUS
 62
    7
 10
75.728394599093576
 20
136.45158957530299
 11
76.015337656201496
 21
136.47766194709288
  0
LINE
  8
_0-0_
  6
CONTINUOUS
 62
    7
 10
76.015337656201496
 20
136.47766194709288
 11
76.327720639592712
 21
136.4158921215863
  0
LINE
  8
_0-0_
  6
CONTINUOUS
 62
    7
 10
76.327720639592712
 20
136.4158921215863
 11
76.63027225420899
 21
136.27314483521383
  0
LINE
  8
_0-0_
  6
CONTINUOUS
 62
    7
 10
76.63027225420899
 20
136.27314483521383
 11
76.631055395791805
 21
136.27263499556045
  0
LINE
  8
_0-0_
  6
CONTINUOUS
 62
    7
 10
75.499345876083112
 20
136.3408031151518
 11
75.388396269074406
 21
136.22036985032588
  0
LINE
  8
_0-0_
  6
CONTINUOUS
 62
    7
 10
75.388396269074406
 20
136.22036985032588
 11
75.375126294352071
 21
136.1987369790794
  0
LINE
  8
_0-0_
  6
CONTINUOUS
 62
    7
 10
56.528325790754366
 20
125.30687372240493
 11
56.528291043972899
 21
125.30635002150638
  0
LINE
  8
_0-0_
  6
CONTINUOUS
 62
    7
 10
56.528291043972899
 20
125.30635002150638
 11
56.553382681968856
 21
124.97248361294908
  0
LINE
  8
_0-0_
  6
CONTINUOUS
 62
    7
 10
56.553382681968856
 20
124.97248361294908
 11
56.654758235351323
 21
124.66925278004231
  0
LINE
  8
_0-0_
  6
CONTINUOUS
 62
    7
 10
56.654758235351323
 20
124.66925278004231
 11
56.821042703746912
 21
124.43084366528728
  0
LINE
  8
_0-0_
  6
CONTINUOUS
 62
    7
 10
56.821042703746912
 20
124.43084366528728
 11
57.033600251619987
 21
124.28413412686058
  0
LINE
  8
_0-0_
  6
CONTINUOUS
 62
    7
 10
57.033600251619987
 20
124.28413412686058
 11
57.19383886300318
 21
124.24558249272076
  0
LINE
  8
_0-0_
  6
CONTINUOUS
 62
    7
 10
57.19383886300318
 20
124.24558249272076
 11
57.230715632156375
 21
124.24421429662675
  0
LINE
  8
_0-0_
  6
CENTER1
 62
  152
 10
97.073179405604435
 20
103.99421429662675
 11
97.073179405604435
 21
87.494214296626751
  0
LINE
  8
_0-0_
  6
CENTER1
 62
  152
 10
88.823179405604435
 20
95.744214296626751
 11
105.32317940560444
 21
95.744214296626751
  0
LINE
  8
_0-0_
  6
CENTER1
 62
  152
 10
116.97317940560453
 20
99.244214296626751
 11
135.17317940560457
 21
99.244214296626751
  0
LINE
  8
_0-0_
  6
CENTER1
 62
  152
 10
126.07317940560444
 20
90.144214296626728
 11
126.07317940560444
 21
108.34421429662677
  0
LINE
  8
_0-0_
  6
CENTER1
 62
  152
 10
129.57317940560444
 20
119.99421429662675
 11
129.57317940560444
 21
136.49421429662675
  0
LINE
  8
_0-0_
  6
CENTER1
 62
  152
 10
121.32317940560444
 20
128.24421429662675
 11
137.82317940560444
 21
128.24421429662675
  0
LINE
  8
_0-0_
  6
CENTER1
 62
  152
 10
196.32317940560444
 20
128.24421429662675
 11
212.82317940560444
 21
128.24421429662675
  0
LINE
  8
_0-0_
  6
CENTER1
 62
  152
 10
204.57317940560444
 20
119.99421429662675
 11
204.57317940560444
 21
136.49421429662675
  0
LINE
  8
_0-0_
  6
CENTER1
 62
  152
 10
187.17317940560457
 20
99.244214296626751
 11
168.97317940560453
 21
99.244214296626751
  0
LINE
  8
_0-0_
  6
CENTER1
 62
  152
 10
178.07317940560444
 20
108.34421429662672
 11
178.07317940560444
 21
90.144214296626728
  0
LINE
  8
_0-0_
  6
CENTER1
 62
  152
 10
178.07317940560444
 20
56.344214296626774
 11
178.07317940560444
 21
38.144214296626728
  0
LINE
  8
_0-0_
  6
CENTER1
 62
  152
 10
168.97317940560453
 20
47.244214296626751
 11
187.17317940560457
 21
47.244214296626751
  0
LINE
  8
_0-0_
  6
CENTER1
 62
  152
 10
135.17317940560457
 20
47.244214296626751
 11
116.97317940560453
 21
47.244214296626751
  0
LINE
  8
_0-0_
  6
CENTER1
 62
  152
 10
126.07317940560444
 20
38.144214296626728
 11
126.07317940560444
 21
56.344214296626774
  0
CIRCLE
  8
_0-0_
  6
CONTINUOUS
 62
    7
 10
68.473179405604583
 20
124.24421429662675
 40
7.9999999999999964
  0
CIRCLE
  8
_0-0_
  6
CONTINUOUS
 62
    7
 10
68.473179405604583
 20
124.24421429662675
 40
10.29289321881345
  0
CIRCLE
  8
_0-0_
  6
CONTINUOUS
 62
    7
 10
68.473179405604583
 20
124.24421429662675
 40
11.000000000000011
  0
ARC
  8
_0-0_
  6
CONTINUOUS
 62
    7
 10
68.473179405604583
 20
124.24421429662675
 40
11.99202955864645
 50
5.083865598479762
 51
54.916134401520239
  0
ARC
  8
_0-0_
  6
CONTINUOUS
 62
    7
 10
68.473179405604583
 20
124.24421429662675
 40
11.99202955864645
 50
125.0838655984798
 51
174.91613440152031
  0
ARC
  8
_0-0_
  6
CONTINUOUS
 62
    7
 10
68.473179405604583
 20
124.24421429662675
 40
11.99202955864645
 50
245.0838655984798
 51
294.91613440152003
  0
ARC
  8
_0-0_
  6
CONTINUOUS
 62
    7
 10
68.473179405604583
 20
124.24421429662675
 40
14.53388610048278
 50
4.1457764170947584
 51
55.854223582905313
  0
ARC
  8
_0-0_
  6
CONTINUOUS
 62
    7
 10
68.473179405604583
 20
124.24421429662675
 40
14.53388610048278
 50
244.14577641709474
 51
295.85422358290526
  0
ARC
  8
_0-0_
  6
CONTINUOUS
 62
    7
 10
68.473179405604583
 20
124.24421429662675
 40
14.53388610048278
 50
124.14577641709479
 51
175.85422358290529
  0
ARC
  8
_0-0_
  6
CONTINUOUS
 62
    7
 10
54.50893936183536
 20
125.24421429662675
 40
1
 50
175.9039562418476
 51
270
  0
ARC
  8
_0-0_
  6
CONTINUOUS
 62
    7
 10
74.589274023704661
 20
111.65082767417874
 40
1
 50
295.90395624184919
 51
29.999999999999915
  0
ARC
  8
_0-0_
  6
CONTINUOUS
 62
    7
 10
60.625033979933846
 20
135.83760091907766
 40
1
 50
29.999999999805329
 51
124.096043758167
  0
ARC
  8
_0-0_
  6
CONTINUOUS
 62
    7
 10
76.3213248312735
 20
135.8376009190747
 40
1
 50
55.903956241846039
 51
150
  0
ARC
  8
_0-0_
  6
CONTINUOUS
 62
    7
 10
62.357084787502686
 20
111.65082767417579
 40
1
 50
149.99999999980298
 51
244.09604375816571
  0
ARC
  8
_0-0_
  6
CONTINUOUS
 62
    7
 10
82.437419449373579
 20
125.24421429662675
 40
1
 50
270
 51
4.0960437581525744
  0
ARC
  8
_0-0_
  6
CONTINUOUS
 62
    7
 10
68.473179405604583
 20
124.24421429662675
 40
15.000000000000171
 50
4.0960437581524403
 51
55.903956241847837
  0
ARC
  8
_0-0_
  6
CONTINUOUS
 62
    7
 10
68.473179405604583
 20
124.24421429662675
 40
15.000000000000171
 50
244.0960437581524
 51
295.90395624184771
  0
ARC
  8
_0-0_
  6
CONTINUOUS
 62
    7
 10
68.473179405604583
 20
124.24421429662675
 40
15.000000000000171
 50
124.09604375815229
 51
175.90395624184768
  0
CIRCLE
  8
_0-0_
  6
CONTINUOUS
 62
    7
 10
126.07317940560444
 20
99.244214296626751
 40
4.1000000000000076
  0
CIRCLE
  8
_0-0_
  6
CONTINUOUS
 62
    7
 10
126.07317940560444
 20
47.244214296626751
 40
4.1000000000000076
  0
CIRCLE
  8
_0-0_
  6
CONTINUOUS
 62
    7
 10
178.07317940560444
 20
47.244214296626751
 40
4.0999999999999934
  0
CIRCLE
  8
_0-0_
  6
CONTINUOUS
 62
    7
 10
178.07317940560444
 20
99.244214296626751
 40
4.0999999999999934
  0
CIRCLE
  8
_0-0_
  6
CONTINUOUS
 62
    7
 10
97.073179405604435
 20
20.744214296626751
 40
3.2500000000000027
  0
CIRCLE
  8
_0-0_
  6
CONTINUOUS
 62
    7
 10
97.073179405604435
 20
95.744214296626751
 40
3.2500000000000027
  0
CIRCLE
  8
_0-0_
  6
CONTINUOUS
 62
    7
 10
129.57317940560444
 20
128.24421429662675
 40
3.2500000000000027
  0
CIRCLE
  8
_0-0_
  6
CONTINUOUS
 62
    7
 10
204.57317940560444
 20
128.24421429662675
 40
3.2500000000000027
  0
ARC
  8
_0-0_
  6
CONTINUOUS
 62
    7
 10
207.07317940560512
 20
76.244214296626637
 40
9.9999999999993978
 50
314.99999999999818
 51
0.0000000000005534
  0
ARC
  8
_0-0_
  6
CONTINUOUS
 62
    7
 10
149.07317940560421
 20
18.244214296627661
 40
10.000000000000902
 50
270
 51
314.99999999999778
  0
ARC
  8
_0-0_
  6
CONTINUOUS
 62
    7
 10
88.70482136951847
 20
18.244214296626524
 40
9.9999999999997584
 50
195.30084557244862
 51
270
  0
ARC
  8
_0-0_
  6
CONTINUOUS
 62
    7
 10
62.073179405604492
 20
115.58745733714062
 40
9.9999999999999147
 50
179.99999999999986
 51
195.30084557244996
  0
LINE
  8
_0-0_
  6
CONTINUOUS
 62
    7
 10
76.631055395791805
 20
404.0112894620919
 11
76.63027225420899
 21
404.01179930174516
  0
LINE
  8
_0-0_
  6
CONTINUOUS
 62
    7
 10
76.63027225420899
 20
404.01179930174516
 11
76.327720639592712
 21
404.15454658811763
  0
LINE
  8
_0-0_
  6
CONTINUOUS
 62
    7
 10
76.327720639592712
 20
404.15454658811763
 11
76.015337656201496
 21
404.21631641362427
  0
LINE
  8
_0-0_
  6
CONTINUOUS
 62
    7
 10
76.015337656201496
 20
404.21631641362427
 11
75.728394599093576
 21
404.19024404183438
  0
LINE
  8
_0-0_
  6
CONTINUOUS
 62
    7
 10
75.728394599093576
 20
404.19024404183438
 11
75.499345876083112
 21
404.07945758168313
  0
LINE
  8
_0-0_
  6
CONTINUOUS
 62
    7
 10
75.499345876083112
 20
404.07945758168313
 11
75.388396269074406
 21
403.95902431685727
  0
LINE
  8
_0-0_
  6
CONTINUOUS
 62
    7
 10
75.388396269074406
 20
403.95902431685727
 11
75.375126294352071
 21
403.93739144561079
  0
LINE
  8
_0-0_
  6
CONTINUOUS
 62
    7
 10
75.455299427489194
 20
404.07625538560615
 11
73.973179405604583
 21
401.50914820478687
  0
LINE
  8
_0-0_
  6
CONTINUOUS
 62
    7
 10
74.094411292267637
 20
401.71912799198458
 11
74.114034569471528
 21
401.7503801129252
  0
LINE
  8
_0-0_
  6
CONTINUOUS
 62
    7
 10
74.114034569471528
 20
401.7503801129252
 11
74.227540569691314
 21
401.86987500398976
  0
LINE
  8
_0-0_
  6
CONTINUOUS
 62
    7
 10
74.227540569691314
 20
401.86987500398976
 11
74.460873530885124
 21
401.98060047100444
  0
LINE
  8
_0-0_
  6
CONTINUOUS
 62
    7
 10
74.460873530885124
 20
401.98060047100444
 11
74.750484114954929
 21
402.00540248751309
  0
LINE
  8
_0-0_
  6
CONTINUOUS
 62
    7
 10
74.750484114954929
 20
402.00540248751309
 11
75.063777496153193
 21
401.94158087560999
  0
LINE
  8
_0-0_
  6
CONTINUOUS
 62
    7
 10
75.063777496153193
 20
401.94158087560999
 11
75.365460106433488
 21
401.7963776672612
  0
LINE
  8
_0-0_
  6
CONTINUOUS
 62
    7
 10
75.365460106433488
 20
401.7963776672612
 11
75.365896271324914
 21
401.79608572521607
  0
LINE
  8
_0-0_
  6
CENTER1
 62
  152
 10
68.473179405604583
 20
407.27576198197158
 11
68.473179405604583
 21
376.68997554434469
  0
LINE
  8
_0-0_
  6
CONTINUOUS
 62
    7
 10
74.811159303194358
 20
378.90373056526545
 11
74.811992408077117
 21
378.90415386594526
  0
LINE
  8
_0-0_
  6
CONTINUOUS
 62
    7
 10
74.811992408077117
 20
378.90415386594526
 11
75.086890991704763
 21
379.0947976069728
  0
LINE
  8
_0-0_
  6
CONTINUOUS
 62
    7
 10
75.086890991704763
 20
379.0947976069728
 11
75.296576721476072
 21
379.33444429354694
  0
LINE
  8
_0-0_
  6
CONTINUOUS
 62
    7
 10
75.296576721476072
 20
379.33444429354694
 11
75.417468913723155
 21
379.59598045633692
  0
LINE
  8
_0-0_
  6
CONTINUOUS
 62
    7
 10
75.417468913723155
 20
379.59598045633692
 11
75.436049386339278
 21
379.84973569924881
  0
LINE
  8
_0-0_
  6
CONTINUOUS
 62
    7
 10
75.436049386339278
 20
379.84973569924881
 11
75.387225923051915
 21
380.00603750985709
  0
LINE
  8
_0-0_
  6
CONTINUOUS
 62
    7
 10
75.387225923051915
 20
380.00603750985709
 11
75.375126294344795
 21
380.02834608071788
  0
LINE
  8
_0-0_
  6
CONTINUOUS
 62
    7
 10
75.455299427489194
 20
379.88948214071007
 11
73.973179405604583
 21
382.45658932152918
  0
LINE
  8
_0-0_
  6
CONTINUOUS
 62
    7
 10
74.094411292267409
 20
382.24660953433164
 11
74.111664784325171
 21
382.21398921729195
  0
LINE
  8
_0-0_
  6
CONTINUOUS
 62
    7
 10
74.111664784325171
 20
382.21398921729195
 11
74.158397395496308
 21
382.0559426920932
  0
LINE
  8
_0-0_
  6
CONTINUOUS
 62
    7
 10
74.158397395496308
 20
382.0559426920932
 11
74.137621982183532
 21
381.79850768664591
  0
LINE
  8
_0-0_
  6
CONTINUOUS
 62
    7
 10
74.137621982183532
 20
381.79850768664591
 11
74.014295866507041
 21
381.53529655538745
  0
LINE
  8
_0-0_
  6
CONTINUOUS
 62
    7
 10
74.014295866507041
 20
381.53529655538745
 11
73.802378038688971
 21
381.2958873343843
  0
LINE
  8
_0-0_
  6
CONTINUOUS
 62
    7
 10
73.802378038688971
 20
381.2958873343843
 11
73.525787066407361
 21
381.10722413417653
  0
LINE
  8
_0-0_
  6
CONTINUOUS
 62
    7
 10
73.525787066407361
 20
381.10722413417653
 11
73.525316154736515
 21
381.10699237531952
  0
LINE
  8
_0-0_
  6
CONTINUOUS
 62
    7
 10
63.421042656473332
 20
381.10699237532043
 11
63.42057174480226
 21
381.10722413417801
  0
LINE
  8
_0-0_
  6
CONTINUOUS
 62
    7
 10
63.420571744801578
 20
381.10722413417619
 11
63.143980772519058
 21
381.29588733438271
  0
LINE
  8
_0-0_
  6
CONTINUOUS
 62
    7
 10
63.143980772519058
 20
381.29588733438271
 11
62.932062944702579
 21
381.53529655538847
  0
LINE
  8
_0-0_
  6
CONTINUOUS
 62
    7
 10
62.932062944702579
 20
381.53529655538847
 11
62.80873682902677
 21
381.79850768664784
  0
LINE
  8
_0-0_
  6
CONTINUOUS
 62
    7
 10
62.80873682902677
 20
381.79850768664784
 11
62.78796141570831
 21
382.05594269208581
  0
LINE
  8
_0-0_
  6
CONTINUOUS
 62
    7
 10
62.78796141570831
 20
382.05594269208581
 11
62.834694026425154
 21
382.21398921634164
  0
LINE
  8
_0-0_
  6
CONTINUOUS
 62
    7
 10
62.834694026425154
 20
382.21398921634164
 11
62.851947518961765
 21
382.24660953436654
  0
LINE
  8
_0-0_
  6
CONTINUOUS
 62
    7
 10
62.973179405604583
 20
382.45658932152918
 11
61.491059383719971
 21
379.88948214071019
  0
LINE
  8
_0-0_
  6
CONTINUOUS
 62
    7
 10
61.510309424869433
 20
379.8497356992479
 11
61.528889897486238
 21
379.5959804563376
  0
LINE
  8
_0-0_
  6
CONTINUOUS
 62
    7
 10
61.528889897486238
 20
379.5959804563376
 11
61.649782089732639
 21
379.33444429354648
  0
LINE
  8
_0-0_
  6
CONTINUOUS
 62
    7
 10
61.649782089732639
 20
379.33444429354648
 11
61.85946781950463
 21
379.09479760697337
  0
LINE
  8
_0-0_
  6
CONTINUOUS
 62
    7
 10
61.85946781950463
 20
379.09479760697337
 11
62.134366403131821
 21
378.90415386594481
  0
LINE
  8
_0-0_
  6
CONTINUOUS
 62
    7
 10
62.134366403132731
 20
378.90415386594663
 11
62.135199508015262
 21
378.90373056526613
  0
LINE
  8
_0-0_
  6
CONTINUOUS
 62
    7
 10
61.510309424869433
 20
379.8497356992479
 11
61.559132888165436
 21
380.00603750987324
  0
LINE
  8
_0-0_
  6
CONTINUOUS
 62
    7
 10
61.559132888165436
 20
380.00603750987324
 11
61.571232516898704
 21
380.02834608077745
  0
LINE
  8
_0-0_
  6
CONTINUOUS
 62
    7
 10
52.427644164523258
 20
380.68723895469685
 11
79.059286128437293
 21
283.34399591418304
  0
LINE
  8
_0-0_
  6
CENTER1
 62
  152
 10
88.823179405604435
 20
288.48286876315814
 11
105.32317940560444
 21
288.48286876315814
  0
LINE
  8
_0-0_
  6
CENTER1
 62
  152
 10
97.073179405604435
 20
280.23286876315814
 11
97.073179405604435
 21
296.73286876315814
  0
LINE
  8
_0-0_
  6
CONTINUOUS
 62
    7
 10
88.704821369518697
 20
275.98286876315814
 11
149.07317940560444
 21
275.98286876315814
  0
LINE
  8
_0-0_
  6
CONTINUOUS
 62
    7
 10
156.14424721746997
 20
278.91180095129261
 11
214.14424721746997
 21
336.91180095129261
  0
LINE
  8
_0-0_
  6
CONTINUOUS
 62
    7
 10
217.07317940560444
 20
343.98286876315802
 11
217.07317940560444
 21
411.98286876315802
  0
LINE
  8
_0-0_
  6
CONTINUOUS
 62
    7
 10
217.07317940560444
 20
411.98286876315802
 11
52.073179405604719
 21
411.98286876315802
  0
LINE
  8
_0-0_
  6
CONTINUOUS
 62
    7
 10
52.073179405604719
 20
411.98286876315802
 11
52.073179405604719
 21
383.32611180367195
  0
LINE
  8
_0-0_
  6
CENTER1
 62
  152
 10
53.18028618679125
 20
391.98286876315802
 11
83.766072624417859
 21
391.98286876315802
  0
LINE
  8
_0-0_
  6
CONTINUOUS
 62
    7
 10
82.672684107212319
 20
392.1623817913042
 11
82.838734972073155
 21
392.39784558230423
  0
LINE
  8
_0-0_
  6
CONTINUOUS
 62
    7
 10
82.838734972073155
 20
392.39784558230423
 11
82.941432225692381
 21
392.69926209438432
  0
LINE
  8
_0-0_
  6
CONTINUOUS
 62
    7
 10
82.941432225692381
 20
392.69926209438432
 11
82.969085256681694
 21
393.03265312178422
  0
LINE
  8
_0-0_
  6
CONTINUOUS
 62
    7
 10
82.969085256679648
 20
393.03265312178405
 11
82.969035293381069
 21
393.03358626211667
  0
LINE
  8
_0-0_
  6
CONTINUOUS
 62
    7
 10
82.672684107212319
 20
392.1623817913042
 11
82.462215856817124
 21
392.01941300854838
  0
LINE
  8
_0-0_
  6
CONTINUOUS
 62
    7
 10
82.462215856817124
 20
392.01941300854838
 11
82.302442786677489
 21
391.98354446276011
  0
LINE
  8
_0-0_
  6
CONTINUOUS
 62
    7
 10
82.302442786677489
 20
391.98354446276011
 11
82.277073183016569
 21
391.98286876315802
  0
LINE
  8
_0-0_
  6
CONTINUOUS
 62
    7
 10
82.437419449373806
 20
391.98286876315802
 11
79.473179405604583
 21
391.98286876315802
  0
LINE
  8
_0-0_
  6
CONTINUOUS
 62
    7
 10
79.715643178892265
 20
391.98286876315802
 11
79.752519949301245
 21
391.98423695933349
  0
LINE
  8
_0-0_
  6
CONTINUOUS
 62
    7
 10
79.752519949301245
 20
391.98423695933349
 11
79.912758559585541
 21
392.02278859339179
  0
LINE
  8
_0-0_
  6
CONTINUOUS
 62
    7
 10
79.912758559585541
 20
392.02278859339179
 11
80.125316107461572
 21
392.16949813181867
  0
LINE
  8
_0-0_
  6
CONTINUOUS
 62
    7
 10
80.125316107461572
 20
392.16949813181867
 11
80.291600575859889
 21
392.40790724657364
  0
LINE
  8
_0-0_
  6
CONTINUOUS
 62
    7
 10
80.291600575859889
 20
392.40790724657364
 11
80.392976129239401
 21
392.71113807948046
  0
LINE
  8
_0-0_
  6
CONTINUOUS
 62
    7
 10
80.392976129239401
 20
392.71113807948046
 11
80.41806776723331
 21
393.04500448803776
  0
LINE
  8
_0-0_
  6
CONTINUOUS
 62
    7
 10
80.418067767233993
 20
393.04500448803776
 11
80.418033020457074
 21
393.04552818893626
  0
LINE
  8
_0-0_
  6
CONTINUOUS
 62
    7
 10
56.528325790754366
 20
393.04552818893626
 11
56.528291043972899
 21
393.04500448803765
  0
LINE
  8
_0-0_
  6
CONTINUOUS
 62
    7
 10
56.528291043972899
 20
393.04500448803765
 11
56.553382681968856
 21
392.71113807948046
  0
LINE
  8
_0-0_
  6
CONTINUOUS
 62
    7
 10
56.553382681968856
 20
392.71113807948046
 11
56.654758235351323
 21
392.40790724657364
  0
LINE
  8
_0-0_
  6
CONTINUOUS
 62
    7
 10
56.654758235351323
 20
392.40790724657364
 11
56.821042703746912
 21
392.16949813181867
  0
LINE
  8
_0-0_
  6
CONTINUOUS
 62
    7
 10
56.821042703746912
 20
392.16949813181867
 11
57.033600251619987
 21
392.02278859339179
  0
LINE
  8
_0-0_
  6
CONTINUOUS
 62
    7
 10
57.033600251619987
 20
392.02278859339179
 11
57.19383886300318
 21
391.9842369592522
  0
LINE
  8
_0-0_
  6
CONTINUOUS
 62
    7
 10
57.19383886300318
 20
391.9842369592522
 11
57.230715632156375
 21
391.98286876315802
  0
LINE
  8
_0-0_
  6
CONTINUOUS
 62
    7
 10
57.473179405604583
 20
391.98286876315802
 11
54.50893936183536
 21
391.98286876315802
  0
LINE
  8
_0-0_
  6
CONTINUOUS
 62
    7
 10
54.484142954390222
 20
392.01941300854838
 11
54.273674703996107
 21
392.16238179130431
  0
LINE
  8
_0-0_
  6
CONTINUOUS
 62
    7
 10
54.273674703996107
 20
392.16238179130431
 11
54.107623839135954
 21
392.39784558230423
  0
LINE
  8
_0-0_
  6
CONTINUOUS
 62
    7
 10
54.107623839135954
 20
392.39784558230423
 11
54.004926585516728
 21
392.69926209438432
  0
LINE
  8
_0-0_
  6
CONTINUOUS
 62
    7
 10
54.004926585516728
 20
392.69926209438432
 11
53.977273554528324
 21
393.03265312178422
  0
LINE
  8
_0-0_
  6
CONTINUOUS
 62
    7
 10
53.977273554528324
 20
393.03265312178422
 11
53.977323517827585
 21
393.03358626211667
  0
LINE
  8
_0-0_
  6
CONTINUOUS
 62
    7
 10
54.484142954390222
 20
392.01941300854838
 11
54.643916024687201
 21
391.98354446275169
  0
LINE
  8
_0-0_
  6
CONTINUOUS
 62
    7
 10
54.643916024687201
 20
391.98354446275169
 11
54.669285628108696
 21
391.98286876315802
  0
LINE
  8
_0-0_
  6
CONTINUOUS
 62
    7
 10
61.580462539883342
 20
401.79608572521767
 11
61.580898704776132
 21
401.79637766726006
  0
LINE
  8
_0-0_
  6
CONTINUOUS
 62
    7
 10
61.580898704775905
 20
401.79637766726034
 11
61.882581315056427
 21
401.94158087560925
  0
LINE
  8
_0-0_
  6
CONTINUOUS
 62
    7
 10
61.882581315056427
 20
401.94158087560925
 11
62.195874696254236
 21
402.00540248751315
  0
LINE
  8
_0-0_
  6
CONTINUOUS
 62
    7
 10
62.195874696254236
 20
402.00540248751315
 11
62.485485280324497
 21
401.98060047100387
  0
LINE
  8
_0-0_
  6
CONTINUOUS
 62
    7
 10
62.485485280324497
 20
401.98060047100387
 11
62.718818241518989
 21
401.86987500398817
  0
LINE
  8
_0-0_
  6
CONTINUOUS
 62
    7
 10
62.718818241518989
 20
401.86987500398817
 11
62.832324241083711
 21
401.75038011388784
  0
LINE
  8
_0-0_
  6
CONTINUOUS
 62
    7
 10
62.832324241083711
 20
401.75038011388784
 11
62.851947518941301
 21
401.71912799198509
  0
LINE
  8
_0-0_
  6
CONTINUOUS
 62
    7
 10
62.973179405604583
 20
401.50914820478692
 11
61.491059383719971
 21
404.07625538560609
  0
LINE
  8
_0-0_
  6
CONTINUOUS
 62
    7
 10
61.447012935129237
 20
404.0794575816779
 11
61.557962542181599
 21
403.95902431678627
  0
LINE
  8
_0-0_
  6
CONTINUOUS
 62
    7
 10
61.557962542181599
 20
403.95902431678627
 11
61.57123251686437
 21
403.93739144559828
  0
LINE
  8
_0-0_
  6
CONTINUOUS
 62
    7
 10
61.447012935129237
 20
404.0794575816779
 11
61.217964212116044
 21
404.19024404183375
  0
LINE
  8
_0-0_
  6
CONTINUOUS
 62
    7
 10
61.217964212116044
 20
404.19024404183375
 11
60.931021155007898
 21
404.21631641362404
  0
LINE
  8
_0-0_
  6
CONTINUOUS
 62
    7
 10
60.931021155007898
 20
404.21631641362404
 11
60.618638171616908
 21
404.15454658811689
  0
LINE
  8
_0-0_
  6
CONTINUOUS
 62
    7
 10
60.618638171616908
 20
404.15454658811689
 11
60.316086557000631
 21
404.01179930174487
  0
LINE
  8
_0-0_
  6
CONTINUOUS
 62
    7
 10
60.316086557001313
 20
404.01179930174368
 11
60.315303415417361
 21
404.01128946209167
  0
LINE
  8
_0-0_
  6
CONTINUOUS
 62
    7
 10
52.073179405604492
 20
408.78286876315826
 11
217.07317940560444
 21
408.78286876315826
  0
LINE
  8
_0-0_
  6
CENTER1
 62
  152
 10
204.57317940560444
 20
404.23286876315802
 11
204.57317940560444
 21
387.73286876315802
  0
LINE
  8
_0-0_
  6
CENTER1
 62
  152
 10
196.32317940560444
 20
395.98286876315802
 11
212.82317940560444
 21
395.98286876315802
  0
LINE
  8
_0-0_
  6
CENTER1
 62
  152
 10
187.17317940560457
 20
366.98286876315802
 11
168.97317940560453
 21
366.98286876315802
  0
LINE
  8
_0-0_
  6
CENTER1
 62
  152
 10
178.07317940560444
 20
357.882868763158
 11
178.07317940560444
 21
376.08286876315805
  0
LINE
  8
_0-0_
  6
CENTER1
 62
  152
 10
135.17317940560457
 20
366.98286876315802
 11
116.97317940560453
 21
366.98286876315802
  0
LINE
  8
_0-0_
  6
CENTER1
 62
  152
 10
105.32317940560444
 20
363.48286876315802
 11
88.823179405604435
 21
363.48286876315802
  0
LINE
  8
_0-0_
  6
CENTER1
 62
  152
 10
97.073179405604435
 20
355.23286876315802
 11
97.073179405604435
 21
371.73286876315802
  0
LINE
  8
_0-0_
  6
CENTER1
 62
  152
 10
126.07317940560444
 20
376.08286876315805
 11
126.07317940560444
 21
357.882868763158
  0
LINE
  8
_0-0_
  6
CENTER1
 62
  152
 10
129.57317940560444
 20
387.73286876315802
 11
129.57317940560444
 21
404.23286876315802
  0
LINE
  8
_0-0_
  6
CENTER1
 62
  152
 10
121.32317940560444
 20
395.98286876315802
 11
137.82317940560444
 21
395.98286876315802
  0
LINE
  8
_0-0_
  6
CENTER1
 62
  152
 10
135.17317940560457
 20
314.98286876315814
 11
116.97317940560453
 21
314.98286876315814
  0
LINE
  8
_0-0_
  6
CENTER1
 62
  152
 10
126.07317940560444
 20
305.88286876315823
 11
126.07317940560444
 21
324.08286876315816
  0
LINE
  8
_0-0_
  6
CENTER1
 62
  152
 10
178.07317940560444
 20
324.08286876315805
 11
178.07317940560444
 21
305.88286876315823
  0
LINE
  8
_0-0_
  6
CENTER1
 62
  152
 10
168.97317940560453
 20
314.98286876315814
 11
187.17317940560457
 21
314.98286876315814
  0
CIRCLE
  8
_0-0_
  6
CONTINUOUS
 62
    7
 10
68.473179405604583
 20
391.98286876315802
 40
6.0000000000000036
  0
CIRCLE
  8
_0-0_
  6
CONTINUOUS
 62
    7
 10
68.473179405604583
 20
391.98286876315802
 40
10.29289321881345
  0
CIRCLE
  8
_0-0_
  6
CONTINUOUS
 62
    7
 10
68.473179405604583
 20
391.98286876315802
 40
11.000000000000011
  0
ARC
  8
_0-0_
  6
CONTINUOUS
 62
    7
 10
68.473179405604583
 20
391.98286876315802
 40
11.99202955864645
 50
5.0838655984796937
 51
54.916134401520168
  0
ARC
  8
_0-0_
  6
CONTINUOUS
 62
    7
 10
68.473179405604583
 20
391.98286876315802
 40
11.99202955864645
 50
125.0838655984799
 51
174.91613440152031
  0
ARC
  8
_0-0_
  6
CONTINUOUS
 62
    7
 10
68.473179405604583
 20
391.98286876315802
 40
11.99202955864645
 50
245.08386559847958
 51
294.91613440152003
  0
ARC
  8
_0-0_
  6
CONTINUOUS
 62
    7
 10
68.473179405604583
 20
391.98286876315802
 40
14.53388610048278
 50
4.1457764170948419
 51
55.854223582905277
  0
ARC
  8
_0-0_
  6
CONTINUOUS
 62
    7
 10
68.473179405604583
 20
391.98286876315802
 40
14.53388610048278
 50
244.14577641709474
 51
295.85422358290526
  0
ARC
  8
_0-0_
  6
CONTINUOUS
 62
    7
 10
68.473179405604583
 20
391.98286876315802
 40
14.53388610048278
 50
124.14577641709479
 51
175.85422358290541
  0
ARC
  8
_0-0_
  6
CONTINUOUS
 62
    7
 10
54.50893936183536
 20
392.98286876315802
 40
1
 50
175.90395624184526
 51
270
  0
ARC
  8
_0-0_
  6
CONTINUOUS
 62
    7
 10
74.589274023704661
 20
379.38948214071019
 40
1
 50
295.9039562418485
 51
30.000000000000117
  0
ARC
  8
_0-0_
  6
CONTINUOUS
 62
    7
 10
60.625033979933846
 20
403.57625538560893
 40
1
 50
29.999999999809763
 51
124.096043758165
  0
ARC
  8
_0-0_
  6
CONTINUOUS
 62
    7
 10
76.3213248312735
 20
403.57625538560609
 40
1
 50
55.903956241847389
 51
150.00000000000068
  0
ARC
  8
_0-0_
  6
CONTINUOUS
 62
    7
 10
62.357084787502686
 20
379.38948214070723
 40
1
 50
149.99999999980298
 51
244.09604375816528
  0
ARC
  8
_0-0_
  6
CONTINUOUS
 62
    7
 10
82.437419449373806
 20
392.98286876315802
 40
1
 50
270
 51
4.096043758151378
  0
ARC
  8
_0-0_
  6
CONTINUOUS
 62
    7
 10
68.473179405604583
 20
391.98286876315802
 40
15.000000000000171
 50
4.0960437581523337
 51
55.903956241847787
  0
ARC
  8
_0-0_
  6
CONTINUOUS
 62
    7
 10
68.473179405604583
 20
391.98286876315802
 40
15.000000000000171
 50
244.09604375815232
 51
295.90395624184771
  0
ARC
  8
_0-0_
  6
CONTINUOUS
 62
    7
 10
68.473179405604583
 20
391.98286876315802
 40
15.000000000000171
 50
124.0960437581524
 51
175.90395624184791
  0
CIRCLE
  8
_0-0_
  6
CONTINUOUS
 62
    7
 10
126.07317940560444
 20
366.98286876315802
 40
4.1000000000000076
  0
CIRCLE
  8
_0-0_
  6
CONTINUOUS
 62
    7
 10
126.07317940560444
 20
314.98286876315814
 40
4.1000000000000076
  0
CIRCLE
  8
_0-0_
  6
CONTINUOUS
 62
    7
 10
178.07317940560444
 20
314.98286876315814
 40
4.0999999999999934
  0
CIRCLE
  8
_0-0_
  6
CONTINUOUS
 62
    7
 10
178.07317940560444
 20
366.98286876315802
 40
4.0999999999999934
  0
CIRCLE
  8
_0-0_
  6
CONTINUOUS
 62
    7
 10
97.073179405604435
 20
288.48286876315814
 40
3.2500000000000027
  0
CIRCLE
  8
_0-0_
  6
CONTINUOUS
 62
    7
 10
97.073179405604435
 20
363.48286876315802
 40
3.2500000000000027
  0
CIRCLE
  8
_0-0_
  6
CONTINUOUS
 62
    7
 10
129.57317940560444
 20
395.98286876315802
 40
3.2500000000000027
  0
CIRCLE
  8
_0-0_
  6
CONTINUOUS
 62
    7
 10
204.57317940560444
 20
395.98286876315802
 40
3.2500000000000027
  0
ARC
  8
_0-0_
  6
CONTINUOUS
 62
    7
 10
207.07317940560512
 20
343.98286876315802
 40
9.9999999999993978
 50
314.99999999999818
 51
0.0000000000003244
  0
ARC
  8
_0-0_
  6
CONTINUOUS
 62
    7
 10
149.07317940560421
 20
285.98286876315905
 40
10.000000000000902
 50
270
 51
314.99999999999739
  0
ARC
  8
_0-0_
  6
CONTINUOUS
 62
    7
 10
88.70482136951847
 20
285.98286876315791
 40
9.9999999999997584
 50
195.30084557244939
 51
270
  0
ARC
  8
_0-0_
  6
CONTINUOUS
 62
    7
 10
62.073179405604492
 20
383.32611180367195
 40
9.9999999999999147
 50
179.99999999999966
 51
195.3008455724497
  0
LINE
  8
_0-0_
  6
CONTINUOUS
 62
    7
 10
57.473179405604583
 20
470.08969910502333
 11
57.473179405604583
 21
474.41266770119682
  0
LINE
  8
_0-0_
  6
CONTINUOUS
 62
    7
 10
58.073179405604719
 20
474.38259232383649
 11
211.07317940560449
 21
474.38259232383649
  0
LINE
  8
_0-0_
  6
CONTINUOUS
 62
    7
 10
217.07317940560449
 20
480.38259232383655
 11
217.07317940560449
 21
489.38259232383649
  0
LINE
  8
_0-0_
  6
CONTINUOUS
 62
    7
 10
217.07317940560449
 20
489.38259232383649
 11
52.073179405604492
 21
489.3825923238366
  0
LINE
  8
_0-0_
  6
CONTINUOUS
 62
    7
 10
52.073179405604492
 20
489.3825923238366
 11
52.073179405604719
 21
480.38259232383655
  0
LINE
  8
_0-0_
  6
CONTINUOUS
 62
    7
 10
57.473179405604583
 20
470.08969910502333
 11
58.18028618679125
 21
469.38259232383672
  0
LINE
  8
_0-0_
  6
CONTINUOUS
 62
    7
 10
58.18028618679125
 20
469.38259232383672
 11
78.766072624417916
 21
469.38259232383672
  0
LINE
  8
_0-0_
  6
CONTINUOUS
 62
    7
 10
78.766072624417916
 20
469.38259232383672
 11
79.473179405604583
 21
470.08969910502333
  0
LINE
  8
_0-0_
  6
CONTINUOUS
 62
    7
 10
79.473179405604583
 20
470.08969910502333
 11
79.473179405604583
 21
474.38259232383649
  0
LINE
  8
_0-0_
  6
CONTINUOUS
 62
    7
 10
79.473179405604583
 20
470.08969910502333
 11
57.473179405604583
 21
470.08969910502333
  0
LINE
  8
_0-0_
  6
CENTER1
 62
  152
 10
68.473179405604583
 20
464.38259232383672
 11
68.473179405604583
 21
479.41266770119682
  0
ARC
  8
_0-0_
  6
CONTINUOUS
 62
    7
 10
58.073179405604719
 20
480.38259232383655
 40
6
 50
180.00000000000034
 51
270
  0
ARC
  8
_0-0_
  6
CONTINUOUS
 62
    7
 10
211.07317940560449
 20
480.38259232383655
 40
6
 50
270
 51
359.99999999999977
  0
LINE
  8
_0-0_
  6
CONTINUOUS
 62
    7
 10
57.473179405604583
 20
202.35104463849206
 11
57.473179405604583
 21
206.67401323466555
  0
LINE
  8
_0-0_
  6
CONTINUOUS
 62
    7
 10
58.073179405604719
 20
206.64393785730522
 11
211.07317940560444
 21
206.64393785730522
  0
LINE
  8
_0-0_
  6
CONTINUOUS
 62
    7
 10
217.07317940560444
 20
212.64393785730527
 11
217.07317940560444
 21
221.64393785730522
  0
LINE
  8
_0-0_
  6
CONTINUOUS
 62
    7
 10
217.07317940560444
 20
221.64393785730522
 11
52.073179405604492
 21
221.64393785730533
  0
LINE
  8
_0-0_
  6
CONTINUOUS
 62
    7
 10
52.073179405604492
 20
221.64393785730533
 11
52.073179405604719
 21
212.64393785730527
  0
LINE
  8
_0-0_
  6
CONTINUOUS
 62
    7
 10
57.473179405604583
 20
202.35104463849206
 11
58.18028618679125
 21
201.64393785730545
  0
LINE
  8
_0-0_
  6
CONTINUOUS
 62
    7
 10
58.18028618679125
 20
201.64393785730545
 11
78.766072624417916
 21
201.64393785730545
  0
LINE
  8
_0-0_
  6
CONTINUOUS
 62
    7
 10
78.766072624417916
 20
201.64393785730545
 11
79.473179405604583
 21
202.35104463849206
  0
LINE
  8
_0-0_
  6
CONTINUOUS
 62
    7
 10
79.473179405604583
 20
202.35104463849206
 11
79.473179405604583
 21
206.64393785730522
  0
LINE
  8
_0-0_
  6
CONTINUOUS
 62
    7
 10
79.473179405604583
 20
202.35104463849206
 11
57.473179405604583
 21
202.35104463849206
  0
LINE
  8
_0-0_
  6
CENTER1
 62
  152
 10
68.473179405604583
 20
196.64393785730545
 11
68.473179405604583
 21
211.67401323466555
  0
ARC
  8
_0-0_
  6
CONTINUOUS
 62
    7
 10
58.073179405604719
 20
212.64393785730527
 40
6
 50
180.00000000000034
 51
270
  0
ARC
  8
_0-0_
  6
CONTINUOUS
 62
    7
 10
211.07317940560444
 20
212.64393785730527
 40
6
 50
270
 51
359.99999999999977
  0
LINE
  8
_0-0_
  6
CONTINUOUS
 62
    7
 10
8.6972478464363121
 20
8.2442142966266374
 11
8.6972478464363121
 21
140.49421429662675
  0
LINE
  8
_0-0_
  6
CONTINUOUS
 62
    7
 10
11.897247846436244
 20
140.54421429662671
 11
11.897247846436244
 21
8.2442142966266374
  0
LINE
  8
_0-0_
  6
CONTINUOUS
 62
    7
 10
11.897247846436244
 20
8.2442142966266374
 11
8.6972478464364258
 21
8.2442142966266374
  0
LINE
  8
_0-0_
  6
CONTINUOUS
 62
    7
 10
12.984022676485324
 20
109.71032819614379
 11
15.486335748969736
 21
112.25218473798009
  0
LINE
  8
_0-0_
  6
CONTINUOUS
 62
    7
 10
15.486335748969736
 20
112.25218473798009
 11
15.486335748969736
 21
113.36833790878882
  0
LINE
  8
_0-0_
  6
CONTINUOUS
 62
    7
 10
15.486335748969736
 20
113.36833790878882
 11
15.486347351189011
 21
113.3685696676464
  0
LINE
  8
_0-0_
  6
CONTINUOUS
 62
    7
 10
15.486347351187192
 20
113.36856966764481
 11
15.460959993590563
 21
113.55723286785133
  0
LINE
  8
_0-0_
  6
CONTINUOUS
 62
    7
 10
15.460959993590563
 20
113.55723286785133
 11
15.35841765420821
 21
113.79664208885697
  0
LINE
  8
_0-0_
  6
CONTINUOUS
 62
    7
 10
15.35841765420821
 20
113.79664208885697
 11
15.190334635173144
 21
114.05985322011634
  0
LINE
  8
_0-0_
  6
CONTINUOUS
 62
    7
 10
15.190334635173144
 20
114.05985322011634
 11
14.97576934909614
 21
114.31728822555419
  0
LINE
  8
_0-0_
  6
CONTINUOUS
 62
    7
 10
14.97576934909614
 20
114.31728822555419
 11
14.814366005553097
 21
114.47533474981014
  0
LINE
  8
_0-0_
  6
CONTINUOUS
 62
    7
 10
14.814366005553097
 20
114.47533474981014
 11
14.777288226530004
 21
114.50795506783516
  0
LINE
  8
_0-0_
  6
CONTINUOUS
 62
    7
 10
14.894686455009946
 20
114.71793485499779
 11
15.227025764638825
 21
114.68984454427323
  0
LINE
  8
_0-0_
  6
CONTINUOUS
 62
    7
 10
15.227025764638825
 20
114.68984454427323
 11
15.521920708615085
 21
114.60991602381819
  0
LINE
  8
_0-0_
  6
CONTINUOUS
 62
    7
 10
15.521920708615085
 20
114.60991602381819
 11
15.745325434343954
 21
114.49120353252806
  0
LINE
  8
_0-0_
  6
CONTINUOUS
 62
    7
 10
15.745325434343954
 20
114.49120353252806
 11
15.8728521492352
 21
114.351487988597
  0
LINE
  8
_0-0_
  6
CONTINUOUS
 62
    7
 10
15.8728521492352
 20
114.351487988597
 11
15.881936747865325
 21
114.33178454150402
  0
LINE
  8
_0-0_
  6
CONTINUOUS
 62
    7
 10
15.877764146077538
 20
114.36120664378359
 11
15.89161102604487
 21
114.15293936612443
  0
LINE
  8
_0-0_
  6
CONTINUOUS
 62
    7
 10
15.893294759642799
 20
114.16299593646318
 11
15.897247846436017
 21
114.25738131612138
  0
LINE
  8
_0-0_
  6
CONTINUOUS
 62
    7
 10
15.897247846436017
 20
114.25738131612138
 11
15.897247846436017
 21
113.24421429662652
  0
LINE
  8
_0-0_
  6
CONTINUOUS
 62
    7
 10
15.897247846436017
 20
113.24421429662664
 11
27.990141065249531
 21
113.24421429662664
  0
LINE
  8
_0-0_
  6
CONTINUOUS
 62
    7
 10
27.990141065249531
 20
113.24421429662652
 11
28.697247846435971
 21
113.95132107781319
  0
LINE
  8
_0-0_
  6
CONTINUOUS
 62
    7
 10
28.697247846435971
 20
113.95132107781319
 11
28.697247846435971
 21
134.53710751544008
  0
LINE
  8
_0-0_
  6
CONTINUOUS
 62
    7
 10
28.697247846435971
 20
134.53710751544008
 11
27.990141065249531
 21
135.24421429662675
  0
LINE
  8
_0-0_
  6
CONTINUOUS
 62
    7
 10
27.990141065249531
 20
135.24421429662664
 11
14.289978452484434
 21
135.24421429662664
  0
LINE
  8
_0-0_
  6
CONTINUOUS
 62
    7
 10
15.426707160609681
 20
134.24080768748922
 11
15.598106346931559
 21
134.0637586931332
  0
LINE
  8
_0-0_
  6
CONTINUOUS
 62
    7
 10
15.598106346931559
 20
134.0637586931332
 11
15.735966720440388
 21
133.85572811513111
  0
LINE
  8
_0-0_
  6
CONTINUOUS
 62
    7
 10
15.735966720440388
 20
133.85572811513111
 11
15.833466434920297
 21
133.62462437071736
  0
LINE
  8
_0-0_
  6
CONTINUOUS
 62
    7
 10
15.833466434920297
 20
133.62462437071736
 11
15.885644899568547
 21
133.38090732336218
  0
LINE
  8
_0-0_
  6
CONTINUOUS
 62
    7
 10
15.884964719066261
 20
133.38521940714577
 11
15.897247846436017
 21
133.23104727713167
  0
LINE
  8
_0-0_
  6
CONTINUOUS
 62
    7
 10
15.897247846436017
 20
133.23104727713167
 11
15.897247846436017
 21
125.24421429662675
  0
LINE
  8
_0-0_
  6
CONTINUOUS
 62
    7
 10
15.897247846436017
 20
125.24421429662675
 11
15.890484127112018
 21
125.25309840307386
  0
LINE
  8
_0-0_
  6
CONTINUOUS
 62
    7
 10
15.890484919081359
 20
125.25309788604909
 11
15.850083428444009
 21
124.95207642119703
  0
LINE
  8
_0-0_
  6
CONTINUOUS
 62
    7
 10
15.850083428444009
 20
124.95207642119703
 11
15.720738548515214
 21
124.67881708636128
  0
LINE
  8
_0-0_
  6
CONTINUOUS
 62
    7
 10
15.720738548515214
 20
124.67881708636128
 11
15.62750777130384
 21
124.56173943837416
  0
LINE
  8
_0-0_
  6
CONTINUOUS
 62
    7
 10
15.627414504576905
 20
124.5617348021467
 11
15.429485832857949
 21
124.39828240085535
  0
LINE
  8
_0-0_
  6
CONTINUOUS
 62
    7
 10
15.429485832857949
 20
124.39828240085535
 11
15.119279895044315
 21
124.26955137627237
  0
LINE
  8
_0-0_
  6
CONTINUOUS
 62
    7
 10
15.119279895044315
 20
124.26955137627237
 11
14.894686455009946
 21
124.24421429662652
  0
LINE
  8
_0-0_
  6
CONTINUOUS
 62
    7
 10
14.894686455009946
 20
124.24421429662652
 11
11.897247846436017
 21
124.24421429662652
  0
LINE
  8
_0-0_
  6
CONTINUOUS
 62
    7
 10
12.263790785920833
 20
124.24421429662652
 11
12.290391754679035
 21
124.24488999622031
  0
LINE
  8
_0-0_
  6
CONTINUOUS
 62
    7
 10
12.290391754679035
 20
124.24488999622031
 11
12.457408315484713
 21
124.28075854201688
  0
LINE
  8
_0-0_
  6
CONTINUOUS
 62
    7
 10
12.457408315484713
 20
124.28075854201688
 11
12.676513857388386
 21
124.4237273247727
  0
LINE
  8
_0-0_
  6
CONTINUOUS
 62
    7
 10
12.676513857388386
 20
124.4237273247727
 11
12.84891299826279
 21
124.65919111577273
  0
LINE
  8
_0-0_
  6
CONTINUOUS
 62
    7
 10
12.84891299826279
 20
124.65919111577273
 11
12.955386256159841
 21
124.96060762785282
  0
LINE
  8
_0-0_
  6
CONTINUOUS
 62
    7
 10
12.955386256159841
 20
124.96060762785282
 11
12.984039417943563
 21
125.29399865525284
  0
LINE
  8
_0-0_
  6
CONTINUOUS
 62
    7
 10
12.984039417943563
 20
125.29399865525284
 11
12.984022676484869
 21
125.29493179558517
  0
LINE
  8
_0-0_
  6
CONTINUOUS
 62
    7
 10
12.984022676485324
 20
125.29493179558517
 11
12.984022676485324
 21
136.27263499556011
  0
LINE
  8
_0-0_
  6
CONTINUOUS
 62
    7
 10
12.984022676485324
 20
136.27263499556011
 11
12.984039417944473
 21
136.27314483521218
  0
LINE
  8
_0-0_
  6
CONTINUOUS
 62
    7
 10
12.984039417945155
 20
136.2731448352115
 11
12.955386256159841
 21
136.41589212158533
  0
LINE
  8
_0-0_
  6
CONTINUOUS
 62
    7
 10
12.955386256159841
 20
136.41589212158533
 11
12.936239362198535
 21
136.43888711601153
  0
LINE
  8
_0-0_
  6
CONTINUOUS
 62
    7
 10
12.953648985261111
 20
136.42268444140655
 11
12.725855557477757
 21
136.59889768669314
  0
LINE
  8
_0-0_
  6
CONTINUOUS
 62
    7
 10
12.725855557477757
 20
136.59889768669314
 11
12.46389651953848
 21
136.73039567710748
  0
LINE
  8
_0-0_
  6
CONTINUOUS
 62
    7
 10
12.46389651953848
 20
136.73039567710748
 11
12.183527307465852
 21
136.8104727033126
  0
LINE
  8
_0-0_
  6
CONTINUOUS
 62
    7
 10
12.183527307465852
 20
136.8104727033126
 11
11.897247846436926
 21
136.83753292348069
  0
LINE
  8
_0-0_
  6
CONTINUOUS
 62
    7
 10
12.912490267593626
 20
136.45992171091325
 11
15.457218516340731
 21
134.21406215779371
  0
LINE
  8
_0-0_
  6
CONTINUOUS
 62
    7
 10
15.46095999359261
 20
134.20292640907769
 11
15.438966651116402
 21
134.23016970285607
  0
LINE
  8
_0-0_
  6
CONTINUOUS
 62
    7
 10
15.46095999359261
 20
134.20292640907769
 11
15.486347351187192
 21
134.05772320072901
  0
LINE
  8
_0-0_
  6
CONTINUOUS
 62
    7
 10
15.486347351187419
 20
134.05772320072856
 11
15.486335748969509
 21
134.05743125868617
  0
LINE
  8
_0-0_
  6
CONTINUOUS
 62
    7
 10
15.486335748969509
 20
134.05743125868617
 11
15.486335748969509
 21
125.30687372240482
  0
LINE
  8
_0-0_
  6
CONTINUOUS
 62
    7
 10
15.48633574897201
 20
125.30687372240482
 11
15.486347351187192
 21
125.3063500215062
  0
LINE
  8
_0-0_
  6
CONTINUOUS
 62
    7
 10
15.486347351187192
 20
125.3063500215062
 11
15.460959993589654
 21
124.97248361294896
  0
LINE
  8
_0-0_
  6
CONTINUOUS
 62
    7
 10
15.460959993589654
 20
124.97248361294896
 11
15.358417654206846
 21
124.66925278004214
  0
LINE
  8
_0-0_
  6
CONTINUOUS
 62
    7
 10
15.358417654206846
 20
124.66925278004214
 11
15.190334635175645
 21
124.43084366528706
  0
LINE
  8
_0-0_
  6
CONTINUOUS
 62
    7
 10
15.190334635175645
 20
124.43084366528706
 11
14.975769349098414
 21
124.28413412686041
  0
LINE
  8
_0-0_
  6
CONTINUOUS
 62
    7
 10
14.975769349098414
 20
124.28413412686041
 11
14.814366004497174
 21
124.24558249272059
  0
LINE
  8
_0-0_
  6
CONTINUOUS
 62
    7
 10
14.814366004497174
 20
124.24558249272059
 11
14.77728822632605
 21
124.24421429662652
  0
LINE
  8
_0-0_
  6
CENTER1
 62
  152
 10
9.2899784524844335
 20
124.24421429662664
 11
33.697247846435971
 21
124.24421429662664
  0
LINE
  8
_0-0_
  6
CONTINUOUS
 62
    7
 10
27.990141065249531
 20
113.24421429662675
 11
27.990141065249531
 21
135.24421429662675
  0
LINE
  8
_0-0_
  6
CONTINUOUS
 62
    7
 10
23.697247846436198
 20
141.04421429662671
 11
12.397247846436244
 21
141.04421429662671
  0
LINE
  8
_0-0_
  6
CONTINUOUS
 62
    7
 10
12.447247846436198
 20
144.24421429662664
 11
23.697247846436198
 21
144.24421429662664
  0
LINE
  8
_0-0_
  6
CONTINUOUS
 62
    7
 10
23.697247846436198
 20
144.24421429662675
 11
23.697247846436198
 21
141.04421429662671
  0
LINE
  8
_0-0_
  6
CONTINUOUS
 62
    7
 10
15.877762789919302
 20
114.361236489666
 11
15.890123381772923
 21
114.16386503991066
  0
LINE
  8
_0-0_
  6
CONTINUOUS
 62
    7
 10
15.890123381772923
 20
114.16386503991066
 11
15.885645555270798
 21
114.09591266840653
  0
LINE
  8
_0-0_
  6
CONTINUOUS
 62
    7
 10
15.885906808060895
 20
114.09773321391867
 11
15.893294759642799
 21
114.16299593646318
  0
LINE
  8
_0-0_
  6
CONTINUOUS
 62
    7
 10
14.894686455009946
 20
114.71793485499779
 11
11.897247846436017
 21
114.71793485499779
  0
LINE
  8
_0-0_
  6
CONTINUOUS
 62
    7
 10
12.263790786023833
 20
112.28969161424584
 11
12.290391754652433
 21
112.26738304334185
  0
LINE
  8
_0-0_
  6
CONTINUOUS
 62
    7
 10
12.290391754652433
 20
112.26738304334185
 11
12.457408315488124
 21
112.11108123271651
  0
LINE
  8
_0-0_
  6
CONTINUOUS
 62
    7
 10
12.457408315488124
 20
112.11108123271651
 11
12.676513857390432
 21
111.85732598980599
  0
LINE
  8
_0-0_
  6
CONTINUOUS
 62
    7
 10
12.676513857390432
 20
111.85732598980599
 11
12.848912998263245
 21
111.5957898270151
  0
LINE
  8
_0-0_
  6
CONTINUOUS
 62
    7
 10
12.848912998263245
 20
111.5957898270151
 11
12.955386256160295
 21
111.35614314044187
  0
LINE
  8
_0-0_
  6
CONTINUOUS
 62
    7
 10
12.955386256160295
 20
111.35614314044187
 11
12.984039417942881
 21
111.16549939941342
  0
LINE
  8
_0-0_
  6
CONTINUOUS
 62
    7
 10
12.9840394179447
 20
111.16549939941524
 11
12.984022676485324
 21
111.16507609873452
  0
LINE
  8
_0-0_
  6
CONTINUOUS
 62
    7
 10
12.984022676485324
 20
111.16507609873452
 11
12.984022676485324
 21
109.71032819614379
  0
ARC
  8
_0-0_
  6
CONTINUOUS
 62
    7
 10
11.897247846435789
 20
110.74421429662652
 40
1.5000000000001017
 50
270
 51
316.42864561978263
  0
ARC
  8
_0-0_
  6
CONTINUOUS
 62
    7
 10
14.494306190323528
 20
113.24421429662652
 40
1.402941656112497
 50
314.99999999999011
 51
0.000000000000019
  0
ARC
  8
_0-0_
  6
CONTINUOUS
 62
    7
 10
12.447247846436198
 20
140.49421429662652
 40
3.7499999999999991
 50
90
 51
180
  0
ARC
  8
_0-0_
  6
CONTINUOUS
 62
    7
 10
12.397247846435562
 20
140.54421429662739
 40
0.4999999999993343
 50
90
 51
180.00000000014981
  0
LINE
  8
_0-0_
  6
CONTINUOUS
 62
    7
 10
8.6972478464363121
 20
275.98286876315791
 11
8.6972478464363121
 21
408.23286876315802
  0
LINE
  8
_0-0_
  6
CONTINUOUS
 62
    7
 10
11.897247846436244
 20
408.28286876315798
 11
11.897247846436244
 21
275.98286876315791
  0
LINE
  8
_0-0_
  6
CONTINUOUS
 62
    7
 10
11.897247846436244
 20
275.98286876315791
 11
8.6972478464364258
 21
275.98286876315791
  0
LINE
  8
_0-0_
  6
CONTINUOUS
 62
    7
 10
12.984022676485324
 20
377.44898266267506
 11
15.486335748969736
 21
379.99083920451136
  0
LINE
  8
_0-0_
  6
CONTINUOUS
 62
    7
 10
15.486335748969736
 20
379.99083920451136
 11
15.486335748969736
 21
381.10699237532009
  0
LINE
  8
_0-0_
  6
CONTINUOUS
 62
    7
 10
15.486335748969736
 20
381.10699237532009
 11
15.486347351189011
 21
381.10722413417767
  0
LINE
  8
_0-0_
  6
CONTINUOUS
 62
    7
 10
15.486347351187192
 20
381.10722413417608
 11
15.460959993590563
 21
381.2958873343826
  0
LINE
  8
_0-0_
  6
CONTINUOUS
 62
    7
 10
15.460959993590563
 20
381.2958873343826
 11
15.35841765420821
 21
381.53529655538824
  0
LINE
  8
_0-0_
  6
CONTINUOUS
 62
    7
 10
15.35841765420821
 20
381.53529655538824
 11
15.190334635173144
 21
381.79850768664761
  0
LINE
  8
_0-0_
  6
CONTINUOUS
 62
    7
 10
15.190334635173144
 20
381.79850768664761
 11
14.97576934909614
 21
382.05594269208547
  0
LINE
  8
_0-0_
  6
CONTINUOUS
 62
    7
 10
14.97576934909614
 20
382.05594269208547
 11
14.814366005553097
 21
382.21398921634142
  0
LINE
  8
_0-0_
  6
CONTINUOUS
 62
    7
 10
14.814366005553097
 20
382.21398921634142
 11
14.777288226530004
 21
382.24660953436643
  0
LINE
  8
_0-0_
  6
CONTINUOUS
 62
    7
 10
14.894686455009946
 20
382.45658932152907
 11
15.227025764638825
 21
382.4284990108045
  0
LINE
  8
_0-0_
  6
CONTINUOUS
 62
    7
 10
15.227025764638825
 20
382.4284990108045
 11
15.521920708615085
 21
382.34857049034946
  0
LINE
  8
_0-0_
  6
CONTINUOUS
 62
    7
 10
15.521920708615085
 20
382.34857049034946
 11
15.745325434343954
 21
382.22985799905933
  0
LINE
  8
_0-0_
  6
CONTINUOUS
 62
    7
 10
15.745325434343954
 20
382.22985799905933
 11
15.8728521492352
 21
382.09014245512827
  0
LINE
  8
_0-0_
  6
CONTINUOUS
 62
    7
 10
15.8728521492352
 20
382.09014245512827
 11
15.881936747865325
 21
382.07043900803529
  0
LINE
  8
_0-0_
  6
CONTINUOUS
 62
    7
 10
15.877764146077538
 20
382.09986111031486
 11
15.89161102604487
 21
381.8915938326557
  0
LINE
  8
_0-0_
  6
CONTINUOUS
 62
    7
 10
15.893294759642799
 20
381.90165040299445
 11
15.897247846436017
 21
381.99603578265265
  0
LINE
  8
_0-0_
  6
CONTINUOUS
 62
    7
 10
15.897247846436017
 20
381.99603578265265
 11
15.897247846436017
 21
380.9828687631578
  0
LINE
  8
_0-0_
  6
CONTINUOUS
 62
    7
 10
15.897247846436017
 20
380.98286876315791
 11
27.990141065249531
 21
380.98286876315791
  0
LINE
  8
_0-0_
  6
CONTINUOUS
 62
    7
 10
27.990141065249531
 20
380.9828687631578
 11
28.697247846435971
 21
381.68997554434446
  0
LINE
  8
_0-0_
  6
CONTINUOUS
 62
    7
 10
28.697247846435971
 20
381.68997554434446
 11
28.697247846435971
 21
402.27576198197136
  0
LINE
  8
_0-0_
  6
CONTINUOUS
 62
    7
 10
28.697247846435971
 20
402.27576198197136
 11
27.990141065249531
 21
402.98286876315802
  0
LINE
  8
_0-0_
  6
CONTINUOUS
 62
    7
 10
27.990141065249531
 20
402.98286876315791
 11
14.289978452484434
 21
402.98286876315791
  0
LINE
  8
_0-0_
  6
CONTINUOUS
 62
    7
 10
15.426707160609681
 20
401.9794621540205
 11
15.598106346931559
 21
401.80241315966447
  0
LINE
  8
_0-0_
  6
CONTINUOUS
 62
    7
 10
15.598106346931559
 20
401.80241315966447
 11
15.735966720440388
 21
401.59438258166239
  0
LINE
  8
_0-0_
  6
CONTINUOUS
 62
    7
 10
15.735966720440388
 20
401.59438258166239
 11
15.833466434920297
 21
401.36327883724863
  0
LINE
  8
_0-0_
  6
CONTINUOUS
 62
    7
 10
15.833466434920297
 20
401.36327883724863
 11
15.885644899568547
 21
401.11956178989345
  0
LINE
  8
_0-0_
  6
CONTINUOUS
 62
    7
 10
15.884964719066261
 20
401.12387387367704
 11
15.897247846436017
 21
400.96970174366294
  0
LINE
  8
_0-0_
  6
CONTINUOUS
 62
    7
 10
15.897247846436017
 20
400.96970174366294
 11
15.897247846436017
 21
392.98286876315802
  0
LINE
  8
_0-0_
  6
CONTINUOUS
 62
    7
 10
15.897247846436017
 20
392.98286876315802
 11
15.890484127112018
 21
392.99175286960514
  0
LINE
  8
_0-0_
  6
CONTINUOUS
 62
    7
 10
15.890484919081359
 20
392.99175235258036
 11
15.850083428444009
 21
392.69073088772831
  0
LINE
  8
_0-0_
  6
CONTINUOUS
 62
    7
 10
15.850083428444009
 20
392.69073088772831
 11
15.720738548515214
 21
392.41747155289255
  0
LINE
  8
_0-0_
  6
CONTINUOUS
 62
    7
 10
15.720738548515214
 20
392.41747155289255
 11
15.62750777130384
 21
392.30039390490543
  0
LINE
  8
_0-0_
  6
CONTINUOUS
 62
    7
 10
15.627414504576905
 20
392.30038926867797
 11
15.429485832857949
 21
392.13693686738662
  0
LINE
  8
_0-0_
  6
CONTINUOUS
 62
    7
 10
15.429485832857949
 20
392.13693686738662
 11
15.119279895044315
 21
392.00820584280365
  0
LINE
  8
_0-0_
  6
CONTINUOUS
 62
    7
 10
15.119279895044315
 20
392.00820584280365
 11
14.894686455009946
 21
391.9828687631578
  0
LINE
  8
_0-0_
  6
CONTINUOUS
 62
    7
 10
14.894686455009946
 20
391.9828687631578
 11
11.897247846436017
 21
391.9828687631578
  0
LINE
  8
_0-0_
  6
CONTINUOUS
 62
    7
 10
12.263790785920833
 20
391.9828687631578
 11
12.290391754679035
 21
391.98354446275158
  0
LINE
  8
_0-0_
  6
CONTINUOUS
 62
    7
 10
12.290391754679035
 20
391.98354446275158
 11
12.457408315484713
 21
392.01941300854816
  0
LINE
  8
_0-0_
  6
CONTINUOUS
 62
    7
 10
12.457408315484713
 20
392.01941300854816
 11
12.676513857388386
 21
392.16238179130397
  0
LINE
  8
_0-0_
  6
CONTINUOUS
 62
    7
 10
12.676513857388386
 20
392.16238179130397
 11
12.84891299826279
 21
392.397845582304
  0
LINE
  8
_0-0_
  6
CONTINUOUS
 62
    7
 10
12.84891299826279
 20
392.397845582304
 11
12.955386256159841
 21
392.6992620943841
  0
LINE
  8
_0-0_
  6
CONTINUOUS
 62
    7
 10
12.955386256159841
 20
392.6992620943841
 11
12.984039417943563
 21
393.03265312178411
  0
LINE
  8
_0-0_
  6
CONTINUOUS
 62
    7
 10
12.984039417943563
 20
393.03265312178411
 11
12.984022676484869
 21
393.03358626211644
  0
LINE
  8
_0-0_
  6
CONTINUOUS
 62
    7
 10
12.984022676485324
 20
393.03358626211644
 11
12.984022676485324
 21
404.01128946209138
  0
LINE
  8
_0-0_
  6
CONTINUOUS
 62
    7
 10
12.984022676485324
 20
404.01128946209138
 11
12.984039417944473
 21
404.01179930174345
  0
LINE
  8
_0-0_
  6
CONTINUOUS
 62
    7
 10
12.984039417945155
 20
404.01179930174277
 11
12.955386256159841
 21
404.1545465881166
  0
LINE
  8
_0-0_
  6
CONTINUOUS
 62
    7
 10
12.955386256159841
 20
404.1545465881166
 11
12.936239362198535
 21
404.1775415825428
  0
LINE
  8
_0-0_
  6
CONTINUOUS
 62
    7
 10
12.953648985261111
 20
404.16133890793782
 11
12.725855557477757
 21
404.33755215322441
  0
LINE
  8
_0-0_
  6
CONTINUOUS
 62
    7
 10
12.725855557477757
 20
404.33755215322441
 11
12.46389651953848
 21
404.46905014363875
  0
LINE
  8
_0-0_
  6
CONTINUOUS
 62
    7
 10
12.46389651953848
 20
404.46905014363875
 11
12.183527307465852
 21
404.54912716984387
  0
LINE
  8
_0-0_
  6
CONTINUOUS
 62
    7
 10
12.183527307465852
 20
404.54912716984387
 11
11.897247846436926
 21
404.57618739001197
  0
LINE
  8
_0-0_
  6
CONTINUOUS
 62
    7
 10
12.912490267593626
 20
404.19857617744452
 11
15.457218516340731
 21
401.95271662432498
  0
LINE
  8
_0-0_
  6
CONTINUOUS
 62
    7
 10
15.46095999359261
 20
401.94158087560896
 11
15.438966651116402
 21
401.96882416938735
  0
LINE
  8
_0-0_
  6
CONTINUOUS
 62
    7
 10
15.46095999359261
 20
401.94158087560896
 11
15.486347351187192
 21
401.79637766726029
  0
LINE
  8
_0-0_
  6
CONTINUOUS
 62
    7
 10
15.486347351187419
 20
401.79637766725983
 11
15.486335748969509
 21
401.79608572521744
  0
LINE
  8
_0-0_
  6
CONTINUOUS
 62
    7
 10
15.486335748969509
 20
401.79608572521744
 11
15.486335748969509
 21
393.04552818893609
  0
LINE
  8
_0-0_
  6
CONTINUOUS
 62
    7
 10
15.48633574897201
 20
393.04552818893609
 11
15.486347351187192
 21
393.04500448803748
  0
LINE
  8
_0-0_
  6
CONTINUOUS
 62
    7
 10
15.486347351187192
 20
393.04500448803748
 11
15.460959993589654
 21
392.71113807948024
  0
LINE
  8
_0-0_
  6
CONTINUOUS
 62
    7
 10
15.460959993589654
 20
392.71113807948024
 11
15.358417654206846
 21
392.40790724657342
  0
LINE
  8
_0-0_
  6
CONTINUOUS
 62
    7
 10
15.358417654206846
 20
392.40790724657342
 11
15.190334635175645
 21
392.16949813181833
  0
LINE
  8
_0-0_
  6
CONTINUOUS
 62
    7
 10
15.190334635175645
 20
392.16949813181833
 11
14.975769349098414
 21
392.02278859339168
  0
LINE
  8
_0-0_
  6
CONTINUOUS
 62
    7
 10
14.975769349098414
 20
392.02278859339168
 11
14.814366004497174
 21
391.98423695925186
  0
LINE
  8
_0-0_
  6
CONTINUOUS
 62
    7
 10
14.814366004497174
 20
391.98423695925186
 11
14.77728822632605
 21
391.9828687631578
  0
LINE
  8
_0-0_
  6
CENTER1
 62
  152
 10
9.2899784524844335
 20
391.98286876315791
 11
33.697247846435971
 21
391.98286876315791
  0
LINE
  8
_0-0_
  6
CONTINUOUS
 62
    7
 10
27.990141065249531
 20
380.98286876315802
 11
27.990141065249531
 21
402.98286876315802
  0
LINE
  8
_0-0_
  6
CONTINUOUS
 62
    7
 10
23.697247846436198
 20
408.78286876315798
 11
12.397247846436244
 21
408.78286876315798
  0
LINE
  8
_0-0_
  6
CONTINUOUS
 62
    7
 10
12.447247846436198
 20
411.98286876315791
 11
23.697247846436198
 21
411.98286876315791
  0
LINE
  8
_0-0_
  6
CONTINUOUS
 62
    7
 10
23.697247846436198
 20
411.98286876315802
 11
23.697247846436198
 21
408.78286876315798
  0
LINE
  8
_0-0_
  6
CONTINUOUS
 62
    7
 10
15.877762789919302
 20
382.09989095619727
 11
15.890123381772923
 21
381.90251950644193
  0
LINE
  8
_0-0_
  6
CONTINUOUS
 62
    7
 10
15.890123381772923
 20
381.90251950644193
 11
15.885645555270798
 21
381.8345671349378
  0
LINE
  8
_0-0_
  6
CONTINUOUS
 62
    7
 10
15.885906808060895
 20
381.83638768044995
 11
15.893294759642799
 21
381.90165040299445
  0
LINE
  8
_0-0_
  6
CONTINUOUS
 62
    7
 10
14.894686455009946
 20
382.45658932152907
 11
11.897247846436017
 21
382.45658932152907
  0
LINE
  8
_0-0_
  6
CONTINUOUS
 62
    7
 10
12.263790786023833
 20
380.02834608077711
 11
12.290391754652433
 21
380.00603750987312
  0
LINE
  8
_0-0_
  6
CONTINUOUS
 62
    7
 10
12.290391754652433
 20
380.00603750987312
 11
12.457408315488124
 21
379.84973569924779
  0
LINE
  8
_0-0_
  6
CONTINUOUS
 62
    7
 10
12.457408315488124
 20
379.84973569924779
 11
12.676513857390432
 21
379.59598045633726
  0
LINE
  8
_0-0_
  6
CONTINUOUS
 62
    7
 10
12.676513857390432
 20
379.59598045633726
 11
12.848912998263245
 21
379.33444429354637
  0
LINE
  8
_0-0_
  6
CONTINUOUS
 62
    7
 10
12.848912998263245
 20
379.33444429354637
 11
12.955386256160295
 21
379.09479760697315
  0
LINE
  8
_0-0_
  6
CONTINUOUS
 62
    7
 10
12.955386256160295
 20
379.09479760697315
 11
12.984039417942881
 21
378.90415386594469
  0
LINE
  8
_0-0_
  6
CONTINUOUS
 62
    7
 10
12.9840394179447
 20
378.90415386594651
 11
12.984022676485324
 21
378.90373056526579
  0
LINE
  8
_0-0_
  6
CONTINUOUS
 62
    7
 10
12.984022676485324
 20
378.90373056526579
 11
12.984022676485324
 21
377.44898266267506
  0
ARC
  8
_0-0_
  6
CONTINUOUS
 62
    7
 10
11.897247846435789
 20
378.4828687631578
 40
1.5000000000001017
 50
270
 51
316.42864561978263
  0
ARC
  8
_0-0_
  6
CONTINUOUS
 62
    7
 10
14.494306190323528
 20
380.9828687631578
 40
1.402941656112497
 50
314.99999999999011
 51
0.000000000000019
  0
ARC
  8
_0-0_
  6
CONTINUOUS
 62
    7
 10
12.447247846436198
 20
408.2328687631578
 40
3.7499999999999991
 50
90
 51
180
  0
ARC
  8
_0-0_
  6
CONTINUOUS
 62
    7
 10
12.397247846435562
 20
408.28286876315866
 40
0.4999999999993343
 50
90
 51
180.00000000014981
  0
LINE
  8
_0-0_
  6
CONTINUOUS
 62
    7
 10
328.1739980056048
 20
144.24421429662675
 11
493.1739980056048
 21
144.24421429662675
  0
LINE
  8
_0-0_
  6
CONTINUOUS
 62
    7
 10
493.1739980056048
 20
144.24421429662675
 11
493.1739980056048
 21
115.58745733714056
  0
LINE
  8
_0-0_
  6
CONTINUOUS
 62
    7
 10
492.81953324668603
 20
112.94858448816547
 11
466.187891282772
 21
15.605341447651654
  0
LINE
  8
_0-0_
  6
CENTER1
 62
  152
 10
456.4239980056048
 20
20.744214296626751
 11
439.9239980056048
 21
20.744214296626751
  0
LINE
  8
_0-0_
  6
CENTER1
 62
  152
 10
448.1739980056048
 20
12.494214296626751
 11
448.1739980056048
 21
28.994214296626751
  0
LINE
  8
_0-0_
  6
CONTINUOUS
 62
    7
 10
456.54235604169054
 20
8.2442142966267511
 11
396.1739980056048
 21
8.2442142966267511
  0
LINE
  8
_0-0_
  6
CONTINUOUS
 62
    7
 10
389.10293019373927
 20
11.173146484761332
 11
331.10293019373927
 21
69.173146484761332
  0
LINE
  8
_0-0_
  6
CONTINUOUS
 62
    7
 10
328.1739980056048
 20
76.244214296626751
 11
328.1739980056048
 21
144.24421429662675
  0
LINE
  8
_0-0_
  6
CONTINUOUS
 62
    7
 10
328.1739980056048
 20
141.04421429662688
 11
493.1739980056048
 21
141.04421429662688
  0
LINE
  8
_0-0_
  6
CONTINUOUS
 62
    7
 10
484.93187399579193
 20
136.27263499556028
 11
484.93109085420798
 21
136.27314483521229
  0
LINE
  8
_0-0_
  6
CONTINUOUS
 62
    7
 10
484.93109085420866
 20
136.27314483521349
 11
484.62853923959239
 21
136.41589212158556
  0
LINE
  8
_0-0_
  6
CONTINUOUS
 62
    7
 10
484.62853923959239
 20
136.41589212158556
 11
484.3161562562014
 21
136.47766194709277
  0
LINE
  8
_0-0_
  6
CONTINUOUS
 62
    7
 10
484.3161562562014
 20
136.47766194709277
 11
484.02921319909325
 21
136.45158957530242
  0
LINE
  8
_0-0_
  6
CONTINUOUS
 62
    7
 10
484.02921319909325
 20
136.45158957530242
 11
483.80016447608006
 21
136.34080311514651
  0
LINE
  8
_0-0_
  6
CONTINUOUS
 62
    7
 10
483.80016447608006
 20
136.34080311514651
 11
483.68921486902769
 21
136.22036985025488
  0
LINE
  8
_0-0_
  6
CONTINUOUS
 62
    7
 10
483.68921486902769
 20
136.22036985025488
 11
483.67594489434492
 21
136.19873697906689
  0
LINE
  8
_0-0_
  6
CONTINUOUS
 62
    7
 10
483.75611802748932
 20
136.3376009190747
 11
482.27399800560471
 21
133.7704937382556
  0
LINE
  8
_0-0_
  6
CONTINUOUS
 62
    7
 10
482.39522989226799
 20
133.9804735254537
 11
482.41485317012558
 21
134.01172564735651
  0
LINE
  8
_0-0_
  6
CONTINUOUS
 62
    7
 10
482.41485317012558
 20
134.01172564735651
 11
482.5283591696903
 21
134.13122053745678
  0
LINE
  8
_0-0_
  6
CONTINUOUS
 62
    7
 10
482.5283591696903
 20
134.13122053745678
 11
482.7616921308848
 21
134.24194600447242
  0
LINE
  8
_0-0_
  6
CONTINUOUS
 62
    7
 10
482.7616921308848
 20
134.24194600447242
 11
483.05130271495506
 21
134.26674802098182
  0
LINE
  8
_0-0_
  6
CONTINUOUS
 62
    7
 10
483.05130271495506
 20
134.26674802098182
 11
483.36459609615287
 21
134.20292640907786
  0
LINE
  8
_0-0_
  6
CONTINUOUS
 62
    7
 10
483.36459609615287
 20
134.20292640907786
 11
483.66627870643339
 21
134.05772320072901
  0
LINE
  8
_0-0_
  6
CONTINUOUS
 62
    7
 10
483.66627870643316
 20
134.05772320072867
 11
483.66671487132595
 21
134.05743125868634
  0
LINE
  8
_0-0_
  6
CENTER1
 62
  152
 10
476.77399800560471
 20
139.5371075154402
 11
476.77399800560471
 21
108.9513210778133
  0
LINE
  8
_0-0_
  6
CONTINUOUS
 62
    7
 10
470.43601810801493
 20
111.16507609873418
 11
470.43518500313218
 21
111.16549939941387
  0
LINE
  8
_0-0_
  6
CONTINUOUS
 62
    7
 10
470.43518500313218
 20
111.16549939941387
 11
470.16028641950453
 21
111.35614314044153
  0
LINE
  8
_0-0_
  6
CONTINUOUS
 62
    7
 10
470.16028641950453
 20
111.35614314044153
 11
469.95060068973322
 21
111.59578982701561
  0
LINE
  8
_0-0_
  6
CONTINUOUS
 62
    7
 10
469.95060068973322
 20
111.59578982701561
 11
469.82970849748614
 21
111.85732598980559
  0
LINE
  8
_0-0_
  6
CONTINUOUS
 62
    7
 10
469.82970849748614
 20
111.85732598980559
 11
469.81112802487002
 21
112.11108123271742
  0
LINE
  8
_0-0_
  6
CONTINUOUS
 62
    7
 10
469.81112802487002
 20
112.11108123271742
 11
469.85995148815738
 21
112.26738304332571
  0
LINE
  8
_0-0_
  6
CONTINUOUS
 62
    7
 10
469.85995148815738
 20
112.26738304332571
 11
469.8720511168645
 21
112.28969161418655
  0
LINE
  8
_0-0_
  6
CONTINUOUS
 62
    7
 10
469.7918779837201
 20
112.15082767417869
 11
471.27399800560471
 21
114.71793485499791
  0
LINE
  8
_0-0_
  6
CONTINUOUS
 62
    7
 10
471.15276611894188
 20
114.50795506780025
 11
471.13551262688412
 21
114.47533475076057
  0
LINE
  8
_0-0_
  6
CONTINUOUS
 62
    7
 10
471.13551262688412
 20
114.47533475076057
 11
471.08878001571298
 21
114.31728822556181
  0
LINE
  8
_0-0_
  6
CONTINUOUS
 62
    7
 10
471.08878001571298
 20
114.31728822556181
 11
471.10955542902576
 21
114.05985322011452
  0
LINE
  8
_0-0_
  6
CONTINUOUS
 62
    7
 10
471.10955542902576
 20
114.05985322011452
 11
471.23288154470225
 21
113.79664208885612
  0
LINE
  8
_0-0_
  6
CONTINUOUS
 62
    7
 10
471.23288154470225
 20
113.79664208885612
 11
471.44479937252032
 21
113.55723286785297
  0
LINE
  8
_0-0_
  6
CONTINUOUS
 62
    7
 10
471.44479937252032
 20
113.55723286785297
 11
471.72139034480193
 21
113.36856966764526
  0
LINE
  8
_0-0_
  6
CONTINUOUS
 62
    7
 10
471.72139034480193
 20
113.36856966764526
 11
471.72186125647278
 21
113.36833790878813
  0
LINE
  8
_0-0_
  6
CONTINUOUS
 62
    7
 10
481.82613475473596
 20
113.36833790878899
 11
481.82660566640703
 21
113.36856966764657
  0
LINE
  8
_0-0_
  6
CONTINUOUS
 62
    7
 10
481.82660566640772
 20
113.36856966764492
 11
482.10319663869024
 21
113.55723286785138
  0
LINE
  8
_0-0_
  6
CONTINUOUS
 62
    7
 10
482.10319663869024
 20
113.55723286785138
 11
482.31511446650671
 21
113.79664208885703
  0
LINE
  8
_0-0_
  6
CONTINUOUS
 62
    7
 10
482.31511446650671
 20
113.79664208885703
 11
482.43844058218252
 21
114.05985322011651
  0
LINE
  8
_0-0_
  6
CONTINUOUS
 62
    7
 10
482.43844058218252
 20
114.05985322011651
 11
482.45921599550098
 21
114.31728822555436
  0
LINE
  8
_0-0_
  6
CONTINUOUS
 62
    7
 10
482.45921599550098
 20
114.31728822555436
 11
482.41248338478414
 21
114.47533474981026
  0
LINE
  8
_0-0_
  6
CONTINUOUS
 62
    7
 10
482.41248338478414
 20
114.47533474981026
 11
482.39522989224753
 21
114.50795506783521
  0
LINE
  8
_0-0_
  6
CONTINUOUS
 62
    7
 10
482.27399800560471
 20
114.71793485499791
 11
483.75611802748932
 21
112.15082767417874
  0
LINE
  8
_0-0_
  6
CONTINUOUS
 62
    7
 10
483.73686798633986
 20
112.11108123271663
 11
483.71828751372306
 21
111.85732598980616
  0
LINE
  8
_0-0_
  6
CONTINUOUS
 62
    7
 10
483.71828751372306
 20
111.85732598980616
 11
483.59739532147665
 21
111.59578982701521
  0
LINE
  8
_0-0_
  6
CONTINUOUS
 62
    7
 10
483.59739532147665
 20
111.59578982701521
 11
483.38770959170466
 21
111.35614314044199
  0
LINE
  8
_0-0_
  6
CONTINUOUS
 62
    7
 10
483.38770959170466
 20
111.35614314044199
 11
483.11281100807747
 21
111.16549939941348
  0
LINE
  8
_0-0_
  6
CONTINUOUS
 62
    7
 10
483.11281100807656
 20
111.1654993994153
 11
483.11197790319403
 21
111.16507609873469
  0
LINE
  8
_0-0_
  6
CONTINUOUS
 62
    7
 10
483.73686798633986
 20
112.11108123271663
 11
483.68804452304408
 21
112.26738304334197
  0
LINE
  8
_0-0_
  6
CONTINUOUS
 62
    7
 10
483.68804452304408
 20
112.26738304334197
 11
483.67594489431082
 21
112.28969161424601
  0
LINE
  8
_0-0_
  6
CONTINUOUS
 62
    7
 10
487.77399800560471
 20
124.24421429662675
 11
490.73823804937393
 21
124.24421429662675
  0
LINE
  8
_0-0_
  6
CONTINUOUS
 62
    7
 10
490.76303445681907
 20
124.280758542017
 11
490.97350270721319
 21
124.42372732477287
  0
LINE
  8
_0-0_
  6
CONTINUOUS
 62
    7
 10
490.97350270721319
 20
124.42372732477287
 11
491.13955357207334
 21
124.65919111577296
  0
LINE
  8
_0-0_
  6
CONTINUOUS
 62
    7
 10
491.13955357207334
 20
124.65919111577296
 11
491.24225082569257
 21
124.96060762785305
  0
LINE
  8
_0-0_
  6
CONTINUOUS
 62
    7
 10
491.24225082569257
 20
124.96060762785305
 11
491.26990385668097
 21
125.29399865525284
  0
LINE
  8
_0-0_
  6
CONTINUOUS
 62
    7
 10
491.26990385668097
 20
125.29399865525284
 11
491.26985389338171
 21
125.29493179558523
  0
LINE
  8
_0-0_
  6
CONTINUOUS
 62
    7
 10
490.76303445681907
 20
124.280758542017
 11
490.60326138652209
 21
124.24488999622042
  0
LINE
  8
_0-0_
  6
CONTINUOUS
 62
    7
 10
490.60326138652209
 20
124.24488999622042
 11
490.5778917831006
 21
124.24421429662675
  0
LINE
  8
_0-0_
  6
CENTER1
 62
  152
 10
492.06689122441827
 20
124.24421429662675
 11
461.48110478679138
 21
124.24421429662675
  0
LINE
  8
_0-0_
  6
CONTINUOUS
 62
    7
 10
462.57449330399692
 20
124.42372732477287
 11
462.40844243913608
 21
124.6591911157729
  0
LINE
  8
_0-0_
  6
CONTINUOUS
 62
    7
 10
462.40844243913608
 20
124.6591911157729
 11
462.30574518551686
 21
124.96060762785305
  0
LINE
  8
_0-0_
  6
CONTINUOUS
 62
    7
 10
462.30574518551686
 20
124.96060762785305
 11
462.27809215452754
 21
125.29399865525289
  0
LINE
  8
_0-0_
  6
CONTINUOUS
 62
    7
 10
462.27809215452959
 20
125.29399865525278
 11
462.27814211782817
 21
125.29493179558523
  0
LINE
  8
_0-0_
  6
CONTINUOUS
 62
    7
 10
462.57449330399692
 20
124.42372732477287
 11
462.78496155439217
 21
124.280758542017
  0
LINE
  8
_0-0_
  6
CONTINUOUS
 62
    7
 10
462.78496155439217
 20
124.280758542017
 11
462.9447346245318
 21
124.24488999622872
  0
LINE
  8
_0-0_
  6
CONTINUOUS
 62
    7
 10
462.9447346245318
 20
124.24488999622872
 11
462.97010422819272
 21
124.24421429662675
  0
LINE
  8
_0-0_
  6
CONTINUOUS
 62
    7
 10
462.80975796183571
 20
124.24421429662675
 11
465.77399800560471
 21
124.24421429662675
  0
LINE
  8
_0-0_
  6
CONTINUOUS
 62
    7
 10
465.53153423231703
 20
124.24421429662675
 11
465.49465746190805
 21
124.24558249280216
  0
LINE
  8
_0-0_
  6
CONTINUOUS
 62
    7
 10
465.49465746190805
 20
124.24558249280216
 11
465.33441885162375
 21
124.28413412686052
  0
LINE
  8
_0-0_
  6
CONTINUOUS
 62
    7
 10
465.33441885162375
 20
124.28413412686052
 11
465.12186130374772
 21
124.43084366528728
  0
LINE
  8
_0-0_
  6
CONTINUOUS
 62
    7
 10
465.12186130374772
 20
124.43084366528728
 11
464.9555768353494
 21
124.66925278004231
  0
LINE
  8
_0-0_
  6
CONTINUOUS
 62
    7
 10
464.9555768353494
 20
124.66925278004231
 11
464.85420128196989
 21
124.97248361294913
  0
LINE
  8
_0-0_
  6
CONTINUOUS
 62
    7
 10
464.85420128196989
 20
124.97248361294913
 11
464.82910964397598
 21
125.30635002150638
  0
LINE
  8
_0-0_
  6
CONTINUOUS
 62
    7
 10
464.8291096439753
 20
125.30635002150643
 11
464.82914439075222
 21
125.30687372240493
  0
LINE
  8
_0-0_
  6
CONTINUOUS
 62
    7
 10
469.88128113988438
 20
134.05743125868469
 11
469.88171730477558
 21
134.05772320072981
  0
LINE
  8
_0-0_
  6
CONTINUOUS
 62
    7
 10
469.88171730477558
 20
134.05772320072981
 11
470.1833999150561
 21
134.2029264090786
  0
LINE
  8
_0-0_
  6
CONTINUOUS
 62
    7
 10
470.1833999150561
 20
134.2029264090786
 11
470.49669329625436
 21
134.26674802098171
  0
LINE
  8
_0-0_
  6
CONTINUOUS
 62
    7
 10
470.49669329625436
 20
134.26674802098171
 11
470.78630388032417
 21
134.24194600447311
  0
LINE
  8
_0-0_
  6
CONTINUOUS
 62
    7
 10
470.78630388032417
 20
134.24194600447311
 11
471.01963684151798
 21
134.13122053745843
  0
LINE
  8
_0-0_
  6
CONTINUOUS
 62
    7
 10
471.01963684151798
 20
134.13122053745843
 11
471.13314284173777
 21
134.01172564639376
  0
LINE
  8
_0-0_
  6
CONTINUOUS
 62
    7
 10
471.13314284173777
 20
134.01172564639376
 11
471.15276611894166
 21
133.98047352545319
  0
LINE
  8
_0-0_
  6
CONTINUOUS
 62
    7
 10
471.27399800560471
 20
133.77049373825554
 11
469.7918779837201
 21
136.33760091907476
  0
LINE
  8
_0-0_
  6
CONTINUOUS
 62
    7
 10
469.74783153512618
 20
136.3408031151518
 11
469.51878281211572
 21
136.45158957530299
  0
LINE
  8
_0-0_
  6
CONTINUOUS
 62
    7
 10
469.51878281211572
 20
136.45158957530299
 11
469.2318397550078
 21
136.47766194709288
  0
LINE
  8
_0-0_
  6
CONTINUOUS
 62
    7
 10
469.2318397550078
 20
136.47766194709288
 11
468.91945677161658
 21
136.4158921215863
  0
LINE
  8
_0-0_
  6
CONTINUOUS
 62
    7
 10
468.91945677161658
 20
136.4158921215863
 11
468.6169051570003
 21
136.27314483521383
  0
LINE
  8
_0-0_
  6
CONTINUOUS
 62
    7
 10
468.6169051570003
 20
136.27314483521383
 11
468.61612201541749
 21
136.27263499556045
  0
LINE
  8
_0-0_
  6
CONTINUOUS
 62
    7
 10
469.74783153512618
 20
136.3408031151518
 11
469.85878114213489
 21
136.22036985032588
  0
LINE
  8
_0-0_
  6
CONTINUOUS
 62
    7
 10
469.85878114213489
 20
136.22036985032588
 11
469.87205111685722
 21
136.1987369790794
  0
LINE
  8
_0-0_
  6
CONTINUOUS
 62
    7
 10
488.71885162045493
 20
125.30687372240493
 11
488.71888636723639
 21
125.30635002150638
  0
LINE
  8
_0-0_
  6
CONTINUOUS
 62
    7
 10
488.71888636723639
 20
125.30635002150638
 11
488.69379472924044
 21
124.97248361294908
  0
LINE
  8
_0-0_
  6
CONTINUOUS
 62
    7
 10
488.69379472924044
 20
124.97248361294908
 11
488.59241917585797
 21
124.66925278004231
  0
LINE
  8
_0-0_
  6
CONTINUOUS
 62
    7
 10
488.59241917585797
 20
124.66925278004231
 11
488.42613470746238
 21
124.43084366528728
  0
LINE
  8
_0-0_
  6
CONTINUOUS
 62
    7
 10
488.42613470746238
 20
124.43084366528728
 11
488.21357715958931
 21
124.28413412686058
  0
LINE
  8
_0-0_
  6
CONTINUOUS
 62
    7
 10
488.21357715958931
 20
124.28413412686058
 11
488.05333854820611
 21
124.24558249272076
  0
LINE
  8
_0-0_
  6
CONTINUOUS
 62
    7
 10
488.05333854820611
 20
124.24558249272076
 11
488.01646177905292
 21
124.24421429662675
  0
LINE
  8
_0-0_
  6
CENTER1
 62
  152
 10
448.1739980056048
 20
103.99421429662675
 11
448.1739980056048
 21
87.494214296626751
  0
LINE
  8
_0-0_
  6
CENTER1
 62
  152
 10
456.4239980056048
 20
95.744214296626751
 11
439.9239980056048
 21
95.744214296626751
  0
LINE
  8
_0-0_
  6
CENTER1
 62
  152
 10
428.27399800560471
 20
99.244214296626751
 11
410.07399800560466
 21
99.244214296626751
  0
LINE
  8
_0-0_
  6
CENTER1
 62
  152
 10
419.1739980056048
 20
90.144214296626728
 11
419.1739980056048
 21
108.34421429662677
  0
LINE
  8
_0-0_
  6
CENTER1
 62
  152
 10
415.6739980056048
 20
119.99421429662675
 11
415.6739980056048
 21
136.49421429662675
  0
LINE
  8
_0-0_
  6
CENTER1
 62
  152
 10
423.9239980056048
 20
128.24421429662675
 11
407.4239980056048
 21
128.24421429662675
  0
LINE
  8
_0-0_
  6
CENTER1
 62
  152
 10
348.9239980056048
 20
128.24421429662675
 11
332.4239980056048
 21
128.24421429662675
  0
LINE
  8
_0-0_
  6
CENTER1
 62
  152
 10
340.6739980056048
 20
119.99421429662675
 11
340.6739980056048
 21
136.49421429662675
  0
LINE
  8
_0-0_
  6
CENTER1
 62
  152
 10
358.07399800560466
 20
99.244214296626751
 11
376.27399800560471
 21
99.244214296626751
  0
LINE
  8
_0-0_
  6
CENTER1
 62
  152
 10
367.1739980056048
 20
108.34421429662672
 11
367.1739980056048
 21
90.144214296626728
  0
LINE
  8
_0-0_
  6
CENTER1
 62
  152
 10
367.1739980056048
 20
56.344214296626774
 11
367.1739980056048
 21
38.144214296626728
  0
LINE
  8
_0-0_
  6
CENTER1
 62
  152
 10
376.27399800560471
 20
47.244214296626751
 11
358.07399800560466
 21
47.244214296626751
  0
LINE
  8
_0-0_
  6
CENTER1
 62
  152
 10
410.07399800560466
 20
47.244214296626751
 11
428.27399800560471
 21
47.244214296626751
  0
LINE
  8
_0-0_
  6
CENTER1
 62
  152
 10
419.1739980056048
 20
38.144214296626728
 11
419.1739980056048
 21
56.344214296626774
  0
CIRCLE
  8
_0-0_
  6
CONTINUOUS
 62
    7
 10
476.77399800560471
 20
124.24421429662675
 40
7.9999999999999964
  0
CIRCLE
  8
_0-0_
  6
CONTINUOUS
 62
    7
 10
476.77399800560471
 20
124.24421429662675
 40
10.29289321881345
  0
CIRCLE
  8
_0-0_
  6
CONTINUOUS
 62
    7
 10
476.77399800560471
 20
124.24421429662675
 40
11.000000000000011
  0
ARC
  8
_0-0_
  6
CONTINUOUS
 62
    7
 10
476.77399800560471
 20
124.24421429662675
 40
11.99202955864645
 50
125.08386559847976
 51
174.91613440152022
  0
ARC
  8
_0-0_
  6
CONTINUOUS
 62
    7
 10
476.77399800560471
 20
124.24421429662675
 40
11.99202955864645
 50
5.0838655984796866
 51
54.916134401520196
  0
ARC
  8
_0-0_
  6
CONTINUOUS
 62
    7
 10
476.77399800560471
 20
124.24421429662675
 40
11.99202955864645
 50
245.08386559848
 51
294.9161344015202
  0
ARC
  8
_0-0_
  6
CONTINUOUS
 62
    7
 10
476.77399800560471
 20
124.24421429662675
 40
14.53388610048278
 50
124.14577641709468
 51
175.85422358290523
  0
ARC
  8
_0-0_
  6
CONTINUOUS
 62
    7
 10
476.77399800560471
 20
124.24421429662675
 40
14.53388610048278
 50
244.14577641709471
 51
295.85422358290526
  0
ARC
  8
_0-0_
  6
CONTINUOUS
 62
    7
 10
476.77399800560471
 20
124.24421429662675
 40
14.53388610048278
 50
4.1457764170947087
 51
55.854223582905213
  0
ARC
  8
_0-0_
  6
CONTINUOUS
 62
    7
 10
490.73823804937393
 20
125.24421429662675
 40
1
 50
270
 51
4.0960437581524047
  0
ARC
  8
_0-0_
  6
CONTINUOUS
 62
    7
 10
470.65790338750463
 20
111.65082767417874
 40
1
 50
150.00000000000009
 51
244.09604375815084
  0
ARC
  8
_0-0_
  6
CONTINUOUS
 62
    7
 10
484.62214343127545
 20
135.83760091907766
 40
1
 50
55.903956241833008
 51
150.00000000019469
  0
ARC
  8
_0-0_
  6
CONTINUOUS
 62
    7
 10
468.92585257993579
 20
135.8376009190747
 40
1
 50
29.999999999999993
 51
124.09604375815398
  0
ARC
  8
_0-0_
  6
CONTINUOUS
 62
    7
 10
482.89009262370661
 20
111.65082767417579
 40
1
 50
295.90395624183429
 51
30.000000000196994
  0
ARC
  8
_0-0_
  6
CONTINUOUS
 62
    7
 10
462.80975796183571
 20
125.24421429662675
 40
1
 50
175.90395624184742
 51
270
  0
ARC
  8
_0-0_
  6
CONTINUOUS
 62
    7
 10
476.77399800560471
 20
124.24421429662675
 40
15.000000000000171
 50
124.09604375815218
 51
175.90395624184757
  0
ARC
  8
_0-0_
  6
CONTINUOUS
 62
    7
 10
476.77399800560471
 20
124.24421429662675
 40
15.000000000000171
 50
244.09604375815226
 51
295.9039562418476
  0
ARC
  8
_0-0_
  6
CONTINUOUS
 62
    7
 10
476.77399800560471
 20
124.24421429662675
 40
15.000000000000171
 50
4.096043758152307
 51
55.903956241847709
  0
CIRCLE
  8
_0-0_
  6
CONTINUOUS
 62
    7
 10
419.1739980056048
 20
99.244214296626751
 40
4.1000000000000076
  0
CIRCLE
  8
_0-0_
  6
CONTINUOUS
 62
    7
 10
419.1739980056048
 20
47.244214296626751
 40
4.1000000000000076
  0
CIRCLE
  8
_0-0_
  6
CONTINUOUS
 62
    7
 10
367.1739980056048
 20
47.244214296626751
 40
4.0999999999999934
  0
CIRCLE
  8
_0-0_
  6
CONTINUOUS
 62
    7
 10
367.1739980056048
 20
99.244214296626751
 40
4.0999999999999934
  0
CIRCLE
  8
_0-0_
  6
CONTINUOUS
 62
    7
 10
448.1739980056048
 20
20.744214296626751
 40
3.2500000000000027
  0
CIRCLE
  8
_0-0_
  6
CONTINUOUS
 62
    7
 10
448.1739980056048
 20
95.744214296626751
 40
3.2500000000000027
  0
CIRCLE
  8
_0-0_
  6
CONTINUOUS
 62
    7
 10
415.6739980056048
 20
128.24421429662675
 40
3.2500000000000027
  0
CIRCLE
  8
_0-0_
  6
CONTINUOUS
 62
    7
 10
340.6739980056048
 20
128.24421429662675
 40
3.2500000000000027
  0
ARC
  8
_0-0_
  6
CONTINUOUS
 62
    7
 10
338.17399800560412
 20
76.244214296626637
 40
9.9999999999993978
 50
179.99999999999943
 51
225.00000000000182
  0
ARC
  8
_0-0_
  6
CONTINUOUS
 62
    7
 10
396.17399800560503
 20
18.244214296627661
 40
10.000000000000902
 50
225.00000000000222
 51
270
  0
ARC
  8
_0-0_
  6
CONTINUOUS
 62
    7
 10
456.54235604169077
 20
18.244214296626524
 40
9.9999999999997584
 50
270
 51
344.69915442755143
  0
ARC
  8
_0-0_
  6
CONTINUOUS
 62
    7
 10
483.1739980056048
 20
115.58745733714062
 40
9.9999999999999147
 50
344.69915442755001
 51
0.0000000000001304
  0
LINE
  8
_0-0_
  6
CONTINUOUS
 62
    7
 10
468.61612201541749
 20
404.0112894620919
 11
468.6169051570003
 21
404.01179930174516
  0
LINE
  8
_0-0_
  6
CONTINUOUS
 62
    7
 10
468.6169051570003
 20
404.01179930174516
 11
468.91945677161658
 21
404.15454658811763
  0
LINE
  8
_0-0_
  6
CONTINUOUS
 62
    7
 10
468.91945677161658
 20
404.15454658811763
 11
469.2318397550078
 21
404.21631641362427
  0
LINE
  8
_0-0_
  6
CONTINUOUS
 62
    7
 10
469.2318397550078
 20
404.21631641362427
 11
469.51878281211572
 21
404.19024404183438
  0
LINE
  8
_0-0_
  6
CONTINUOUS
 62
    7
 10
469.51878281211572
 20
404.19024404183438
 11
469.74783153512618
 21
404.07945758168313
  0
LINE
  8
_0-0_
  6
CONTINUOUS
 62
    7
 10
469.74783153512618
 20
404.07945758168313
 11
469.85878114213489
 21
403.95902431685727
  0
LINE
  8
_0-0_
  6
CONTINUOUS
 62
    7
 10
469.85878114213489
 20
403.95902431685727
 11
469.87205111685722
 21
403.93739144561079
  0
LINE
  8
_0-0_
  6
CONTINUOUS
 62
    7
 10
469.7918779837201
 20
404.07625538560615
 11
471.27399800560471
 21
401.50914820478687
  0
LINE
  8
_0-0_
  6
CONTINUOUS
 62
    7
 10
471.15276611894166
 20
401.71912799198458
 11
471.13314284173777
 21
401.7503801129252
  0
LINE
  8
_0-0_
  6
CONTINUOUS
 62
    7
 10
471.13314284173777
 20
401.7503801129252
 11
471.01963684151798
 21
401.86987500398976
  0
LINE
  8
_0-0_
  6
CONTINUOUS
 62
    7
 10
471.01963684151798
 20
401.86987500398976
 11
470.78630388032417
 21
401.98060047100444
  0
LINE
  8
_0-0_
  6
CONTINUOUS
 62
    7
 10
470.78630388032417
 20
401.98060047100444
 11
470.49669329625436
 21
402.00540248751309
  0
LINE
  8
_0-0_
  6
CONTINUOUS
 62
    7
 10
470.49669329625436
 20
402.00540248751309
 11
470.1833999150561
 21
401.94158087560999
  0
LINE
  8
_0-0_
  6
CONTINUOUS
 62
    7
 10
470.1833999150561
 20
401.94158087560999
 11
469.8817173047758
 21
401.7963776672612
  0
LINE
  8
_0-0_
  6
CONTINUOUS
 62
    7
 10
469.8817173047758
 20
401.7963776672612
 11
469.88128113988438
 21
401.79608572521607
  0
LINE
  8
_0-0_
  6
CENTER1
 62
  152
 10
476.77399800560471
 20
407.27576198197158
 11
476.77399800560471
 21
376.68997554434469
  0
LINE
  8
_0-0_
  6
CONTINUOUS
 62
    7
 10
470.43601810801493
 20
378.90373056526545
 11
470.43518500313218
 21
378.90415386594526
  0
LINE
  8
_0-0_
  6
CONTINUOUS
 62
    7
 10
470.43518500313218
 20
378.90415386594526
 11
470.16028641950453
 21
379.0947976069728
  0
LINE
  8
_0-0_
  6
CONTINUOUS
 62
    7
 10
470.16028641950453
 20
379.0947976069728
 11
469.95060068973322
 21
379.33444429354694
  0
LINE
  8
_0-0_
  6
CONTINUOUS
 62
    7
 10
469.95060068973322
 20
379.33444429354694
 11
469.82970849748614
 21
379.59598045633692
  0
LINE
  8
_0-0_
  6
CONTINUOUS
 62
    7
 10
469.82970849748614
 20
379.59598045633692
 11
469.81112802487002
 21
379.84973569924881
  0
LINE
  8
_0-0_
  6
CONTINUOUS
 62
    7
 10
469.81112802487002
 20
379.84973569924881
 11
469.85995148815738
 21
380.00603750985709
  0
LINE
  8
_0-0_
  6
CONTINUOUS
 62
    7
 10
469.85995148815738
 20
380.00603750985709
 11
469.8720511168645
 21
380.02834608071788
  0
LINE
  8
_0-0_
  6
CONTINUOUS
 62
    7
 10
469.7918779837201
 20
379.88948214071007
 11
471.27399800560471
 21
382.45658932152918
  0
LINE
  8
_0-0_
  6
CONTINUOUS
 62
    7
 10
471.15276611894188
 20
382.24660953433164
 11
471.13551262688412
 21
382.21398921729195
  0
LINE
  8
_0-0_
  6
CONTINUOUS
 62
    7
 10
471.13551262688412
 20
382.21398921729195
 11
471.08878001571298
 21
382.0559426920932
  0
LINE
  8
_0-0_
  6
CONTINUOUS
 62
    7
 10
471.08878001571298
 20
382.0559426920932
 11
471.10955542902576
 21
381.79850768664591
  0
LINE
  8
_0-0_
  6
CONTINUOUS
 62
    7
 10
471.10955542902576
 20
381.79850768664591
 11
471.23288154470225
 21
381.53529655538745
  0
LINE
  8
_0-0_
  6
CONTINUOUS
 62
    7
 10
471.23288154470225
 20
381.53529655538745
 11
471.44479937252032
 21
381.2958873343843
  0
LINE
  8
_0-0_
  6
CONTINUOUS
 62
    7
 10
471.44479937252032
 20
381.2958873343843
 11
471.72139034480193
 21
381.10722413417653
  0
LINE
  8
_0-0_
  6
CONTINUOUS
 62
    7
 10
471.72139034480193
 20
381.10722413417653
 11
471.72186125647278
 21
381.10699237531952
  0
LINE
  8
_0-0_
  6
CONTINUOUS
 62
    7
 10
481.82613475473596
 20
381.10699237532043
 11
481.82660566640703
 21
381.10722413417801
  0
LINE
  8
_0-0_
  6
CONTINUOUS
 62
    7
 10
481.82660566640772
 20
381.10722413417619
 11
482.10319663869024
 21
381.29588733438271
  0
LINE
  8
_0-0_
  6
CONTINUOUS
 62
    7
 10
482.10319663869024
 20
381.29588733438271
 11
482.31511446650671
 21
381.53529655538847
  0
LINE
  8
_0-0_
  6
CONTINUOUS
 62
    7
 10
482.31511446650671
 20
381.53529655538847
 11
482.43844058218252
 21
381.79850768664784
  0
LINE
  8
_0-0_
  6
CONTINUOUS
 62
    7
 10
482.43844058218252
 20
381.79850768664784
 11
482.45921599550098
 21
382.05594269208581
  0
LINE
  8
_0-0_
  6
CONTINUOUS
 62
    7
 10
482.45921599550098
 20
382.05594269208581
 11
482.41248338478414
 21
382.21398921634164
  0
LINE
  8
_0-0_
  6
CONTINUOUS
 62
    7
 10
482.41248338478414
 20
382.21398921634164
 11
482.39522989224753
 21
382.24660953436654
  0
LINE
  8
_0-0_
  6
CONTINUOUS
 62
    7
 10
482.27399800560471
 20
382.45658932152918
 11
483.75611802748932
 21
379.88948214071019
  0
LINE
  8
_0-0_
  6
CONTINUOUS
 62
    7
 10
483.73686798633986
 20
379.8497356992479
 11
483.71828751372306
 21
379.5959804563376
  0
LINE
  8
_0-0_
  6
CONTINUOUS
 62
    7
 10
483.71828751372306
 20
379.5959804563376
 11
483.59739532147665
 21
379.33444429354648
  0
LINE
  8
_0-0_
  6
CONTINUOUS
 62
    7
 10
483.59739532147665
 20
379.33444429354648
 11
483.38770959170466
 21
379.09479760697337
  0
LINE
  8
_0-0_
  6
CONTINUOUS
 62
    7
 10
483.38770959170466
 20
379.09479760697337
 11
483.11281100807747
 21
378.90415386594481
  0
LINE
  8
_0-0_
  6
CONTINUOUS
 62
    7
 10
483.11281100807656
 20
378.90415386594663
 11
483.11197790319403
 21
378.90373056526613
  0
LINE
  8
_0-0_
  6
CONTINUOUS
 62
    7
 10
483.73686798633986
 20
379.8497356992479
 11
483.68804452304386
 21
380.00603750987324
  0
LINE
  8
_0-0_
  6
CONTINUOUS
 62
    7
 10
483.68804452304386
 20
380.00603750987324
 11
483.67594489431059
 21
380.02834608077745
  0
LINE
  8
_0-0_
  6
CONTINUOUS
 62
    7
 10
492.81953324668603
 20
380.68723895469685
 11
466.187891282772
 21
283.34399591418304
  0
LINE
  8
_0-0_
  6
CENTER1
 62
  152
 10
456.4239980056048
 20
288.48286876315814
 11
439.9239980056048
 21
288.48286876315814
  0
LINE
  8
_0-0_
  6
CENTER1
 62
  152
 10
448.1739980056048
 20
280.23286876315814
 11
448.1739980056048
 21
296.73286876315814
  0
LINE
  8
_0-0_
  6
CONTINUOUS
 62
    7
 10
456.54235604169054
 20
275.98286876315814
 11
396.1739980056048
 21
275.98286876315814
  0
LINE
  8
_0-0_
  6
CONTINUOUS
 62
    7
 10
389.10293019373927
 20
278.91180095129261
 11
331.10293019373927
 21
336.91180095129261
  0
LINE
  8
_0-0_
  6
CONTINUOUS
 62
    7
 10
328.1739980056048
 20
343.98286876315802
 11
328.1739980056048
 21
411.98286876315802
  0
LINE
  8
_0-0_
  6
CONTINUOUS
 62
    7
 10
328.1739980056048
 20
411.98286876315802
 11
493.17399800560457
 21
411.98286876315802
  0
LINE
  8
_0-0_
  6
CONTINUOUS
 62
    7
 10
493.17399800560457
 20
411.98286876315802
 11
493.17399800560457
 21
383.32611180367195
  0
LINE
  8
_0-0_
  6
CENTER1
 62
  152
 10
492.06689122441804
 20
391.98286876315802
 11
461.48110478679138
 21
391.98286876315802
  0
LINE
  8
_0-0_
  6
CONTINUOUS
 62
    7
 10
462.57449330399692
 20
392.1623817913042
 11
462.40844243913608
 21
392.39784558230423
  0
LINE
  8
_0-0_
  6
CONTINUOUS
 62
    7
 10
462.40844243913608
 20
392.39784558230423
 11
462.30574518551686
 21
392.69926209438432
  0
LINE
  8
_0-0_
  6
CONTINUOUS
 62
    7
 10
462.30574518551686
 20
392.69926209438432
 11
462.27809215452754
 21
393.03265312178422
  0
LINE
  8
_0-0_
  6
CONTINUOUS
 62
    7
 10
462.27809215452959
 20
393.03265312178405
 11
462.27814211782817
 21
393.03358626211667
  0
LINE
  8
_0-0_
  6
CONTINUOUS
 62
    7
 10
462.57449330399692
 20
392.1623817913042
 11
462.78496155439217
 21
392.01941300854838
  0
LINE
  8
_0-0_
  6
CONTINUOUS
 62
    7
 10
462.78496155439217
 20
392.01941300854838
 11
462.9447346245318
 21
391.98354446276011
  0
LINE
  8
_0-0_
  6
CONTINUOUS
 62
    7
 10
462.9447346245318
 20
391.98354446276011
 11
462.97010422819272
 21
391.98286876315802
  0
LINE
  8
_0-0_
  6
CONTINUOUS
 62
    7
 10
462.80975796183549
 20
391.98286876315802
 11
465.77399800560471
 21
391.98286876315802
  0
LINE
  8
_0-0_
  6
CONTINUOUS
 62
    7
 10
465.53153423231703
 20
391.98286876315802
 11
465.49465746190805
 21
391.98423695933349
  0
LINE
  8
_0-0_
  6
CONTINUOUS
 62
    7
 10
465.49465746190805
 20
391.98423695933349
 11
465.33441885162375
 21
392.02278859339179
  0
LINE
  8
_0-0_
  6
CONTINUOUS
 62
    7
 10
465.33441885162375
 20
392.02278859339179
 11
465.12186130374772
 21
392.16949813181867
  0
LINE
  8
_0-0_
  6
CONTINUOUS
 62
    7
 10
465.12186130374772
 20
392.16949813181867
 11
464.9555768353494
 21
392.40790724657364
  0
LINE
  8
_0-0_
  6
CONTINUOUS
 62
    7
 10
464.9555768353494
 20
392.40790724657364
 11
464.85420128196989
 21
392.71113807948046
  0
LINE
  8
_0-0_
  6
CONTINUOUS
 62
    7
 10
464.85420128196989
 20
392.71113807948046
 11
464.82910964397598
 21
393.04500448803776
  0
LINE
  8
_0-0_
  6
CONTINUOUS
 62
    7
 10
464.8291096439753
 20
393.04500448803776
 11
464.82914439075222
 21
393.04552818893626
  0
LINE
  8
_0-0_
  6
CONTINUOUS
 62
    7
 10
488.71885162045493
 20
393.04552818893626
 11
488.71888636723639
 21
393.04500448803765
  0
LINE
  8
_0-0_
  6
CONTINUOUS
 62
    7
 10
488.71888636723639
 20
393.04500448803765
 11
488.69379472924044
 21
392.71113807948046
  0
LINE
  8
_0-0_
  6
CONTINUOUS
 62
    7
 10
488.69379472924044
 20
392.71113807948046
 11
488.59241917585797
 21
392.40790724657364
  0
LINE
  8
_0-0_
  6
CONTINUOUS
 62
    7
 10
488.59241917585797
 20
392.40790724657364
 11
488.42613470746238
 21
392.16949813181867
  0
LINE
  8
_0-0_
  6
CONTINUOUS
 62
    7
 10
488.42613470746238
 20
392.16949813181867
 11
488.21357715958931
 21
392.02278859339179
  0
LINE
  8
_0-0_
  6
CONTINUOUS
 62
    7
 10
488.21357715958931
 20
392.02278859339179
 11
488.05333854820611
 21
391.9842369592522
  0
LINE
  8
_0-0_
  6
CONTINUOUS
 62
    7
 10
488.05333854820611
 20
391.9842369592522
 11
488.01646177905292
 21
391.98286876315802
  0
LINE
  8
_0-0_
  6
CONTINUOUS
 62
    7
 10
487.77399800560471
 20
391.98286876315802
 11
490.73823804937393
 21
391.98286876315802
  0
LINE
  8
_0-0_
  6
CONTINUOUS
 62
    7
 10
490.76303445681907
 20
392.01941300854838
 11
490.97350270721319
 21
392.16238179130431
  0
LINE
  8
_0-0_
  6
CONTINUOUS
 62
    7
 10
490.97350270721319
 20
392.16238179130431
 11
491.13955357207334
 21
392.39784558230423
  0
LINE
  8
_0-0_
  6
CONTINUOUS
 62
    7
 10
491.13955357207334
 20
392.39784558230423
 11
491.24225082569257
 21
392.69926209438432
  0
LINE
  8
_0-0_
  6
CONTINUOUS
 62
    7
 10
491.24225082569257
 20
392.69926209438432
 11
491.26990385668097
 21
393.03265312178422
  0
LINE
  8
_0-0_
  6
CONTINUOUS
 62
    7
 10
491.26990385668097
 20
393.03265312178422
 11
491.26985389338171
 21
393.03358626211667
  0
LINE
  8
_0-0_
  6
CONTINUOUS
 62
    7
 10
490.76303445681907
 20
392.01941300854838
 11
490.60326138652209
 21
391.98354446275169
  0
LINE
  8
_0-0_
  6
CONTINUOUS
 62
    7
 10
490.60326138652209
 20
391.98354446275169
 11
490.5778917831006
 21
391.98286876315802
  0
LINE
  8
_0-0_
  6
CONTINUOUS
 62
    7
 10
483.66671487132595
 20
401.79608572521767
 11
483.66627870643316
 21
401.79637766726006
  0
LINE
  8
_0-0_
  6
CONTINUOUS
 62
    7
 10
483.66627870643339
 20
401.79637766726034
 11
483.36459609615287
 21
401.94158087560925
  0
LINE
  8
_0-0_
  6
CONTINUOUS
 62
    7
 10
483.36459609615287
 20
401.94158087560925
 11
483.05130271495506
 21
402.00540248751315
  0
LINE
  8
_0-0_
  6
CONTINUOUS
 62
    7
 10
483.05130271495506
 20
402.00540248751315
 11
482.7616921308848
 21
401.98060047100387
  0
LINE
  8
_0-0_
  6
CONTINUOUS
 62
    7
 10
482.7616921308848
 20
401.98060047100387
 11
482.5283591696903
 21
401.86987500398817
  0
LINE
  8
_0-0_
  6
CONTINUOUS
 62
    7
 10
482.5283591696903
 20
401.86987500398817
 11
482.41485317012558
 21
401.75038011388784
  0
LINE
  8
_0-0_
  6
CONTINUOUS
 62
    7
 10
482.41485317012558
 20
401.75038011388784
 11
482.39522989226799
 21
401.71912799198509
  0
LINE
  8
_0-0_
  6
CONTINUOUS
 62
    7
 10
482.27399800560471
 20
401.50914820478692
 11
483.75611802748932
 21
404.07625538560609
  0
LINE
  8
_0-0_
  6
CONTINUOUS
 62
    7
 10
483.80016447608006
 20
404.0794575816779
 11
483.68921486902769
 21
403.95902431678627
  0
LINE
  8
_0-0_
  6
CONTINUOUS
 62
    7
 10
483.68921486902769
 20
403.95902431678627
 11
483.67594489434492
 21
403.93739144559828
  0
LINE
  8
_0-0_
  6
CONTINUOUS
 62
    7
 10
483.80016447608006
 20
404.0794575816779
 11
484.02921319909325
 21
404.19024404183375
  0
LINE
  8
_0-0_
  6
CONTINUOUS
 62
    7
 10
484.02921319909325
 20
404.19024404183375
 11
484.3161562562014
 21
404.21631641362404
  0
LINE
  8
_0-0_
  6
CONTINUOUS
 62
    7
 10
484.3161562562014
 20
404.21631641362404
 11
484.62853923959239
 21
404.15454658811689
  0
LINE
  8
_0-0_
  6
CONTINUOUS
 62
    7
 10
484.62853923959239
 20
404.15454658811689
 11
484.93109085420866
 21
404.01179930174487
  0
LINE
  8
_0-0_
  6
CONTINUOUS
 62
    7
 10
484.93109085420798
 20
404.01179930174368
 11
484.93187399579193
 21
404.01128946209167
  0
LINE
  8
_0-0_
  6
CONTINUOUS
 62
    7
 10
493.1739980056048
 20
408.78286876315826
 11
328.1739980056048
 21
408.78286876315826
  0
LINE
  8
_0-0_
  6
CENTER1
 62
  152
 10
340.6739980056048
 20
404.23286876315802
 11
340.6739980056048
 21
387.73286876315802
  0
LINE
  8
_0-0_
  6
CENTER1
 62
  152
 10
348.9239980056048
 20
395.98286876315802
 11
332.4239980056048
 21
395.98286876315802
  0
LINE
  8
_0-0_
  6
CENTER1
 62
  152
 10
358.07399800560466
 20
366.98286876315802
 11
376.27399800560471
 21
366.98286876315802
  0
LINE
  8
_0-0_
  6
CENTER1
 62
  152
 10
367.1739980056048
 20
357.882868763158
 11
367.1739980056048
 21
376.08286876315805
  0
LINE
  8
_0-0_
  6
CENTER1
 62
  152
 10
410.07399800560466
 20
366.98286876315802
 11
428.27399800560471
 21
366.98286876315802
  0
LINE
  8
_0-0_
  6
CENTER1
 62
  152
 10
439.9239980056048
 20
363.48286876315802
 11
456.4239980056048
 21
363.48286876315802
  0
LINE
  8
_0-0_
  6
CENTER1
 62
  152
 10
448.1739980056048
 20
355.23286876315802
 11
448.1739980056048
 21
371.73286876315802
  0
LINE
  8
_0-0_
  6
CENTER1
 62
  152
 10
419.1739980056048
 20
376.08286876315805
 11
419.1739980056048
 21
357.882868763158
  0
LINE
  8
_0-0_
  6
CENTER1
 62
  152
 10
415.6739980056048
 20
387.73286876315802
 11
415.6739980056048
 21
404.23286876315802
  0
LINE
  8
_0-0_
  6
CENTER1
 62
  152
 10
423.9239980056048
 20
395.98286876315802
 11
407.4239980056048
 21
395.98286876315802
  0
LINE
  8
_0-0_
  6
CENTER1
 62
  152
 10
410.07399800560466
 20
314.98286876315814
 11
428.27399800560471
 21
314.98286876315814
  0
LINE
  8
_0-0_
  6
CENTER1
 62
  152
 10
419.1739980056048
 20
305.88286876315823
 11
419.1739980056048
 21
324.08286876315816
  0
LINE
  8
_0-0_
  6
CENTER1
 62
  152
 10
367.1739980056048
 20
324.08286876315805
 11
367.1739980056048
 21
305.88286876315823
  0
LINE
  8
_0-0_
  6
CENTER1
 62
  152
 10
376.27399800560471
 20
314.98286876315814
 11
358.07399800560466
 21
314.98286876315814
  0
CIRCLE
  8
_0-0_
  6
CONTINUOUS
 62
    7
 10
476.77399800560471
 20
391.98286876315802
 40
6.0000000000000036
  0
CIRCLE
  8
_0-0_
  6
CONTINUOUS
 62
    7
 10
476.77399800560471
 20
391.98286876315802
 40
10.29289321881345
  0
CIRCLE
  8
_0-0_
  6
CONTINUOUS
 62
    7
 10
476.77399800560471
 20
391.98286876315802
 40
11.000000000000011
  0
ARC
  8
_0-0_
  6
CONTINUOUS
 62
    7
 10
476.77399800560471
 20
391.98286876315802
 40
11.99202955864645
 50
125.08386559847983
 51
174.91613440152031
  0
ARC
  8
_0-0_
  6
CONTINUOUS
 62
    7
 10
476.77399800560471
 20
391.98286876315802
 40
11.99202955864645
 50
5.0838655984796866
 51
54.91613440152009
  0
ARC
  8
_0-0_
  6
CONTINUOUS
 62
    7
 10
476.77399800560471
 20
391.98286876315802
 40
11.99202955864645
 50
245.08386559848
 51
294.91613440152042
  0
ARC
  8
_0-0_
  6
CONTINUOUS
 62
    7
 10
476.77399800560471
 20
391.98286876315802
 40
14.53388610048278
 50
124.14577641709471
 51
175.85422358290515
  0
ARC
  8
_0-0_
  6
CONTINUOUS
 62
    7
 10
476.77399800560471
 20
391.98286876315802
 40
14.53388610048278
 50
244.14577641709471
 51
295.85422358290526
  0
ARC
  8
_0-0_
  6
CONTINUOUS
 62
    7
 10
476.77399800560471
 20
391.98286876315802
 40
14.53388610048278
 50
4.1457764170945941
 51
55.854223582905206
  0
ARC
  8
_0-0_
  6
CONTINUOUS
 62
    7
 10
490.73823804937393
 20
392.98286876315802
 40
1
 50
270
 51
4.0960437581547353
  0
ARC
  8
_0-0_
  6
CONTINUOUS
 62
    7
 10
470.65790338750463
 20
379.38948214071019
 40
1
 50
149.99999999999989
 51
244.0960437581515
  0
ARC
  8
_0-0_
  6
CONTINUOUS
 62
    7
 10
484.62214343127545
 20
403.57625538560893
 40
1
 50
55.90395624183499
 51
150.00000000019023
  0
ARC
  8
_0-0_
  6
CONTINUOUS
 62
    7
 10
468.92585257993579
 20
403.57625538560609
 40
1
 50
29.999999999999304
 51
124.0960437581526
  0
ARC
  8
_0-0_
  6
CONTINUOUS
 62
    7
 10
482.89009262370661
 20
379.38948214070723
 40
1
 50
295.90395624183469
 51
30.000000000197019
  0
ARC
  8
_0-0_
  6
CONTINUOUS
 62
    7
 10
462.80975796183549
 20
392.98286876315802
 40
1
 50
175.90395624184865
 51
270
  0
ARC
  8
_0-0_
  6
CONTINUOUS
 62
    7
 10
476.77399800560471
 20
391.98286876315802
 40
15.000000000000171
 50
124.09604375815222
 51
175.90395624184768
  0
ARC
  8
_0-0_
  6
CONTINUOUS
 62
    7
 10
476.77399800560471
 20
391.98286876315802
 40
15.000000000000171
 50
244.09604375815226
 51
295.90395624184771
  0
ARC
  8
_0-0_
  6
CONTINUOUS
 62
    7
 10
476.77399800560471
 20
391.98286876315802
 40
15.000000000000171
 50
4.0960437581521036
 51
55.903956241847602
  0
CIRCLE
  8
_0-0_
  6
CONTINUOUS
 62
    7
 10
419.1739980056048
 20
366.98286876315802
 40
4.1000000000000076
  0
CIRCLE
  8
_0-0_
  6
CONTINUOUS
 62
    7
 10
419.1739980056048
 20
314.98286876315814
 40
4.1000000000000076
  0
CIRCLE
  8
_0-0_
  6
CONTINUOUS
 62
    7
 10
367.1739980056048
 20
314.98286876315814
 40
4.0999999999999934
  0
CIRCLE
  8
_0-0_
  6
CONTINUOUS
 62
    7
 10
367.1739980056048
 20
366.98286876315802
 40
4.0999999999999934
  0
CIRCLE
  8
_0-0_
  6
CONTINUOUS
 62
    7
 10
448.1739980056048
 20
288.48286876315814
 40
3.2500000000000027
  0
CIRCLE
  8
_0-0_
  6
CONTINUOUS
 62
    7
 10
448.1739980056048
 20
363.48286876315802
 40
3.2500000000000027
  0
CIRCLE
  8
_0-0_
  6
CONTINUOUS
 62
    7
 10
415.6739980056048
 20
395.98286876315802
 40
3.2500000000000027
  0
CIRCLE
  8
_0-0_
  6
CONTINUOUS
 62
    7
 10
340.6739980056048
 20
395.98286876315802
 40
3.2500000000000027
  0
ARC
  8
_0-0_
  6
CONTINUOUS
 62
    7
 10
338.17399800560412
 20
343.98286876315802
 40
9.9999999999993978
 50
179.99999999999966
 51
225.00000000000182
  0
ARC
  8
_0-0_
  6
CONTINUOUS
 62
    7
 10
396.17399800560503
 20
285.98286876315905
 40
10.000000000000902
 50
225.00000000000261
 51
270
  0
ARC
  8
_0-0_
  6
CONTINUOUS
 62
    7
 10
456.54235604169077
 20
285.98286876315791
 40
9.9999999999997584
 50
270
 51
344.69915442755064
  0
ARC
  8
_0-0_
  6
CONTINUOUS
 62
    7
 10
483.1739980056048
 20
383.32611180367195
 40
9.9999999999999147
 50
344.6991544275503
 51
0.0000000000003244
  0
LINE
  8
_0-0_
  6
CONTINUOUS
 62
    7
 10
487.77399800560465
 20
470.08969910502333
 11
487.77399800560465
 21
474.41266770119682
  0
LINE
  8
_0-0_
  6
CONTINUOUS
 62
    7
 10
487.17399800560452
 20
474.38259232383649
 11
334.1739980056048
 21
474.38259232383649
  0
LINE
  8
_0-0_
  6
CONTINUOUS
 62
    7
 10
328.1739980056048
 20
480.38259232383655
 11
328.1739980056048
 21
489.38259232383649
  0
LINE
  8
_0-0_
  6
CONTINUOUS
 62
    7
 10
328.1739980056048
 20
489.38259232383649
 11
493.17399800560474
 21
489.3825923238366
  0
LINE
  8
_0-0_
  6
CONTINUOUS
 62
    7
 10
493.17399800560474
 20
489.3825923238366
 11
493.17399800560452
 21
480.38259232383655
  0
LINE
  8
_0-0_
  6
CONTINUOUS
 62
    7
 10
487.77399800560465
 20
470.08969910502333
 11
487.06689122441799
 21
469.38259232383672
  0
LINE
  8
_0-0_
  6
CONTINUOUS
 62
    7
 10
487.06689122441799
 20
469.38259232383672
 11
466.48110478679132
 21
469.38259232383672
  0
LINE
  8
_0-0_
  6
CONTINUOUS
 62
    7
 10
466.48110478679132
 20
469.38259232383672
 11
465.77399800560465
 21
470.08969910502333
  0
LINE
  8
_0-0_
  6
CONTINUOUS
 62
    7
 10
465.77399800560465
 20
470.08969910502333
 11
465.77399800560465
 21
474.38259232383649
  0
LINE
  8
_0-0_
  6
CONTINUOUS
 62
    7
 10
465.77399800560465
 20
470.08969910502333
 11
487.77399800560465
 21
470.08969910502333
  0
LINE
  8
_0-0_
  6
CENTER1
 62
  152
 10
476.77399800560465
 20
464.38259232383672
 11
476.77399800560465
 21
479.41266770119682
  0
ARC
  8
_0-0_
  6
CONTINUOUS
 62
    7
 10
487.17399800560452
 20
480.38259232383655
 40
6
 50
270
 51
359.99999999999972
  0
ARC
  8
_0-0_
  6
CONTINUOUS
 62
    7
 10
334.1739980056048
 20
480.38259232383655
 40
6
 50
180.00000000000023
 51
270
  0
LINE
  8
_0-0_
  6
CONTINUOUS
 62
    7
 10
487.77399800560471
 20
202.35104463849206
 11
487.77399800560471
 21
206.67401323466555
  0
LINE
  8
_0-0_
  6
CONTINUOUS
 62
    7
 10
487.17399800560457
 20
206.64393785730522
 11
334.1739980056048
 21
206.64393785730522
  0
LINE
  8
_0-0_
  6
CONTINUOUS
 62
    7
 10
328.1739980056048
 20
212.64393785730527
 11
328.1739980056048
 21
221.64393785730522
  0
LINE
  8
_0-0_
  6
CONTINUOUS
 62
    7
 10
328.1739980056048
 20
221.64393785730522
 11
493.1739980056048
 21
221.64393785730533
  0
LINE
  8
_0-0_
  6
CONTINUOUS
 62
    7
 10
493.1739980056048
 20
221.64393785730533
 11
493.17399800560457
 21
212.64393785730527
  0
LINE
  8
_0-0_
  6
CONTINUOUS
 62
    7
 10
487.77399800560471
 20
202.35104463849206
 11
487.06689122441804
 21
201.64393785730545
  0
LINE
  8
_0-0_
  6
CONTINUOUS
 62
    7
 10
487.06689122441804
 20
201.64393785730545
 11
466.48110478679138
 21
201.64393785730545
  0
LINE
  8
_0-0_
  6
CONTINUOUS
 62
    7
 10
466.48110478679138
 20
201.64393785730545
 11
465.77399800560471
 21
202.35104463849206
  0
LINE
  8
_0-0_
  6
CONTINUOUS
 62
    7
 10
465.77399800560471
 20
202.35104463849206
 11
465.77399800560471
 21
206.64393785730522
  0
LINE
  8
_0-0_
  6
CONTINUOUS
 62
    7
 10
465.77399800560471
 20
202.35104463849206
 11
487.77399800560471
 21
202.35104463849206
  0
LINE
  8
_0-0_
  6
CENTER1
 62
  152
 10
476.77399800560471
 20
196.64393785730545
 11
476.77399800560471
 21
211.67401323466555
  0
ARC
  8
_0-0_
  6
CONTINUOUS
 62
    7
 10
487.17399800560457
 20
212.64393785730527
 40
6
 50
270
 51
359.99999999999972
  0
ARC
  8
_0-0_
  6
CONTINUOUS
 62
    7
 10
334.1739980056048
 20
212.64393785730527
 40
6
 50
180.00000000000023
 51
270
  0
LINE
  8
_0-0_
  6
CONTINUOUS
 62
    7
 10
536.54992956477304
 20
8.2442142966266374
 11
536.54992956477304
 21
140.49421429662675
  0
LINE
  8
_0-0_
  6
CONTINUOUS
 62
    7
 10
533.34992956477311
 20
140.54421429662671
 11
533.34992956477311
 21
8.2442142966266374
  0
LINE
  8
_0-0_
  6
CONTINUOUS
 62
    7
 10
533.34992956477311
 20
8.2442142966266374
 11
536.54992956477292
 21
8.2442142966266374
  0
LINE
  8
_0-0_
  6
CONTINUOUS
 62
    7
 10
532.26315473472403
 20
109.71032819614379
 11
529.76084166223961
 21
112.25218473798009
  0
LINE
  8
_0-0_
  6
CONTINUOUS
 62
    7
 10
529.76084166223961
 20
112.25218473798009
 11
529.76084166223961
 21
113.36833790878882
  0
LINE
  8
_0-0_
  6
CONTINUOUS
 62
    7
 10
529.76084166223961
 20
113.36833790878882
 11
529.76083006002034
 21
113.3685696676464
  0
LINE
  8
_0-0_
  6
CONTINUOUS
 62
    7
 10
529.76083006002216
 20
113.36856966764481
 11
529.78621741761879
 21
113.55723286785133
  0
LINE
  8
_0-0_
  6
CONTINUOUS
 62
    7
 10
529.78621741761879
 20
113.55723286785133
 11
529.88875975700114
 21
113.79664208885697
  0
LINE
  8
_0-0_
  6
CONTINUOUS
 62
    7
 10
529.88875975700114
 20
113.79664208885697
 11
530.05684277603621
 21
114.05985322011634
  0
LINE
  8
_0-0_
  6
CONTINUOUS
 62
    7
 10
530.05684277603621
 20
114.05985322011634
 11
530.27140806211321
 21
114.31728822555419
  0
LINE
  8
_0-0_
  6
CONTINUOUS
 62
    7
 10
530.27140806211321
 20
114.31728822555419
 11
530.43281140565625
 21
114.47533474981014
  0
LINE
  8
_0-0_
  6
CONTINUOUS
 62
    7
 10
530.43281140565625
 20
114.47533474981014
 11
530.46988918467935
 21
114.50795506783516
  0
LINE
  8
_0-0_
  6
CONTINUOUS
 62
    7
 10
530.3524909561994
 20
114.71793485499779
 11
530.02015164657053
 21
114.68984454427323
  0
LINE
  8
_0-0_
  6
CONTINUOUS
 62
    7
 10
530.02015164657053
 20
114.68984454427323
 11
529.72525670259427
 21
114.60991602381819
  0
LINE
  8
_0-0_
  6
CONTINUOUS
 62
    7
 10
529.72525670259427
 20
114.60991602381819
 11
529.5018519768654
 21
114.49120353252806
  0
LINE
  8
_0-0_
  6
CONTINUOUS
 62
    7
 10
529.5018519768654
 20
114.49120353252806
 11
529.37432526197415
 21
114.351487988597
  0
LINE
  8
_0-0_
  6
CONTINUOUS
 62
    7
 10
529.37432526197415
 20
114.351487988597
 11
529.36524066334403
 21
114.33178454150402
  0
LINE
  8
_0-0_
  6
CONTINUOUS
 62
    7
 10
529.36941326513181
 20
114.36120664378359
 11
529.35556638516448
 21
114.15293936612443
  0
LINE
  8
_0-0_
  6
CONTINUOUS
 62
    7
 10
529.35388265156655
 20
114.16299593646318
 11
529.34992956477333
 21
114.25738131612138
  0
LINE
  8
_0-0_
  6
CONTINUOUS
 62
    7
 10
529.34992956477333
 20
114.25738131612138
 11
529.34992956477333
 21
113.24421429662652
  0
LINE
  8
_0-0_
  6
CONTINUOUS
 62
    7
 10
529.34992956477333
 20
113.24421429662664
 11
517.25703634595982
 21
113.24421429662664
  0
LINE
  8
_0-0_
  6
CONTINUOUS
 62
    7
 10
517.25703634595982
 20
113.24421429662652
 11
516.54992956477338
 21
113.95132107781319
  0
LINE
  8
_0-0_
  6
CONTINUOUS
 62
    7
 10
516.54992956477338
 20
113.95132107781319
 11
516.54992956477338
 21
134.53710751544008
  0
LINE
  8
_0-0_
  6
CONTINUOUS
 62
    7
 10
516.54992956477338
 20
134.53710751544008
 11
517.25703634595982
 21
135.24421429662675
  0
LINE
  8
_0-0_
  6
CONTINUOUS
 62
    7
 10
517.25703634595982
 20
135.24421429662664
 11
530.95719895872492
 21
135.24421429662664
  0
LINE
  8
_0-0_
  6
CONTINUOUS
 62
    7
 10
529.82047025059967
 20
134.24080768748922
 11
529.64907106427779
 21
134.0637586931332
  0
LINE
  8
_0-0_
  6
CONTINUOUS
 62
    7
 10
529.64907106427779
 20
134.0637586931332
 11
529.51121069076896
 21
133.85572811513111
  0
LINE
  8
_0-0_
  6
CONTINUOUS
 62
    7
 10
529.51121069076896
 20
133.85572811513111
 11
529.41371097628905
 21
133.62462437071736
  0
LINE
  8
_0-0_
  6
CONTINUOUS
 62
    7
 10
529.41371097628905
 20
133.62462437071736
 11
529.3615325116408
 21
133.38090732336218
  0
LINE
  8
_0-0_
  6
CONTINUOUS
 62
    7
 10
529.36221269214309
 20
133.38521940714577
 11
529.34992956477333
 21
133.23104727713167
  0
LINE
  8
_0-0_
  6
CONTINUOUS
 62
    7
 10
529.34992956477333
 20
133.23104727713167
 11
529.34992956477333
 21
125.24421429662675
  0
LINE
  8
_0-0_
  6
CONTINUOUS
 62
    7
 10
529.34992956477333
 20
125.24421429662675
 11
529.35669328409733
 21
125.25309840307386
  0
LINE
  8
_0-0_
  6
CONTINUOUS
 62
    7
 10
529.35669249212799
 20
125.25309788604909
 11
529.39709398276534
 21
124.95207642119703
  0
LINE
  8
_0-0_
  6
CONTINUOUS
 62
    7
 10
529.39709398276534
 20
124.95207642119703
 11
529.52643886269414
 21
124.67881708636128
  0
LINE
  8
_0-0_
  6
CONTINUOUS
 62
    7
 10
529.52643886269414
 20
124.67881708636128
 11
529.61966963990551
 21
124.56173943837416
  0
LINE
  8
_0-0_
  6
CONTINUOUS
 62
    7
 10
529.61976290663245
 20
124.5617348021467
 11
529.8176915783514
 21
124.39828240085535
  0
LINE
  8
_0-0_
  6
CONTINUOUS
 62
    7
 10
529.8176915783514
 20
124.39828240085535
 11
530.12789751616504
 21
124.26955137627237
  0
LINE
  8
_0-0_
  6
CONTINUOUS
 62
    7
 10
530.12789751616504
 20
124.26955137627237
 11
530.3524909561994
 21
124.24421429662652
  0
LINE
  8
_0-0_
  6
CONTINUOUS
 62
    7
 10
530.3524909561994
 20
124.24421429662652
 11
533.34992956477333
 21
124.24421429662652
  0
LINE
  8
_0-0_
  6
CONTINUOUS
 62
    7
 10
532.98338662528852
 20
124.24421429662652
 11
532.95678565653031
 21
124.24488999622031
  0
LINE
  8
_0-0_
  6
CONTINUOUS
 62
    7
 10
532.95678565653031
 20
124.24488999622031
 11
532.78976909572464
 21
124.28075854201688
  0
LINE
  8
_0-0_
  6
CONTINUOUS
 62
    7
 10
532.78976909572464
 20
124.28075854201688
 11
532.57066355382096
 21
124.4237273247727
  0
LINE
  8
_0-0_
  6
CONTINUOUS
 62
    7
 10
532.57066355382096
 20
124.4237273247727
 11
532.39826441294656
 21
124.65919111577273
  0
LINE
  8
_0-0_
  6
CONTINUOUS
 62
    7
 10
532.39826441294656
 20
124.65919111577273
 11
532.29179115504951
 21
124.96060762785282
  0
LINE
  8
_0-0_
  6
CONTINUOUS
 62
    7
 10
532.29179115504951
 20
124.96060762785282
 11
532.26313799326579
 21
125.29399865525284
  0
LINE
  8
_0-0_
  6
CONTINUOUS
 62
    7
 10
532.26313799326579
 20
125.29399865525284
 11
532.26315473472448
 21
125.29493179558517
  0
LINE
  8
_0-0_
  6
CONTINUOUS
 62
    7
 10
532.26315473472403
 20
125.29493179558517
 11
532.26315473472403
 21
136.27263499556011
  0
LINE
  8
_0-0_
  6
CONTINUOUS
 62
    7
 10
532.26315473472403
 20
136.27263499556011
 11
532.26313799326488
 21
136.27314483521218
  0
LINE
  8
_0-0_
  6
CONTINUOUS
 62
    7
 10
532.26313799326419
 20
136.2731448352115
 11
532.29179115504951
 21
136.41589212158533
  0
LINE
  8
_0-0_
  6
CONTINUOUS
 62
    7
 10
532.29179115504951
 20
136.41589212158533
 11
532.31093804901082
 21
136.43888711601153
  0
LINE
  8
_0-0_
  6
CONTINUOUS
 62
    7
 10
532.29352842594824
 20
136.42268444140655
 11
532.52132185373159
 21
136.59889768669314
  0
LINE
  8
_0-0_
  6
CONTINUOUS
 62
    7
 10
532.52132185373159
 20
136.59889768669314
 11
532.78328089167087
 21
136.73039567710748
  0
LINE
  8
_0-0_
  6
CONTINUOUS
 62
    7
 10
532.78328089167087
 20
136.73039567710748
 11
533.0636501037435
 21
136.8104727033126
  0
LINE
  8
_0-0_
  6
CONTINUOUS
 62
    7
 10
533.0636501037435
 20
136.8104727033126
 11
533.34992956477242
 21
136.83753292348069
  0
LINE
  8
_0-0_
  6
CONTINUOUS
 62
    7
 10
532.33468714361572
 20
136.45992171091325
 11
529.78995889486862
 21
134.21406215779371
  0
LINE
  8
_0-0_
  6
CONTINUOUS
 62
    7
 10
529.78621741761674
 20
134.20292640907769
 11
529.80821076009295
 21
134.23016970285607
  0
LINE
  8
_0-0_
  6
CONTINUOUS
 62
    7
 10
529.78621741761674
 20
134.20292640907769
 11
529.76083006002216
 21
134.05772320072901
  0
LINE
  8
_0-0_
  6
CONTINUOUS
 62
    7
 10
529.76083006002193
 20
134.05772320072856
 11
529.76084166223984
 21
134.05743125868617
  0
LINE
  8
_0-0_
  6
CONTINUOUS
 62
    7
 10
529.76084166223984
 20
134.05743125868617
 11
529.76084166223984
 21
125.30687372240482
  0
LINE
  8
_0-0_
  6
CONTINUOUS
 62
    7
 10
529.76084166223734
 20
125.30687372240482
 11
529.76083006002216
 21
125.3063500215062
  0
LINE
  8
_0-0_
  6
CONTINUOUS
 62
    7
 10
529.76083006002216
 20
125.3063500215062
 11
529.7862174176197
 21
124.97248361294896
  0
LINE
  8
_0-0_
  6
CONTINUOUS
 62
    7
 10
529.7862174176197
 20
124.97248361294896
 11
529.8887597570025
 21
124.66925278004214
  0
LINE
  8
_0-0_
  6
CONTINUOUS
 62
    7
 10
529.8887597570025
 20
124.66925278004214
 11
530.0568427760337
 21
124.43084366528706
  0
LINE
  8
_0-0_
  6
CONTINUOUS
 62
    7
 10
530.0568427760337
 20
124.43084366528706
 11
530.27140806211094
 21
124.28413412686041
  0
LINE
  8
_0-0_
  6
CONTINUOUS
 62
    7
 10
530.27140806211094
 20
124.28413412686041
 11
530.43281140671218
 21
124.24558249272059
  0
LINE
  8
_0-0_
  6
CONTINUOUS
 62
    7
 10
530.43281140671218
 20
124.24558249272059
 11
530.4698891848833
 21
124.24421429662652
  0
LINE
  8
_0-0_
  6
CENTER1
 62
  152
 10
535.95719895872492
 20
124.24421429662664
 11
511.54992956477332
 21
124.24421429662664
  0
LINE
  8
_0-0_
  6
CONTINUOUS
 62
    7
 10
517.25703634595982
 20
113.24421429662675
 11
517.25703634595982
 21
135.24421429662675
  0
LINE
  8
_0-0_
  6
CONTINUOUS
 62
    7
 10
521.54992956477315
 20
141.04421429662671
 11
532.84992956477311
 21
141.04421429662671
  0
LINE
  8
_0-0_
  6
CONTINUOUS
 62
    7
 10
532.79992956477315
 20
144.24421429662664
 11
521.54992956477315
 21
144.24421429662664
  0
LINE
  8
_0-0_
  6
CONTINUOUS
 62
    7
 10
521.54992956477315
 20
144.24421429662675
 11
521.54992956477315
 21
141.04421429662671
  0
LINE
  8
_0-0_
  6
CONTINUOUS
 62
    7
 10
529.36941462129005
 20
114.361236489666
 11
529.35705402943643
 21
114.16386503991066
  0
LINE
  8
_0-0_
  6
CONTINUOUS
 62
    7
 10
529.35705402943643
 20
114.16386503991066
 11
529.36153185593855
 21
114.09591266840653
  0
LINE
  8
_0-0_
  6
CONTINUOUS
 62
    7
 10
529.36127060314845
 20
114.09773321391867
 11
529.35388265156655
 21
114.16299593646318
  0
LINE
  8
_0-0_
  6
CONTINUOUS
 62
    7
 10
530.3524909561994
 20
114.71793485499779
 11
533.34992956477333
 21
114.71793485499779
  0
LINE
  8
_0-0_
  6
CONTINUOUS
 62
    7
 10
532.98338662518552
 20
112.28969161424584
 11
532.95678565655692
 21
112.26738304334185
  0
LINE
  8
_0-0_
  6
CONTINUOUS
 62
    7
 10
532.95678565655692
 20
112.26738304334185
 11
532.78976909572123
 21
112.11108123271651
  0
LINE
  8
_0-0_
  6
CONTINUOUS
 62
    7
 10
532.78976909572123
 20
112.11108123271651
 11
532.57066355381892
 21
111.85732598980599
  0
LINE
  8
_0-0_
  6
CONTINUOUS
 62
    7
 10
532.57066355381892
 20
111.85732598980599
 11
532.39826441294611
 21
111.5957898270151
  0
LINE
  8
_0-0_
  6
CONTINUOUS
 62
    7
 10
532.39826441294611
 20
111.5957898270151
 11
532.29179115504905
 21
111.35614314044187
  0
LINE
  8
_0-0_
  6
CONTINUOUS
 62
    7
 10
532.29179115504905
 20
111.35614314044187
 11
532.26313799326647
 21
111.16549939941342
  0
LINE
  8
_0-0_
  6
CONTINUOUS
 62
    7
 10
532.26313799326465
 20
111.16549939941524
 11
532.26315473472403
 21
111.16507609873452
  0
LINE
  8
_0-0_
  6
CONTINUOUS
 62
    7
 10
532.26315473472403
 20
111.16507609873452
 11
532.26315473472403
 21
109.71032819614379
  0
ARC
  8
_0-0_
  6
CONTINUOUS
 62
    7
 10
533.34992956477356
 20
110.74421429662652
 40
1.5000000000001017
 50
223.5713543802174
 51
270
  0
ARC
  8
_0-0_
  6
CONTINUOUS
 62
    7
 10
530.75287122088582
 20
113.24421429662652
 40
1.402941656112497
 50
179.99999999999997
 51
225.00000000000986
  0
ARC
  8
_0-0_
  6
CONTINUOUS
 62
    7
 10
532.79992956477315
 20
140.49421429662652
 40
3.7499999999999991
 50
0.0000000000000127
 51
90.000000000000014
  0
ARC
  8
_0-0_
  6
CONTINUOUS
 62
    7
 10
532.84992956477379
 20
140.54421429662739
 40
0.4999999999993343
 50
359.99999999985022
 51
90.000000000000014
  0
LINE
  8
_0-0_
  6
CONTINUOUS
 62
    7
 10
536.54992956477304
 20
275.98286876315791
 11
536.54992956477304
 21
408.23286876315802
  0
LINE
  8
_0-0_
  6
CONTINUOUS
 62
    7
 10
533.34992956477311
 20
408.28286876315798
 11
533.34992956477311
 21
275.98286876315791
  0
LINE
  8
_0-0_
  6
CONTINUOUS
 62
    7
 10
533.34992956477311
 20
275.98286876315791
 11
536.54992956477292
 21
275.98286876315791
  0
LINE
  8
_0-0_
  6
CONTINUOUS
 62
    7
 10
532.26315473472403
 20
377.44898266267506
 11
529.76084166223961
 21
379.99083920451136
  0
LINE
  8
_0-0_
  6
CONTINUOUS
 62
    7
 10
529.76084166223961
 20
379.99083920451136
 11
529.76084166223961
 21
381.10699237532009
  0
LINE
  8
_0-0_
  6
CONTINUOUS
 62
    7
 10
529.76084166223961
 20
381.10699237532009
 11
529.76083006002034
 21
381.10722413417767
  0
LINE
  8
_0-0_
  6
CONTINUOUS
 62
    7
 10
529.76083006002216
 20
381.10722413417608
 11
529.78621741761879
 21
381.2958873343826
  0
LINE
  8
_0-0_
  6
CONTINUOUS
 62
    7
 10
529.78621741761879
 20
381.2958873343826
 11
529.88875975700114
 21
381.53529655538824
  0
LINE
  8
_0-0_
  6
CONTINUOUS
 62
    7
 10
529.88875975700114
 20
381.53529655538824
 11
530.05684277603621
 21
381.79850768664761
  0
LINE
  8
_0-0_
  6
CONTINUOUS
 62
    7
 10
530.05684277603621
 20
381.79850768664761
 11
530.27140806211321
 21
382.05594269208547
  0
LINE
  8
_0-0_
  6
CONTINUOUS
 62
    7
 10
530.27140806211321
 20
382.05594269208547
 11
530.43281140565625
 21
382.21398921634142
  0
LINE
  8
_0-0_
  6
CONTINUOUS
 62
    7
 10
530.43281140565625
 20
382.21398921634142
 11
530.46988918467935
 21
382.24660953436643
  0
LINE
  8
_0-0_
  6
CONTINUOUS
 62
    7
 10
530.3524909561994
 20
382.45658932152907
 11
530.02015164657053
 21
382.4284990108045
  0
LINE
  8
_0-0_
  6
CONTINUOUS
 62
    7
 10
530.02015164657053
 20
382.4284990108045
 11
529.72525670259427
 21
382.34857049034946
  0
LINE
  8
_0-0_
  6
CONTINUOUS
 62
    7
 10
529.72525670259427
 20
382.34857049034946
 11
529.5018519768654
 21
382.22985799905933
  0
LINE
  8
_0-0_
  6
CONTINUOUS
 62
    7
 10
529.5018519768654
 20
382.22985799905933
 11
529.37432526197415
 21
382.09014245512827
  0
LINE
  8
_0-0_
  6
CONTINUOUS
 62
    7
 10
529.37432526197415
 20
382.09014245512827
 11
529.36524066334403
 21
382.07043900803529
  0
LINE
  8
_0-0_
  6
CONTINUOUS
 62
    7
 10
529.36941326513181
 20
382.09986111031486
 11
529.35556638516448
 21
381.8915938326557
  0
LINE
  8
_0-0_
  6
CONTINUOUS
 62
    7
 10
529.35388265156655
 20
381.90165040299445
 11
529.34992956477333
 21
381.99603578265265
  0
LINE
  8
_0-0_
  6
CONTINUOUS
 62
    7
 10
529.34992956477333
 20
381.99603578265265
 11
529.34992956477333
 21
380.9828687631578
  0
LINE
  8
_0-0_
  6
CONTINUOUS
 62
    7
 10
529.34992956477333
 20
380.98286876315791
 11
517.25703634595982
 21
380.98286876315791
  0
LINE
  8
_0-0_
  6
CONTINUOUS
 62
    7
 10
517.25703634595982
 20
380.9828687631578
 11
516.54992956477338
 21
381.68997554434446
  0
LINE
  8
_0-0_
  6
CONTINUOUS
 62
    7
 10
516.54992956477338
 20
381.68997554434446
 11
516.54992956477338
 21
402.27576198197136
  0
LINE
  8
_0-0_
  6
CONTINUOUS
 62
    7
 10
516.54992956477338
 20
402.27576198197136
 11
517.25703634595982
 21
402.98286876315802
  0
LINE
  8
_0-0_
  6
CONTINUOUS
 62
    7
 10
517.25703634595982
 20
402.98286876315791
 11
530.95719895872492
 21
402.98286876315791
  0
LINE
  8
_0-0_
  6
CONTINUOUS
 62
    7
 10
529.82047025059967
 20
401.9794621540205
 11
529.64907106427779
 21
401.80241315966447
  0
LINE
  8
_0-0_
  6
CONTINUOUS
 62
    7
 10
529.64907106427779
 20
401.80241315966447
 11
529.51121069076896
 21
401.59438258166239
  0
LINE
  8
_0-0_
  6
CONTINUOUS
 62
    7
 10
529.51121069076896
 20
401.59438258166239
 11
529.41371097628905
 21
401.36327883724863
  0
LINE
  8
_0-0_
  6
CONTINUOUS
 62
    7
 10
529.41371097628905
 20
401.36327883724863
 11
529.3615325116408
 21
401.11956178989345
  0
LINE
  8
_0-0_
  6
CONTINUOUS
 62
    7
 10
529.36221269214309
 20
401.12387387367704
 11
529.34992956477333
 21
400.96970174366294
  0
LINE
  8
_0-0_
  6
CONTINUOUS
 62
    7
 10
529.34992956477333
 20
400.96970174366294
 11
529.34992956477333
 21
392.98286876315802
  0
LINE
  8
_0-0_
  6
CONTINUOUS
 62
    7
 10
529.34992956477333
 20
392.98286876315802
 11
529.35669328409733
 21
392.99175286960514
  0
LINE
  8
_0-0_
  6
CONTINUOUS
 62
    7
 10
529.35669249212799
 20
392.99175235258036
 11
529.39709398276534
 21
392.69073088772831
  0
LINE
  8
_0-0_
  6
CONTINUOUS
 62
    7
 10
529.39709398276534
 20
392.69073088772831
 11
529.52643886269414
 21
392.41747155289255
  0
LINE
  8
_0-0_
  6
CONTINUOUS
 62
    7
 10
529.52643886269414
 20
392.41747155289255
 11
529.61966963990551
 21
392.30039390490543
  0
LINE
  8
_0-0_
  6
CONTINUOUS
 62
    7
 10
529.61976290663245
 20
392.30038926867797
 11
529.8176915783514
 21
392.13693686738662
  0
LINE
  8
_0-0_
  6
CONTINUOUS
 62
    7
 10
529.8176915783514
 20
392.13693686738662
 11
530.12789751616504
 21
392.00820584280365
  0
LINE
  8
_0-0_
  6
CONTINUOUS
 62
    7
 10
530.12789751616504
 20
392.00820584280365
 11
530.3524909561994
 21
391.9828687631578
  0
LINE
  8
_0-0_
  6
CONTINUOUS
 62
    7
 10
530.3524909561994
 20
391.9828687631578
 11
533.34992956477333
 21
391.9828687631578
  0
LINE
  8
_0-0_
  6
CONTINUOUS
 62
    7
 10
532.98338662528852
 20
391.9828687631578
 11
532.95678565653031
 21
391.98354446275158
  0
LINE
  8
_0-0_
  6
CONTINUOUS
 62
    7
 10
532.95678565653031
 20
391.98354446275158
 11
532.78976909572464
 21
392.01941300854816
  0
LINE
  8
_0-0_
  6
CONTINUOUS
 62
    7
 10
532.78976909572464
 20
392.01941300854816
 11
532.57066355382096
 21
392.16238179130397
  0
LINE
  8
_0-0_
  6
CONTINUOUS
 62
    7
 10
532.57066355382096
 20
392.16238179130397
 11
532.39826441294656
 21
392.397845582304
  0
LINE
  8
_0-0_
  6
CONTINUOUS
 62
    7
 10
532.39826441294656
 20
392.397845582304
 11
532.29179115504951
 21
392.6992620943841
  0
LINE
  8
_0-0_
  6
CONTINUOUS
 62
    7
 10
532.29179115504951
 20
392.6992620943841
 11
532.26313799326579
 21
393.03265312178411
  0
LINE
  8
_0-0_
  6
CONTINUOUS
 62
    7
 10
532.26313799326579
 20
393.03265312178411
 11
532.26315473472448
 21
393.03358626211644
  0
LINE
  8
_0-0_
  6
CONTINUOUS
 62
    7
 10
532.26315473472403
 20
393.03358626211644
 11
532.26315473472403
 21
404.01128946209138
  0
LINE
  8
_0-0_
  6
CONTINUOUS
 62
    7
 10
532.26315473472403
 20
404.01128946209138
 11
532.26313799326488
 21
404.01179930174345
  0
LINE
  8
_0-0_
  6
CONTINUOUS
 62
    7
 10
532.26313799326419
 20
404.01179930174277
 11
532.29179115504951
 21
404.1545465881166
  0
LINE
  8
_0-0_
  6
CONTINUOUS
 62
    7
 10
532.29179115504951
 20
404.1545465881166
 11
532.31093804901082
 21
404.1775415825428
  0
LINE
  8
_0-0_
  6
CONTINUOUS
 62
    7
 10
532.29352842594824
 20
404.16133890793782
 11
532.52132185373159
 21
404.33755215322441
  0
LINE
  8
_0-0_
  6
CONTINUOUS
 62
    7
 10
532.52132185373159
 20
404.33755215322441
 11
532.78328089167087
 21
404.46905014363875
  0
LINE
  8
_0-0_
  6
CONTINUOUS
 62
    7
 10
532.78328089167087
 20
404.46905014363875
 11
533.0636501037435
 21
404.54912716984387
  0
LINE
  8
_0-0_
  6
CONTINUOUS
 62
    7
 10
533.0636501037435
 20
404.54912716984387
 11
533.34992956477242
 21
404.57618739001197
  0
LINE
  8
_0-0_
  6
CONTINUOUS
 62
    7
 10
532.33468714361572
 20
404.19857617744452
 11
529.78995889486862
 21
401.95271662432498
  0
LINE
  8
_0-0_
  6
CONTINUOUS
 62
    7
 10
529.78621741761674
 20
401.94158087560896
 11
529.80821076009295
 21
401.96882416938735
  0
LINE
  8
_0-0_
  6
CONTINUOUS
 62
    7
 10
529.78621741761674
 20
401.94158087560896
 11
529.76083006002216
 21
401.79637766726029
  0
LINE
  8
_0-0_
  6
CONTINUOUS
 62
    7
 10
529.76083006002193
 20
401.79637766725983
 11
529.76084166223984
 21
401.79608572521744
  0
LINE
  8
_0-0_
  6
CONTINUOUS
 62
    7
 10
529.76084166223984
 20
401.79608572521744
 11
529.76084166223984
 21
393.04552818893609
  0
LINE
  8
_0-0_
  6
CONTINUOUS
 62
    7
 10
529.76084166223734
 20
393.04552818893609
 11
529.76083006002216
 21
393.04500448803748
  0
LINE
  8
_0-0_
  6
CONTINUOUS
 62
    7
 10
529.76083006002216
 20
393.04500448803748
 11
529.7862174176197
 21
392.71113807948024
  0
LINE
  8
_0-0_
  6
CONTINUOUS
 62
    7
 10
529.7862174176197
 20
392.71113807948024
 11
529.8887597570025
 21
392.40790724657342
  0
LINE
  8
_0-0_
  6
CONTINUOUS
 62
    7
 10
529.8887597570025
 20
392.40790724657342
 11
530.0568427760337
 21
392.16949813181833
  0
LINE
  8
_0-0_
  6
CONTINUOUS
 62
    7
 10
530.0568427760337
 20
392.16949813181833
 11
530.27140806211094
 21
392.02278859339168
  0
LINE
  8
_0-0_
  6
CONTINUOUS
 62
    7
 10
530.27140806211094
 20
392.02278859339168
 11
530.43281140671218
 21
391.98423695925186
  0
LINE
  8
_0-0_
  6
CONTINUOUS
 62
    7
 10
530.43281140671218
 20
391.98423695925186
 11
530.4698891848833
 21
391.9828687631578
  0
LINE
  8
_0-0_
  6
CENTER1
 62
  152
 10
535.95719895872492
 20
391.98286876315791
 11
511.54992956477332
 21
391.98286876315791
  0
LINE
  8
_0-0_
  6
CONTINUOUS
 62
    7
 10
517.25703634595982
 20
380.98286876315802
 11
517.25703634595982
 21
402.98286876315802
  0
LINE
  8
_0-0_
  6
CONTINUOUS
 62
    7
 10
521.54992956477315
 20
408.78286876315798
 11
532.84992956477311
 21
408.78286876315798
  0
LINE
  8
_0-0_
  6
CONTINUOUS
 62
    7
 10
532.79992956477315
 20
411.98286876315791
 11
521.54992956477315
 21
411.98286876315791
  0
LINE
  8
_0-0_
  6
CONTINUOUS
 62
    7
 10
521.54992956477315
 20
411.98286876315802
 11
521.54992956477315
 21
408.78286876315798
  0
LINE
  8
_0-0_
  6
CONTINUOUS
 62
    7
 10
529.36941462129005
 20
382.09989095619727
 11
529.35705402943643
 21
381.90251950644193
  0
LINE
  8
_0-0_
  6
CONTINUOUS
 62
    7
 10
529.35705402943643
 20
381.90251950644193
 11
529.36153185593855
 21
381.8345671349378
  0
LINE
  8
_0-0_
  6
CONTINUOUS
 62
    7
 10
529.36127060314845
 20
381.83638768044995
 11
529.35388265156655
 21
381.90165040299445
  0
LINE
  8
_0-0_
  6
CONTINUOUS
 62
    7
 10
530.3524909561994
 20
382.45658932152907
 11
533.34992956477333
 21
382.45658932152907
  0
LINE
  8
_0-0_
  6
CONTINUOUS
 62
    7
 10
532.98338662518552
 20
380.02834608077711
 11
532.95678565655692
 21
380.00603750987312
  0
LINE
  8
_0-0_
  6
CONTINUOUS
 62
    7
 10
532.95678565655692
 20
380.00603750987312
 11
532.78976909572123
 21
379.84973569924779
  0
LINE
  8
_0-0_
  6
CONTINUOUS
 62
    7
 10
532.78976909572123
 20
379.84973569924779
 11
532.57066355381892
 21
379.59598045633726
  0
LINE
  8
_0-0_
  6
CONTINUOUS
 62
    7
 10
532.57066355381892
 20
379.59598045633726
 11
532.39826441294611
 21
379.33444429354637
  0
LINE
  8
_0-0_
  6
CONTINUOUS
 62
    7
 10
532.39826441294611
 20
379.33444429354637
 11
532.29179115504905
 21
379.09479760697315
  0
LINE
  8
_0-0_
  6
CONTINUOUS
 62
    7
 10
532.29179115504905
 20
379.09479760697315
 11
532.26313799326647
 21
378.90415386594469
  0
LINE
  8
_0-0_
  6
CONTINUOUS
 62
    7
 10
532.26313799326465
 20
378.90415386594651
 11
532.26315473472403
 21
378.90373056526579
  0
LINE
  8
_0-0_
  6
CONTINUOUS
 62
    7
 10
532.26315473472403
 20
378.90373056526579
 11
532.26315473472403
 21
377.44898266267506
  0
ARC
  8
_0-0_
  6
CONTINUOUS
 62
    7
 10
533.34992956477356
 20
378.4828687631578
 40
1.5000000000001017
 50
223.5713543802174
 51
270
  0
ARC
  8
_0-0_
  6
CONTINUOUS
 62
    7
 10
530.75287122088582
 20
380.9828687631578
 40
1.402941656112497
 50
179.99999999999997
 51
225.00000000000986
  0
ARC
  8
_0-0_
  6
CONTINUOUS
 62
    7
 10
532.79992956477315
 20
408.2328687631578
 40
3.7499999999999991
 50
0.0000000000000127
 51
90.000000000000014
  0
ARC
  8
_0-0_
  6
CONTINUOUS
 62
    7
 10
532.84992956477379
 20
408.28286876315866
 40
0.4999999999993343
 50
359.99999999985022
 51
90.000000000000014
  0
ENDSEC
  0
EOF
