  0
SECTION
  2
HEADER
  9
$ACADVER
  1
AC1009
  9
$DWGCODEPAGE
  3
ansi_932
  9
$INSBASE
 10
0.0
 20
0.0
 30
0.0
  9
$EXTMIN
 10
-388.9752780635538
 20
-163.303709172628
 30
0.0
  9
$EXTMAX
 10
774.0521362813256
 20
355.681642389872
 30
0.0
  9
$LIMMIN
 10
0.0
 20
0.0
  9
$LIMMAX
 10
1189.0
 20
841.0
  9
$ORTHOMODE
 70
     0
  9
$REGENMODE
 70
     1
  9
$FILLMODE
 70
     1
  9
$QTEXTMODE
 70
     0
  9
$MIRRTEXT
 70
     1
  9
$DRAGMODE
 70
     2
  9
$LTSCALE
 40
1.0
  9
$OSMODE
 70
    37
  9
$ATTMODE
 70
     1
  9
$TEXTSIZE
 40
0.2
  9
$TRACEWID
 40
0.05
  9
$TEXTSTYLE
  7
STANDARD
  9
$CLAYER
  8
0
  9
$CELTYPE
  6
BYBLOCK
  9
$CECOLOR
 62
   256
  9
$DIMSCALE
 40
1.0
  9
$DIMASZ
 40
0.18
  9
$DIMEXO
 40
0.0625
  9
$DIMDLI
 40
0.38
  9
$DIMRND
 40
0.0
  9
$DIMDLE
 40
0.36
  9
$DIMEXE
 40
0.18
  9
$DIMTP
 40
0.0
  9
$DIMTM
 40
0.0
  9
$DIMTXT
 40
0.18
  9
$DIMCEN
 40
0.09
  9
$DIMTSZ
 40
0.0
  9
$DIMTOL
 70
     0
  9
$DIMLIM
 70
     0
  9
$DIMTIH
 70
     1
  9
$DIMTOH
 70
     1
  9
$DIMSE1
 70
     0
  9
$DIMSE2
 70
     0
  9
$DIMTAD
 70
     0
  9
$DIMZIN
 70
     0
  9
$DIMBLK
  1

  9
$DIMASO
 70
     1
  9
$DIMSHO
 70
     1
  9
$DIMPOST
  1

  9
$DIMAPOST
  1

  9
$DIMALT
 70
     0
  9
$DIMALTD
 70
     2
  9
$DIMALTF
 40
25.4
  9
$DIMLFAC
 40
1.0
  9
$DIMTOFL
 70
     0
  9
$DIMTVP
 40
0.0
  9
$DIMTIX
 70
     0
  9
$DIMSOXD
 70
     0
  9
$DIMSAH
 70
     0
  9
$DIMBLK1
  1

  9
$DIMBLK2
  1

  9
$DIMSTYLE
  2
STANDARD
  9
$DIMCLRD
 70
     0
  9
$DIMCLRE
 70
     0
  9
$DIMCLRT
 70
     0
  9
$DIMTFAC
 40
1.0
  9
$DIMGAP
 40
0.09
  9
$LUNITS
 70
     2
  9
$LUPREC
 70
     4
  9
$SKETCHINC
 40
0.1
  9
$FILLETRAD
 40
0.5
  9
$AUNITS
 70
     0
  9
$AUPREC
 70
     0
  9
$MENU
  1
.
  9
$ELEVATION
 40
0.0
  9
$PELEVATION
 40
0.0
  9
$THICKNESS
 40
0.0
  9
$LIMCHECK
 70
     0
  9
$CHAMFERA
 40
0.0
  9
$CHAMFERB
 40
0.0
  9
$SKPOLY
 70
     0
  9
$TDCREATE
 40
2459506.667419827
  9
$TDUPDATE
 40
2459506.667420845
  9
$TDINDWG
 40
0.0000000116
  9
$TDUSRTIMER
 40
0.0000000116
  9
$USRTIMER
 70
     1
  9
$ANGBASE
 50
0.0
  9
$ANGDIR
 70
     0
  9
$PDMODE
 70
     0
  9
$PDSIZE
 40
-5.0
  9
$PLINEWID
 40
0.0
  9
$COORDS
 70
     1
  9
$SPLFRAME
 70
     0
  9
$SPLINETYPE
 70
     6
  9
$SPLINESEGS
 70
     8
  9
$ATTDIA
 70
     0
  9
$ATTREQ
 70
     1
  9
$HANDLING
 70
     1
  9
$HANDSEED
  5
739
  9
$SURFTAB1
 70
     6
  9
$SURFTAB2
 70
     6
  9
$SURFTYPE
 70
     6
  9
$SURFU
 70
     6
  9
$SURFV
 70
     6
  9
$UCSNAME
  2

  9
$UCSORG
 10
0.0
 20
0.0
 30
0.0
  9
$UCSXDIR
 10
1.0
 20
0.0
 30
0.0
  9
$UCSYDIR
 10
0.0
 20
1.0
 30
0.0
  9
$PUCSNAME
  2

  9
$PUCSORG
 10
0.0
 20
0.0
 30
0.0
  9
$PUCSXDIR
 10
1.0
 20
0.0
 30
0.0
  9
$PUCSYDIR
 10
0.0
 20
1.0
 30
0.0
  9
$USERI1
 70
     0
  9
$USERI2
 70
     0
  9
$USERI3
 70
     0
  9
$USERI4
 70
     0
  9
$USERI5
 70
     0
  9
$USERR1
 40
0.0
  9
$USERR2
 40
0.0
  9
$USERR3
 40
0.0
  9
$USERR4
 40
0.0
  9
$USERR5
 40
0.0
  9
$WORLDVIEW
 70
     1
  9
$SHADEDGE
 70
     3
  9
$SHADEDIF
 70
    70
  9
$TILEMODE
 70
     1
  9
$MAXACTVP
 70
    64
  9
$PLIMCHECK
 70
     0
  9
$PEXTMIN
 10
1.000000000000000E+20
 20
1.000000000000000E+20
 30
1.000000000000000E+20
  9
$PEXTMAX
 10
-1.000000000000000E+20
 20
-1.000000000000000E+20
 30
-1.000000000000000E+20
  9
$PLIMMIN
 10
0.0
 20
0.0
  9
$PLIMMAX
 10
12.0
 20
9.0
  9
$UNITMODE
 70
     0
  9
$VISRETAIN
 70
     1
  9
$PLINEGEN
 70
     0
  9
$PSLTSCALE
 70
     1
  0
ENDSEC
  0
SECTION
  2
TABLES
  0
TABLE
  2
VPORT
 70
     1
  0
VPORT
  2
*ACTIVE
 70
     0
 10
0.0
 20
0.0
 11
1.0
 21
1.0
 12
192.5384291088859
 22
96.18896660862197
 13
0.0
 23
0.0
 14
0.5
 24
0.5
 15
0.5
 25
0.5
 16
0.0
 26
0.0
 36
1.0
 17
0.0
 27
0.0
 37
0.0
 40
518.9853515625
 41
2.240963855421687
 42
50.0
 43
0.0
 44
0.0
 50
0.0
 51
0.0
 71
     0
 72
   100
 73
     1
 74
     3
 75
     0
 76
     0
 77
     0
 78
     0
  0
ENDTAB
  0
TABLE
  2
LTYPE
 70
    36
  0
LTYPE
  2
CONTINUOUS
 70
     0
  3
Solid line
 72
    65
 73
     0
 40
0.0
  0
LTYPE
  2
破線
 70
     0
  3
破線: __ __ __ __ __ __ __ __ __ __ __ __ __
 72
    65
 73
     2
 40
2.0
 49
1.0
 49
-1.0
  0
LTYPE
  2
一点鎖線
 70
     0
  3
一点鎖線: ____ . ____ . ____ . ____ . ____ . ____
 72
    65
 73
     4
 40
18.0
 49
12.0
 49
-2.0
 49
2.0
 49
-2.0
  0
LTYPE
  2
二点鎖線
 70
     0
  3
二点鎖線: ____ . . ____ . . ____ . . ____ . . ____ 
 72
    65
 73
     6
 40
22.0
 49
12.0
 49
-2.0
 49
2.0
 49
-2.0
 49
2.0
 49
-2.0
  0
LTYPE
  2
DASHED1
 70
     0
  3
--  --  --  --  --  --  --  --  
 72
    65
 73
     2
 40
2.5
 49
1.25
 49
-1.25
  0
LTYPE
  2
DASHED2
 70
     0
  3
----    ----    ----    ----    
 72
    65
 73
     2
 40
5.0
 49
2.5
 49
-2.5
  0
LTYPE
  2
DASHED3
 70
     0
  3
------  ------  ------  ------  
 72
    65
 73
     2
 40
5.0
 49
3.75
 49
-1.25
  0
LTYPE
  2
CENTER1
 70
     0
  3
----- - ----- - ----- - ----- - 
 72
    65
 73
     4
 40
10.0
 49
6.25
 49
-1.25
 49
1.25
 49
-1.25
  0
LTYPE
  2
CENTER2
 70
     0
  3
----------  --  ----------  --  
 72
    65
 73
     4
 40
20.0
 49
12.5
 49
-2.5
 49
2.5
 49
-2.5
  0
LTYPE
  2
PHANTOM1
 70
     0
  3
--- - - --- - - --- - - --- - - 
 72
    65
 73
     6
 40
9.5
 49
3.25
 49
-1.25
 49
1.25
 49
-1.25
 49
1.25
 49
-1.25
  0
LTYPE
  2
PHANTOM2
 70
     0
  3
--------  -  -  --------  -  -  
 72
    65
 73
     6
 40
20.0
 49
10.0
 49
-2.5
 49
1.25
 49
-2.5
 49
1.25
 49
-2.5
  0
LTYPE
  2
DOT
 70
     0
  3
-   -   -   -   -   -   -   -   
 72
    65
 73
     2
 40
2.5
 49
0.625
 49
-1.875
  0
LTYPE
  2
RAND1
 70
     0
  3
ランダム線1
 72
    65
 73
     4
 40
10.0
 49
1.0
 49
-2.0
 49
3.0
 49
-4.0
  0
LTYPE
  2
RAND2
 70
     0
  3
ランダム線2
 72
    65
 73
     4
 40
14.0
 49
2.0
 49
-3.0
 49
4.0
 49
-5.0
  0
LTYPE
  2
RAND3
 70
     0
  3
ランダム線3
 72
    65
 73
     4
 40
18.0
 49
3.0
 49
-4.0
 49
5.0
 49
-6.0
  0
LTYPE
  2
RAND4
 70
     0
  3
ランダム線4
 72
    65
 73
     4
 40
22.0
 49
4.0
 49
-5.0
 49
6.0
 49
-7.0
  0
LTYPE
  2
RAND5
 70
     0
  3
ランダム線5
 72
    65
 73
     4
 40
26.0
 49
5.0
 49
-6.0
 49
7.0
 49
-8.0
  0
LTYPE
  2
LONG1
 70
     0
  3
----------  --  ----------  --  
 72
    65
 73
     4
 40
40.0
 49
32.5
 49
-2.5
 49
2.5
 49
-2.5
  0
LTYPE
  2
LONG2
 70
     0
  3
--------  -  -  --------  -  -  
 72
    65
 73
     6
 40
40.0
 49
30.0
 49
-2.5
 49
1.25
 49
-2.5
 49
1.25
 49
-2.5
  0
LTYPE
  2
LONG3
 70
     0
  3
+++++++++++++++..+++++++++++++++
 72
    65
 73
     2
 40
40.0
 49
37.5
 49
-2.5
  0
LTYPE
  2
LONG4
 70
     0
  3
+++++++++++++++..+++++++++++++++
 72
    65
 73
     2
 40
80.0
 49
75.0
 49
-5.0
  0
LTYPE
  2
LONG5
 70
     0
  3
----------  --  ----------  --  
 72
    65
 73
     4
 40
60.0
 49
37.5
 49
-7.5
 49
7.5
 49
-7.5
  0
LTYPE
  2
DASHED
 70
     0
  3
-------   -------------   ------
 72
    65
 73
     2
 40
7.5
 49
6.0
 49
-1.5
  0
LTYPE
  2
DASHED_SPACED
 70
     0
  3
----        --------        ----
 72
    65
 73
     2
 40
12.0
 49
6.0
 49
-6.0
  0
LTYPE
  2
LONG_DASHED_DOTTED
 70
     0
  3
------------- --- --------------
 72
    65
 73
     4
 40
15.25
 49
12.0
 49
-1.5
 49
0.25
 49
-1.5
  0
LTYPE
  2
LONG_DASHED_DOUBLE-DOTTED
 70
     0
  3
----------- --- --- ------------
 72
    65
 73
     6
 40
17.0
 49
12.0
 49
-1.5
 49
0.25
 49
-1.5
 49
0.25
 49
-1.5
  0
LTYPE
  2
LONG_DASHED_TRIPLICATE-DOT
 70
     0
  3
--------- --- --- --- ----------
 72
    65
 73
     8
 40
18.75
 49
12.0
 49
-1.5
 49
0.25
 49
-1.5
 49
0.25
 49
-1.5
 49
0.25
 49
-1.5
  0
LTYPE
  2
DOTTED
 70
     0
  3
   -       -       -       -    
 72
    65
 73
     2
 40
1.75
 49
0.25
 49
-1.5
  0
LTYPE
  2
CHAIN
 70
     0
  3
-------------- -- --------------
 72
    65
 73
     4
 40
18.5
 49
12.0
 49
-1.5
 49
3.5
 49
-1.5
  0
LTYPE
  2
CHAIN_DOUBLE_DASH
 70
     0
  3
------------ -- -- -------------
 72
    65
 73
     6
 40
23.5
 49
12.0
 49
-1.5
 49
3.5
 49
-1.5
 49
3.5
 49
-1.5
  0
LTYPE
  2
DASHED_DOTTED
 70
     0
  3
-----------     -     ----------
 72
    65
 73
     4
 40
9.25
 49
6.0
 49
-1.5
 49
0.25
 49
-1.5
  0
LTYPE
  2
DOUBLE-DASHED_DOTTED
 70
     0
  3
------   -----------   -   -----
 72
    65
 73
     6
 40
16.75
 49
6.0
 49
-1.5
 49
6.0
 49
-1.5
 49
0.25
 49
-1.5
  0
LTYPE
  2
DASHED_DOUBLE-DOTTED
 70
     0
  3
---------    -    -    ---------
 72
    65
 73
     6
 40
11.0
 49
6.0
 49
-1.5
 49
0.25
 49
-1.5
 49
0.25
 49
-1.5
  0
LTYPE
  2
DOUBLE-DASHED_DOUBLE-DOTTE
 70
     0
  3
-----   ---------   -   -   ----
 72
    65
 73
     8
 40
18.5
 49
6.0
 49
-1.5
 49
6.0
 49
-1.5
 49
0.25
 49
-1.5
 49
0.25
 49
-1.5
  0
LTYPE
  2
DASHED_TRIPLICATE-DOTTED
 70
     0
  3
-------    -    -    -    ------
 72
    65
 73
     8
 40
12.75
 49
6.0
 49
-1.5
 49
0.25
 49
-1.5
 49
0.25
 49
-1.5
 49
0.25
 49
-1.5
  0
LTYPE
  2
DOUBLE-DASHED_TRIPLICATE-D
 70
     0
  3
-----  ---------  -  -  -  -----
 72
    65
 73
    10
 40
20.25
 49
6.0
 49
-1.5
 49
6.0
 49
-1.5
 49
0.25
 49
-1.5
 49
0.25
 49
-1.5
 49
0.25
 49
-1.5
  0
ENDTAB
  0
TABLE
  2
LAYER
 70
    14
  0
LAYER
  2
0
 70
     0
 62
     7
  6
CONTINUOUS
  0
LAYER
  2
CENTERLINE_LAYER
 70
     0
 62
     1
  6
一点鎖線
  0
LAYER
  2
DASH_LAYER
 70
     0
 62
     6
  6
破線
  0
LAYER
  2
SOLID_LAYER
 70
     0
 62
     7
  6
CONTINUOUS
  0
LAYER
  2
THICK_SOLID_LAYER
 70
     0
 62
     7
  6
CONTINUOUS
  0
LAYER
  2
DIMENSION_LAYER
 70
     0
 62
     3
  6
CONTINUOUS
  0
LAYER
  2
HATCH_LAYER
 70
     0
 62
     4
  6
CONTINUOUS
  0
LAYER
  2
HIDDEN_LAYER
 70
     0
 62
    -7
  6
CONTINUOUS
  0
LAYER
  2
_0-0_
 70
     0
 62
     7
  6
CONTINUOUS
  0
LAYER
  2
_0-1_
 70
     0
 62
     7
  6
CONTINUOUS
  0
LAYER
  2
_0-2_
 70
     0
 62
     7
  6
CONTINUOUS
  0
LAYER
  2
_0-A_
 70
     0
 62
     7
  6
CONTINUOUS
  0
LAYER
  2
_0-F_
 70
     0
 62
     7
  6
CONTINUOUS
  0
LAYER
  2
ADD_LINE
 70
     0
 62
     7
  6
CONTINUOUS
  0
ENDTAB
  0
TABLE
  2
STYLE
 70
     3
  0
STYLE
  2
STANDARD
 70
     0
 40
0.0
 41
1.0
 50
0.0
 71
     0
 42
3.5
  3
txt
  4

  0
STYLE
  2
標準
 70
     0
 40
0.0
 41
0.667
 50
0.0
 71
     0
 42
0.2
  3

  4

  0
STYLE
  2
TATEGAKI
 70
     0
 40
0.0
 41
1.0
 50
0.0
 71
     0
 42
0.2
  3

  4

  0
ENDTAB
  0
TABLE
  2
VIEW
 70
     0
  0
ENDTAB
  0
TABLE
  2
UCS
 70
     0
  0
ENDTAB
  0
TABLE
  2
APPID
 70
   115
  0
APPID
  2
ACAD
 70
     0
  0
APPID
  2
CAXA_DRAFT_PAPERORDER
 70
     0
  0
APPID
  2
CAXA_DRAFT_ROUGH
 70
     0
  0
APPID
  2
CAXA_DRAFT_ROUGH_STD
 70
     0
  0
APPID
  2
CAXA_DRAFT_FORMATED_TXT
 70
     0
  0
APPID
  2
CAXA_DRAFT_DATUM
 70
     0
  0
APPID
  2
CAXA_DRAFT_WELD
 70
     0
  0
APPID
  2
CAXA_DRAFT_GEOTOL
 70
     0
  0
APPID
  2
CAXA_DRAFT_CUTS
 70
     0
  0
APPID
  2
CAXA_DRAFT_DIMHALF
 70
     0
  0
APPID
  2
CAXA_DRAFT_DIMRAY
 70
     0
  0
APPID
  2
CAXA_DRAFT_DIMARCLEN
 70
     0
  0
APPID
  2
CAXA_DRAFT_DIMTAPER
 70
     0
  0
APPID
  2
CAXA_DRAFT_DIMPITCH
 70
     0
  0
APPID
  2
CAXA_DRAFT_DIMCOORD
 70
     0
  0
APPID
  2
CAXA_DRAFT_DIMORIALIGN
 70
     0
  0
APPID
  2
CAXA_DRAFT_DIMHOLEPOS
 70
     0
  0
APPID
  2
CAXA_DRAFT_DIMCRDLEADER
 70
     0
  0
APPID
  2
CAXA_DRAFT_DIMCHAMFER
 70
     0
  0
APPID
  2
CAXA_DRAFT_DIMCENTERHOLE
 70
     0
  0
APPID
  2
CAXA_DRAFT_DIMLEADER
 70
     0
  0
APPID
  2
CAXA_DRAFT_DIMCRDLIST
 70
     0
  0
APPID
  2
CAXA_DRAFT_PAPERSCALE
 70
     0
  0
APPID
  2
CAXA_DRAFT_FILEVERSION
 70
     0
  0
APPID
  2
CAXA_DRAFT_PRODUCTVERSION
 70
     0
  0
APPID
  2
CAXA_DRAFT_DATATABLE
 70
     0
  0
APPID
  2
CAXA_DRAFT_PAPERINFO
 70
     0
  0
APPID
  2
CAXA_DRAFT_PAPERFRAME
 70
     0
  0
APPID
  2
CAXA_DRAFT_PAPERTITLE
 70
     0
  0
APPID
  2
CAXA_DRAFT_PAPERPAREATABLE
 70
     0
  0
APPID
  2
CAXA_DRAFT_PARTNO
 70
     0
  0
APPID
  2
CAXA_DRAFT_BOMTABLE
 70
     0
  0
APPID
  2
CAXA_DRAFT_BLKREF_EXTATT
 70
     0
  0
APPID
  2
CAXA_DRAFT_DBVIEWDATA
 70
     0
  0
APPID
  2
CAXA_DRAFT_DIMSYMTOL
 70
     0
  0
APPID
  2
CAXA_DRAFT_DIMASSEMTOL
 70
     0
  0
APPID
  2
CAXA_DRAFT_DIMANGLETOL
 70
     0
  0
APPID
  2
CAXA_DRAFT_DRAFTDATA
 70
     0
  0
APPID
  2
CAXA_DRAFT_DIMORIGIN
 70
     0
  0
APPID
  2
CAXA_DRAFT_ENLARGE_EDGE
 70
     0
  0
APPID
  2
CAXA_DRAFT_DIMSTY_T_VPOS
 70
     0
  0
APPID
  2
CAXA_DRAFT_DIMSTY_AT_VPOS
 70
     0
  0
APPID
  2
CAXA_DRAFT_BLKHIDE
 70
     0
  0
APPID
  2
CAXA_DRAFT_DIMARROWREVERSE
 70
     0
  0
APPID
  2
CAXA_DRAFT_TXTSTYLE
 70
     0
  0
APPID
  2
CAXA_DRAFT_ATTRIBUTE_2PT
 70
     0
  0
APPID
  2
CAXA_DRAFT_ATTDEF_2PT
 70
     0
  0
APPID
  2
CAXA_DRAFT_DIMBIGARC
 70
     0
  0
APPID
  2
CAXA_DRAFT_ISNEB09R3
 70
     0
  0
APPID
  2
CAXA_DRAFT_WIPEOUT_B_HIDE
 70
     0
  0
APPID
  2
CAXA_DRAFT_BLKREF_SYMBOL
 70
     0
  0
APPID
  2
CAXA_DRAFT_ENL_COMMENTS
 70
     0
  0
APPID
  2
CAXA_DRAFT_ENL_TSCALE
 70
     0
  0
APPID
  2
CAXA_DRAFT_TXTSCALE
 70
     0
  0
APPID
  2
CAXA_DRAFT_KEEPLTSEG_ZOOM
 70
     0
  0
APPID
  2
CAXA_DRAFT_SPECLIB
 70
     0
  0
APPID
  2
CAXA_DRAFT_DATUM_2011R2
 70
     0
  0
APPID
  2
CAXA_DRAFT_ROUGH_2011R2
 70
     0
  0
APPID
  2
CAXA_DRAFT_GEOTOL_2011R2
 70
     0
  0
APPID
  2
CAXA_DRAFT_DMOVMAP_2011R3
 70
     0
  0
APPID
  2
CAXA_DRAFT_DDTSTY_2011R3
 70
     0
  0
APPID
  2
CAXA_DRAFT_SDTSTY_2011R3
 70
     0
  0
APPID
  2
CDRAFT_TXTROT_2011R3
 70
     0
  0
APPID
  2
CDRAFT_TOLOUT_2011R3
 70
     0
  0
APPID
  2
CAXA_DRAFT_DIMARCLENSTYLE
 70
     0
  0
APPID
  2
CAXA_DRAFT_DMOVMAP_2013
 70
     0
  0
APPID
  2
CAXA_DRAFT_DS_DLLNTYPE
 70
     0
  0
APPID
  2
CAXA_DRAFT_DS_LBLLNTYPE
 70
     0
  0
APPID
  2
CAXA_DRAFT_DS_RBLLNTYPE
 70
     0
  0
APPID
  2
CAXA_DRAFT_DS_ISFILLDFM
 70
     0
  0
APPID
  2
CAXA_DRAFT_DS_DISPZTOOL
 70
     0
  0
APPID
  2
CAXA_DRAFT_DS_SYMCOLOR
 70
     0
  0
APPID
  2
CAXA_DRAFT_HATCH_SCALE_ANG
 70
     0
  0
APPID
  2
CAXA_DRAFT_GEOTOL_ISFROMDW
 70
     0
  0
APPID
  2
CXDRAGDIADIMLNSTYLE
 70
     0
  0
APPID
  2
CXDRAGRADDIMLNSTYLE
 70
     0
  0
APPID
  2
CX_DBANNOTATE_SIMDIMORITXT
 70
     0
  0
APPID
  2
CX_DBANNOTATE_TXTLOCPARA
 70
     0
  0
APPID
  2
CX_DBANNOTATE_DRAGTXTLOC
 70
     0
  0
APPID
  2
USERSETTXTLOC
 70
     0
  0
APPID
  2
USERSETTXTLOCTYPE
 70
     0
  0
APPID
  2
USERSETTXTLOCPT
 70
     0
  0
APPID
  2
CAXA_DRAFT_IMAGE_BINARY
 70
     0
  0
APPID
  2
DIMTXTFRMSTYLE_2015R1
 70
     0
  0
APPID
  2
CAXA_DRAFT_GEOTOL_ISSHX
 70
     0
  0
APPID
  2
CAXA_SUPGRAPHICDIM
 70
     0
  0
APPID
  2
CAXA_GRAPHICARCLEN_HASLN
 70
     0
  0
APPID
  2
CAXA_GRAPHICDIM_OUT
 70
     0
  0
APPID
  2
CAXA_DATUM_LEADLNBKMODE
 70
     0
  0
APPID
  2
CX_DBDIM_CRDDIMLINEANDARRO
 70
     0
  0
APPID
  2
CX_DBDIM_TAPERANGLESTD
 70
     0
  0
APPID
  2
CX_DBATTRIBDEF_OPTIONALVAL
 70
     0
  0
APPID
  2
CAXA_DRAFT_LEADER_MLEADERL
 70
     0
  0
APPID
  2
CAXA_DRAFT_WELD_MLEADERLIN
 70
     0
  0
APPID
  2
CAXA_DRAFT_GEOTOL_MLEADERL
 70
     0
  0
APPID
  2
CAXA_DRAFT_ROUGH_MLEADERLI
 70
     0
  0
APPID
  2
CAXA_DRAFT_DATUM_MLEADERLI
 70
     0
  0
APPID
  2
CAXA_DRAFT_ROUGH_STDSPTDAT
 70
     0
  0
APPID
  2
CAXA_DRAFT_CUTS_LABLEDATA
 70
     0
  0
APPID
  2
CAXA_DRAFT_LEADER_DISPREFL
 70
     0
  0
APPID
  2
CAXA_DRAFT_TAPER_TEXTTYPE
 70
     0
  0
APPID
  2
CAXA_DRAFT_TAPER_RATEFORMA
 70
     0
  0
APPID
  2
CAXA_DRAFT_TAPER_RATESEPAR
 70
     0
  0
APPID
  2
CX_DIMSTYLE_TXTFRAME
 70
     0
  0
APPID
  2
CX_DBDIM_TXTFRAME
 70
     0
  0
APPID
  2
CAXA_DRAFT_TABLEENT
 70
     0
  0
APPID
  2
CDRAFT_DIM_STD_REV_NAME
 70
     0
  0
APPID
  2
CAXA_DRAFT_BOM_STDSPTDATA
 70
     0
  0
APPID
  2
CAXA_DRAFT_PARTNO_STDSPTDA
 70
     0
  0
APPID
  2
CAXA_DRAFT_DATUM_LOCPTEDIT
 70
     0
  0
APPID
  2
CAXA_DRAFT_INFO_WMFLAG
 70
     0
  0
APPID
  2
CX_DBDIM_CRDDIMTYPEANDDATA
 70
     0
  0
APPID
  2
CX_DBDIM_DIMORIGINBITEXT
 70
     0
  0
APPID
  2
CX_DBDIM_DIMCRDLEADERPTS
 70
     0
  0
APPID
  2
ACAECLAYERSTANDARD
 70
     0
  0
ENDTAB
  0
TABLE
  2
DIMSTYLE
 70
     5
  0
DIMSTYLE
  2
STANDARD
 70
     0
  3

  4

  5

  6

  7

 40
1.0
 41
0.18
 42
0.0625
 43
0.38
 44
0.18
 45
0.0
 46
0.36
 47
0.0
 48
0.0
140
0.18
141
0.09
142
0.0
143
25.4
144
1.0
145
0.0
146
1.0
147
0.09
 71
     0
 72
     0
 73
     1
 74
     1
 75
     0
 76
     0
 77
     0
 78
     0
170
     0
171
     2
172
     0
173
     0
174
     0
175
     0
176
     0
177
     0
178
     0
  0
DIMSTYLE
  2
標準
 70
     0
  3

  4

  5
CAXARROW
  6

  7

 40
1.0
 41
4.0
 42
0.0
 43
10.0
 44
2.0
 45
0.0
 46
6.0
 47
0.0
 48
0.0
140
3.5
141
0.0
142
0.0
143
1.0
144
1.0
145
0.0
146
0.7071067811865475
147
0.625
 71
     0
 72
     0
 73
     0
 74
     0
 75
     0
 76
     0
 77
     1
 78
     8
170
     0
171
     2
172
     1
173
     0
174
     0
175
     0
176
     0
177
     0
178
     0
  0
DIMSTYLE
  2
ANSI_DIM
 70
     0
  3

  4

  5
CAXARROW
  6

  7

 40
1.0
 41
4.0
 42
0.0
 43
10.0
 44
2.0
 45
0.0
 46
6.0
 47
0.0
 48
0.0
140
3.5
141
0.0
142
0.0
143
1.0
144
1.0
145
0.0
146
0.7071067811865475
147
0.625
 71
     0
 72
     0
 73
     0
 74
     0
 75
     0
 76
     0
 77
     1
 78
     8
170
     0
171
     2
172
     1
173
     0
174
     0
175
     0
176
     0
177
     0
178
     0
  0
DIMSTYLE
  2
ANSI_DIMLEADER_1994_
 70
     0
  3

  4

  5
CAXARROW
  6

  7

 40
1.0
 41
4.0
 42
0.0
 43
10.0
 44
2.0
 45
0.0
 46
6.0
 47
0.0
 48
0.0
140
3.5
141
0.0
142
0.0
143
1.0
144
1.0
145
0.0
146
0.7071067811865475
147
0.625
 71
     0
 72
     0
 73
     0
 74
     0
 75
     0
 76
     0
 77
     1
 78
     8
170
     0
171
     2
172
     1
173
     0
174
     0
175
     0
176
     0
177
     0
178
     0
  0
DIMSTYLE
  2
ANSI_TAPER_1994_
 70
     0
  3

  4

  5
CAXARROW
  6

  7

 40
1.0
 41
4.0
 42
0.0
 43
10.0
 44
2.0
 45
0.0
 46
6.0
 47
0.0
 48
0.0
140
3.5
141
0.0
142
0.0
143
1.0
144
1.0
145
0.0
146
0.7071067811865475
147
0.625
 71
     0
 72
     0
 73
     0
 74
     0
 75
     0
 76
     0
 77
     1
 78
     8
170
     0
171
     2
172
     1
173
     0
174
     0
175
     0
176
     0
177
     0
178
     0
  0
ENDTAB
  0
ENDSEC
  0
SECTION
  2
BLOCKS
  0
BLOCK
  8
0
  2
$MODEL_SPACE
 70
     0
 10
0.0
 20
0.0
 30
0.0
  3
$MODEL_SPACE
  1

  0
ENDBLK
  5
21
  8
0
  0
BLOCK
 67
     1
  8
0
  2
$PAPER_SPACE
 70
     0
 10
0.0
 20
0.0
 30
0.0
  3
$PAPER_SPACE
  1

  0
ENDBLK
  5
1D
 67
     1
  8
0
  0
BLOCK
  8
0
  2
_CAXARROW
 70
     0
 10
0.0
 20
0.0
 30
0.0
  3
_CAXARROW
  1

  0
INSERT
  5
116
  8
0
 62
     0
  2
*U2
 10
0.0
 20
0.0
 30
0.0
1001
ACAD
1002
{
1000
R14_HATCH_DATA
1000
116
1011
1.0
1021
0.0
1031
0.0
1021
0.0
1031
0.0
1011
0.0
1021
1.0
1031
0.0
1021
1.0
1031
0.0
1011
0.0
1021
0.0
1031
1.0
1021
0.0
1031
1.0
1040
0.0
1010
0.0
1020
0.0
1030
1.0
1000
SOLID
1070
     1
1070
     1
1071
        1
1071
        0
1071
        3
1070
     1
1040
0.0
1040
0.0
1040
-1.0
1040
0.125
1070
     1
1040
-1.0
1040
0.125
1040
-1.0
1040
-0.125
1070
     1
1040
-1.0
1040
-0.125
1040
0.0
1040
0.0
1071
        0
1070
     0
1070
     1
1071
        1
1040
0.0
1040
0.0
1040
0.0
1002
}
  0
ENDBLK
  5
118
  8
0
  0
BLOCK
  8
0
  2
*U2
 70
     1
 10
0.0
 20
0.0
 30
0.0
  3
*U2
  1

  0
SOLID
  5
736
  8
0
  6
CONTINUOUS
 62
     0
 10
-1.0
 20
-0.125
 30
0.0
 11
-1.0
 21
0.125
 31
0.0
 12
0.0
 22
0.0
 32
0.0
 13
0.0
 23
0.0
 33
0.0
  0
ENDBLK
  5
738
  8
0
  0
ENDSEC
  0
SECTION
  2
ENTITIES
  0
LINE
  5
14B
  8
_0-A_
  6
PHANTOM1
 62
   152
 10
741.9899841959287
 20
298.9621224482136
 30
0.0
 11
741.9899841959287
 21
248.2475913615652
 31
0.0
  0
LINE
  5
14C
  8
_0-A_
  6
PHANTOM1
 62
   152
 10
716.9899841959287
 20
298.9621224482136
 30
0.0
 11
716.9899841959287
 21
248.2475913615652
 31
0.0
  0
LINE
  5
14D
  8
_0-A_
  6
PHANTOM1
 62
   152
 10
842.5160485677916
 20
273.2475913615652
 30
0.0
 11
741.9899841959287
 21
273.2475913615652
 31
0.0
  0
LINE
  5
14E
  8
_0-0_
  6
CONTINUOUS
 62
     7
 10
89.61603959874162
 20
170.0475913416864
 30
0.0
 11
113.6160395987417
 21
170.0475913416864
 31
0.0
  0
LINE
  5
14F
  8
ADD_LINE
  6
DOT
 62
     7
 10
14.96633847791361
 20
265.8722724853645
 30
0.0
 11
34.96633847791361
 21
265.8722724853645
 31
0.0
  0
LINE
  5
150
  8
ADD_LINE
  6
DOT
 62
     7
 10
9.96633847791361
 20
271.3722724853645
 30
0.0
 11
34.96633847791361
 21
271.3722724853645
 31
0.0
  0
LINE
  5
151
  8
_0-0_
  6
CONTINUOUS
 62
     7
 10
342.3509925454165
 20
248.2475913615652
 30
0.0
 11
342.3509925454165
 21
239.2475913615652
 31
0.0
  0
LINE
  5
152
  8
_0-0_
  6
CONTINUOUS
 62
     7
 10
342.3509925454165
 20
248.2475913615652
 30
0.0
 11
212.3509925454165
 21
248.2475913615652
 31
0.0
  0
LINE
  5
153
  8
_0-0_
  6
CONTINUOUS
 62
     7
 10
212.3509925454165
 20
248.2475913615652
 30
0.0
 11
212.3509925454165
 21
239.2475913615652
 31
0.0
  0
LINE
  5
154
  8
_0-0_
  6
CONTINUOUS
 62
     7
 10
216.8509925454161
 20
233.4381213615651
 30
0.0
 11
216.8509925454161
 21
229.2475913615652
 31
0.0
  0
LINE
  5
155
  8
_0-0_
  6
CONTINUOUS
 62
     7
 10
216.8509925454161
 20
229.2475913615652
 30
0.0
 11
217.8509925454161
 21
228.2475913615652
 31
0.0
  0
LINE
  5
156
  8
_0-0_
  6
CONTINUOUS
 62
     7
 10
217.8509925454161
 20
228.2475913615652
 30
0.0
 11
233.8509925454165
 21
228.2475913615652
 31
0.0
  0
LINE
  5
157
  8
_0-0_
  6
CONTINUOUS
 62
     7
 10
233.8509925454165
 20
228.2475913615652
 30
0.0
 11
234.8509925454165
 21
229.2475913615652
 31
0.0
  0
LINE
  5
158
  8
_0-0_
  6
CONTINUOUS
 62
     7
 10
234.8509925454165
 20
229.2475913615652
 30
0.0
 11
216.8509925454161
 21
229.2475913615652
 31
0.0
  0
LINE
  5
159
  8
_0-0_
  6
CONTINUOUS
 62
     7
 10
234.8509925454165
 20
229.2475913615652
 30
0.0
 11
234.8509925454165
 21
233.2475913615652
 31
0.0
  0
LINE
  5
15A
  8
_0-0_
  6
CONTINUOUS
 62
     7
 10
218.3509925454165
 20
233.2475913615652
 30
0.0
 11
336.3509925454165
 21
233.2475913615652
 31
0.0
  0
ARC
  5
15B
  8
_0-0_
  6
CONTINUOUS
 62
     7
 10
336.3509925454165
 20
239.2475913615652
 30
0.0
 40
6.0
 50
270.0
 51
0.0
  0
ARC
  5
15C
  8
_0-0_
  6
CONTINUOUS
 62
     7
 10
218.3509925454165
 20
239.2475913615652
 30
0.0
 40
6.0
 50
179.9999999999992
 51
270.0
  0
LINE
  5
15D
  8
_0-0_
  6
CONTINUOUS
 62
     7
 10
824.9899841959293
 20
248.2475913615652
 30
0.0
 11
824.9899841959293
 21
239.2475913615652
 31
0.0
  0
LINE
  5
15E
  8
_0-0_
  6
CONTINUOUS
 62
     7
 10
824.9899841959293
 20
248.2475913615652
 30
0.0
 11
694.9899841959293
 21
248.2475913615652
 31
0.0
  0
LINE
  5
15F
  8
_0-0_
  6
CONTINUOUS
 62
     7
 10
694.9899841959293
 20
248.2475913615652
 30
0.0
 11
694.9899841959293
 21
239.2475913615652
 31
0.0
  0
LINE
  5
160
  8
_0-0_
  6
CONTINUOUS
 62
     7
 10
699.4899841959289
 20
233.4381213615651
 30
0.0
 11
699.4899841959289
 21
229.2475913615652
 31
0.0
  0
LINE
  5
161
  8
_0-0_
  6
CONTINUOUS
 62
     7
 10
699.4899841959289
 20
229.2475913615652
 30
0.0
 11
700.4899841959289
 21
228.2475913615652
 31
0.0
  0
LINE
  5
162
  8
_0-0_
  6
CONTINUOUS
 62
     7
 10
700.4899841959289
 20
228.2475913615652
 30
0.0
 11
716.4899841959293
 21
228.2475913615652
 31
0.0
  0
LINE
  5
163
  8
_0-0_
  6
CONTINUOUS
 62
     7
 10
716.4899841959293
 20
228.2475913615652
 30
0.0
 11
717.4899841959293
 21
229.2475913615652
 31
0.0
  0
LINE
  5
164
  8
_0-0_
  6
CONTINUOUS
 62
     7
 10
717.4899841959293
 20
229.2475913615652
 30
0.0
 11
699.4899841959289
 21
229.2475913615652
 31
0.0
  0
LINE
  5
165
  8
_0-0_
  6
CONTINUOUS
 62
     7
 10
717.4899841959293
 20
229.2475913615652
 30
0.0
 11
717.4899841959293
 21
233.2475913615652
 31
0.0
  0
LINE
  5
166
  8
_0-0_
  6
CONTINUOUS
 62
     7
 10
700.9899841959293
 20
233.2475913615652
 30
0.0
 11
818.9899841959293
 21
233.2475913615652
 31
0.0
  0
ARC
  5
167
  8
_0-0_
  6
CONTINUOUS
 62
     7
 10
818.9899841959293
 20
239.2475913615652
 30
0.0
 40
6.0
 50
270.0
 51
359.9999999999994
  0
ARC
  5
168
  8
_0-0_
  6
CONTINUOUS
 62
     7
 10
700.9899841959293
 20
239.2475913615652
 30
0.0
 40
6.0
 50
179.9999999999995
 51
270.0
  0
LINE
  5
169
  8
_0-0_
  6
CONTINUOUS
 62
     7
 10
60.61603959874117
 20
248.2475913615652
 30
0.0
 11
60.61603959874117
 21
245.0475913615652
 31
0.0
  0
LINE
  5
16A
  8
_0-0_
  6
CONTINUOUS
 62
     7
 10
60.61603959874117
 20
245.0475913615652
 30
0.0
 11
162.9160395987411
 21
245.0475913615652
 31
0.0
  0
LINE
  5
16B
  8
_0-0_
  6
CONTINUOUS
 62
     7
 10
163.4160395987411
 20
244.5475913615652
 30
0.0
 11
163.4160395987411
 21
233.2475913615652
 31
0.0
  0
LINE
  5
16C
  8
_0-0_
  6
CONTINUOUS
 62
     7
 10
163.4160395987411
 20
233.2475913615652
 30
0.0
 11
166.6160395987412
 21
233.2475913615652
 31
0.0
  0
LINE
  5
16D
  8
_0-0_
  6
CONTINUOUS
 62
     7
 10
166.6160395987412
 20
233.2475913615652
 30
0.0
 11
166.6160395987412
 21
244.4975913615652
 31
0.0
  0
LINE
  5
16E
  8
_0-0_
  6
CONTINUOUS
 62
     7
 10
162.8660395987412
 20
248.2475913615652
 30
0.0
 11
60.61603959874117
 21
248.2475913615652
 31
0.0
  0
LINE
  5
16F
  8
_0-0_
  6
CONTINUOUS
 62
     7
 10
159.6160395987412
 20
245.0475913615652
 30
0.0
 11
156.6160395987412
 21
242.0475913615652
 31
0.0
  0
LINE
  5
170
  8
_0-0_
  6
CONTINUOUS
 62
     7
 10
156.6160395987412
 20
245.0475913615652
 30
0.0
 11
156.6160395987412
 21
229.2475913615652
 31
0.0
  0
LINE
  5
171
  8
_0-0_
  6
CONTINUOUS
 62
     7
 10
156.6160395987412
 20
229.2475913615652
 30
0.0
 11
155.6160395987412
 21
228.2475913615652
 31
0.0
  0
LINE
  5
172
  8
_0-0_
  6
CONTINUOUS
 62
     7
 10
155.6160395987412
 20
228.2475913615652
 30
0.0
 11
139.6160395987412
 21
228.2475913615652
 31
0.0
  0
LINE
  5
173
  8
_0-0_
  6
CONTINUOUS
 62
     7
 10
139.6160395987412
 20
228.2475913615652
 30
0.0
 11
138.6160395987412
 21
229.2475913615652
 31
0.0
  0
LINE
  5
174
  8
_0-0_
  6
CONTINUOUS
 62
     7
 10
138.6160395987412
 20
229.2475913615652
 30
0.0
 11
138.6160395987412
 21
245.0475913615652
 31
0.0
  0
LINE
  5
175
  8
_0-0_
  6
CONTINUOUS
 62
     7
 10
135.6160395987412
 20
245.0475913615652
 30
0.0
 11
138.6160395987412
 21
242.0475913615652
 31
0.0
  0
ARC
  5
176
  8
_0-0_
  6
CONTINUOUS
 62
     7
 10
162.8660395987412
 20
244.4975913615652
 30
0.0
 40
3.75
 50
0.0
 51
90.0
  0
ARC
  5
177
  8
_0-0_
  6
CONTINUOUS
 62
     7
 10
162.9160395987411
 20
244.5475913615652
 30
0.0
 40
0.5
 50
0.0
 51
90.0
  0
LINE
  5
178
  8
_0-0_
  6
CONTINUOUS
 62
     7
 10
342.3509925454165
 20
32.31345482752113
 30
0.0
 11
342.3509925454165
 21
128.3134468275211
 31
0.0
  0
ARC
  5
179
  8
_0-0_
  6
CONTINUOUS
 62
     7
 10
332.3509925454165
 20
32.31345482752113
 30
0.0
 40
10.0
 50
270.0
 51
359.9999999999999
  0
ARC
  5
17A
  8
_0-0_
  6
CONTINUOUS
 62
     7
 10
246.3530625454165
 20
32.31345482752113
 30
0.0
 40
9.999999999999996
 50
199.9999999999999
 51
270.0
  0
CIRCLE
  5
17B
  8
_0-0_
  6
CONTINUOUS
 62
     7
 10
246.8509925454161
 20
31.31345482752113
 30
0.0
 40
2.75
  0
CIRCLE
  5
17C
  8
_0-0_
  6
CONTINUOUS
 62
     7
 10
268.3509925454165
 20
117.8134548275211
 30
0.0
 40
2.75
  0
CIRCLE
  5
17D
  8
_0-0_
  6
CONTINUOUS
 62
     7
 10
333.3509925454165
 20
117.8134548275211
 30
0.0
 40
2.75
  0
LINE
  5
17E
  8
_0-0_
  6
CONTINUOUS
 62
     7
 10
66.61603959874117
 20
245.0475913615652
 30
0.0
 11
136.6160395987412
 21
245.0475913615652
 31
0.0
  0
LINE
  5
17F
  8
_0-0_
  6
CONTINUOUS
 62
     7
 10
543.2550312492539
 20
248.2475913615652
 30
0.0
 11
543.2550312492539
 21
245.0475913615652
 31
0.0
  0
LINE
  5
180
  8
_0-0_
  6
CONTINUOUS
 62
     7
 10
543.2550312492539
 20
245.0475913615652
 30
0.0
 11
645.5550312492538
 21
245.0475913615652
 31
0.0
  0
LINE
  5
181
  8
_0-0_
  6
CONTINUOUS
 62
     7
 10
646.0550312492538
 20
244.5475913615652
 30
0.0
 11
646.0550312492538
 21
233.2475913615652
 31
0.0
  0
LINE
  5
182
  8
_0-0_
  6
CONTINUOUS
 62
     7
 10
646.0550312492538
 20
233.2475913615652
 30
0.0
 11
649.2550312492539
 21
233.2475913615652
 31
0.0
  0
LINE
  5
183
  8
_0-0_
  6
CONTINUOUS
 62
     7
 10
649.2550312492539
 20
233.2475913615652
 30
0.0
 11
649.2550312492539
 21
244.4975913615652
 31
0.0
  0
LINE
  5
184
  8
_0-0_
  6
CONTINUOUS
 62
     7
 10
645.5050312492539
 20
248.2475913615652
 30
0.0
 11
543.2550312492539
 21
248.2475913615652
 31
0.0
  0
LINE
  5
185
  8
_0-0_
  6
CONTINUOUS
 62
     7
 10
642.2550312492539
 20
245.0475913615652
 30
0.0
 11
639.2550312492539
 21
242.0475913615652
 31
0.0
  0
LINE
  5
186
  8
_0-0_
  6
CONTINUOUS
 62
     7
 10
639.2550312492539
 20
245.0475913615652
 30
0.0
 11
639.2550312492539
 21
229.2475913615652
 31
0.0
  0
LINE
  5
187
  8
_0-0_
  6
CONTINUOUS
 62
     7
 10
639.2550312492539
 20
229.2475913615652
 30
0.0
 11
638.2550312492539
 21
228.2475913615652
 31
0.0
  0
LINE
  5
188
  8
_0-0_
  6
CONTINUOUS
 62
     7
 10
638.2550312492539
 20
228.2475913615652
 30
0.0
 11
622.2550312492539
 21
228.2475913615652
 31
0.0
  0
LINE
  5
189
  8
_0-0_
  6
CONTINUOUS
 62
     7
 10
622.2550312492539
 20
228.2475913615652
 30
0.0
 11
621.2550312492539
 21
229.2475913615652
 31
0.0
  0
LINE
  5
18A
  8
_0-0_
  6
CONTINUOUS
 62
     7
 10
621.2550312492539
 20
229.2475913615652
 30
0.0
 11
621.2550312492539
 21
245.0475913615652
 31
0.0
  0
LINE
  5
18B
  8
_0-0_
  6
CONTINUOUS
 62
     7
 10
618.2550312492539
 20
245.0475913615652
 30
0.0
 11
621.2550312492539
 21
242.0475913615652
 31
0.0
  0
ARC
  5
18C
  8
_0-0_
  6
CONTINUOUS
 62
     7
 10
645.5050312492539
 20
244.4975913615652
 30
0.0
 40
3.75
 50
0.0
 51
90.0
  0
ARC
  5
18D
  8
_0-0_
  6
CONTINUOUS
 62
     7
 10
645.5550312492538
 20
244.5475913615652
 30
0.0
 40
0.5
 50
0.0
 51
90.0
  0
LINE
  5
18E
  8
_0-0_
  6
CONTINUOUS
 62
     7
 10
728.9920541959292
 20
22.31345482752113
 30
0.0
 11
814.9899841959292
 21
22.31345482752113
 31
0.0
  0
LINE
  5
18F
  8
_0-0_
  6
CONTINUOUS
 62
     7
 10
824.9899841959292
 20
32.31345482752113
 30
0.0
 11
824.9899841959292
 21
128.3134468275211
 31
0.0
  0
ARC
  5
190
  8
_0-0_
  6
CONTINUOUS
 62
     7
 10
814.9899841959292
 20
32.31345482752113
 30
0.0
 40
10.0
 50
270.0
 51
359.9999999999999
  0
ARC
  5
191
  8
_0-0_
  6
CONTINUOUS
 62
     7
 10
728.9920541959292
 20
32.31345482752113
 30
0.0
 40
10.00000000000002
 50
199.9999999999998
 51
270.0
  0
CIRCLE
  5
192
  8
_0-0_
  6
CONTINUOUS
 62
     7
 10
729.4899841959287
 20
31.31345482752113
 30
0.0
 40
2.75
  0
CIRCLE
  5
193
  8
_0-0_
  6
CONTINUOUS
 62
     7
 10
750.9899841959292
 20
117.8134548275211
 30
0.0
 40
2.75
  0
CIRCLE
  5
194
  8
_0-0_
  6
CONTINUOUS
 62
     7
 10
815.9899841959292
 20
117.8134548275211
 30
0.0
 40
2.75
  0
CIRCLE
  5
195
  8
_0-0_
  6
CONTINUOUS
 62
     7
 10
708.4991493432789
 20
109.3134548275211
 30
0.0
 40
20.00916514734968
  0
LINE
  5
196
  8
_0-0_
  6
CONTINUOUS
 62
     7
 10
720.7762292034864
 20
125.1134548275211
 30
0.0
 11
824.9899841959292
 21
125.1134548275211
 31
0.0
  0
LINE
  5
197
  8
_0-0_
  6
CONTINUOUS
 62
     7
 10
824.9899841959292
 20
128.3134548275211
 30
0.0
 11
714.7734373422404
 21
128.3134548275211
 31
0.0
  0
LINE
  5
198
  8
_0-0_
  6
CONTINUOUS
 62
     7
 10
696.016316891996
 20
93.6755015123615
 30
0.0
 11
719.5951341959291
 21
28.8932548275211
 31
0.0
  0
CIRCLE
  5
199
  8
_0-0_
  6
CONTINUOUS
 62
     7
 10
708.4991493432789
 20
109.3134548275211
 30
0.0
 40
18.00916514734968
  0
LINE
  5
19A
  8
_0-1_
  6
CENTER1
 62
   152
 10
246.8509925454161
 20
93.56344682752115
 30
0.0
 11
246.8509925454161
 21
99.06344682752115
 31
0.0
  0
LINE
  5
19B
  8
_0-1_
  6
CENTER1
 62
   152
 10
244.2509925454162
 20
96.31344682752115
 30
0.0
 11
249.450992545416
 21
96.31344682752115
 31
0.0
  0
LINE
  5
19C
  8
_0-1_
  6
CENTER1
 62
   152
 10
246.8509925454161
 20
34.06345482752113
 30
0.0
 11
246.8509925454161
 21
28.56345482752113
 31
0.0
  0
LINE
  5
19D
  8
_0-1_
  6
CENTER1
 62
   152
 10
244.2509925454162
 20
31.31345482752113
 30
0.0
 11
249.450992545416
 21
31.31345482752113
 31
0.0
  0
LINE
  5
19E
  8
_0-1_
  6
CENTER1
 62
   152
 10
265.6009925454161
 20
117.8134548275211
 30
0.0
 11
271.1009925454165
 21
117.8134548275211
 31
0.0
  0
LINE
  5
19F
  8
_0-1_
  6
CENTER1
 62
   152
 10
268.3509925454165
 20
115.2134548275212
 30
0.0
 11
268.3509925454165
 21
120.413454827521
 31
0.0
  0
LINE
  5
1A0
  8
_0-1_
  6
CENTER1
 62
   152
 10
330.6009925454161
 20
117.8134548275211
 30
0.0
 11
336.1009925454165
 21
117.8134548275211
 31
0.0
  0
LINE
  5
1A1
  8
_0-1_
  6
CENTER1
 62
   152
 10
333.3509925454165
 20
115.2134548275212
 30
0.0
 11
333.3509925454165
 21
120.413454827521
 31
0.0
  0
LINE
  5
1A2
  8
_0-1_
  6
CENTER1
 62
   152
 10
729.4899841959287
 20
93.56344682752115
 30
0.0
 11
729.4899841959287
 21
99.06344682752115
 31
0.0
  0
LINE
  5
1A3
  8
_0-1_
  6
CENTER1
 62
   152
 10
729.4899841959287
 20
34.06345482752113
 30
0.0
 11
729.4899841959287
 21
28.56345482752113
 31
0.0
  0
LINE
  5
1A4
  8
_0-1_
  6
CENTER1
 62
   152
 10
726.8899841959288
 20
31.31345482752113
 30
0.0
 11
732.0899841959287
 21
31.31345482752113
 31
0.0
  0
LINE
  5
1A5
  8
_0-1_
  6
CENTER1
 62
   152
 10
748.2399841959287
 20
117.8134548275211
 30
0.0
 11
753.7399841959292
 21
117.8134548275211
 31
0.0
  0
LINE
  5
1A6
  8
_0-1_
  6
CENTER1
 62
   152
 10
750.9899841959292
 20
115.2134548275212
 30
0.0
 11
750.9899841959292
 21
120.413454827521
 31
0.0
  0
LINE
  5
1A7
  8
_0-1_
  6
CENTER1
 62
   152
 10
813.2399841959287
 20
117.8134548275211
 30
0.0
 11
818.7399841959292
 21
117.8134548275211
 31
0.0
  0
LINE
  5
1A8
  8
_0-1_
  6
CENTER1
 62
   152
 10
815.9899841959292
 20
115.2134548275212
 30
0.0
 11
815.9899841959292
 21
120.413454827521
 31
0.0
  0
CIRCLE
  5
1A9
  8
_0-0_
  6
CONTINUOUS
 62
     7
 10
246.8509925454161
 20
96.31344682752115
 30
0.0
 40
2.75
  0
LINE
  5
1AA
  8
_0-0_
  6
CONTINUOUS
 62
     7
 10
251.3509925454165
 20
75.31345482752164
 30
0.0
 11
251.3509925454165
 21
51.31345482752158
 31
0.0
  0
LINE
  5
1AB
  8
_0-0_
  6
CONTINUOUS
 62
     7
 10
253.3509925454165
 20
49.31345482752158
 30
0.0
 11
299.3509925454165
 21
49.31345482752158
 31
0.0
  0
LINE
  5
1AC
  8
_0-0_
  6
CONTINUOUS
 62
     7
 10
301.3509925454165
 20
51.31345482752158
 30
0.0
 11
301.3509925454165
 21
75.31345482752164
 31
0.0
  0
LINE
  5
1AD
  8
_0-0_
  6
CONTINUOUS
 62
     7
 10
299.3509925454165
 20
77.31345482752158
 30
0.0
 11
253.3509925454165
 21
77.31345482752158
 31
0.0
  0
LINE
  5
1AE
  8
_0-0_
  6
CONTINUOUS
 62
     7
 10
266.3509925625102
 20
77.31345482752158
 30
0.0
 11
266.3509925625102
 21
90.3134548275213
 31
0.0
  0
LINE
  5
1AF
  8
_0-0_
  6
CENTER1
 62
   152
 10
265.8509925625102
 20
89.3134548275213
 30
0.0
 11
284.8509925625102
 21
89.3134548275213
 31
0.0
  0
LINE
  5
1B0
  8
_0-0_
  6
CONTINUOUS
 62
     7
 10
282.7434925454165
 20
87.70345482754283
 30
0.0
 11
282.7434925454165
 21
82.31345482754284
 31
0.0
  0
LINE
  5
1B1
  8
_0-0_
  6
CONTINUOUS
 62
     7
 10
282.3509925454165
 20
79.81345482752164
 30
0.0
 11
282.3509925454165
 21
77.31345482752158
 31
0.0
  0
LINE
  5
1B2
  8
_0-0_
  6
CONTINUOUS
 62
     7
 10
288.2126968133492
 20
77.31345482752158
 30
0.0
 11
288.2126968133492
 21
80.95956444997216
 31
0.0
  0
LINE
  5
1B3
  8
_0-0_
  6
CONTINUOUS
 62
     7
 10
288.2126968133492
 20
80.95956444997216
 30
0.0
 11
288.8521416074313
 21
81.41811513371573
 31
0.0
  0
LINE
  5
1B4
  8
_0-0_
  6
CONTINUOUS
 62
     7
 10
288.8521416074313
 20
81.41811513371573
 30
0.0
 11
289.3880679079611
 21
81.77661906633887
 31
0.0
  0
LINE
  5
1B5
  8
_0-0_
  6
CONTINUOUS
 62
     7
 10
289.3880679079611
 20
81.77661906633887
 30
0.0
 11
289.8900863381651
 21
82.09236929339886
 31
0.0
  0
LINE
  5
1B6
  8
_0-0_
  6
CONTINUOUS
 62
     7
 10
289.8900863381651
 20
82.09236929339886
 30
0.0
 11
290.3447591851516
 21
82.36241350885336
 31
0.0
  0
LINE
  5
1B7
  8
_0-0_
  6
CONTINUOUS
 62
     7
 10
290.3447591851516
 20
82.36241350885336
 30
0.0
 11
290.7545706773019
 21
82.59338852114831
 31
0.0
  0
LINE
  5
1B8
  8
_0-0_
  6
CONTINUOUS
 62
     7
 10
290.754570677301
 20
85.40340374621832
 30
0.0
 11
290.3665429592136
 21
85.21304082617917
 31
0.0
  0
LINE
  5
1B9
  8
_0-0_
  6
CONTINUOUS
 62
     7
 10
290.3665429592136
 20
85.21304082617917
 30
0.0
 11
289.9423454569815
 21
84.9950777193041
 31
0.0
  0
LINE
  5
1BA
  8
_0-0_
  6
CONTINUOUS
 62
     7
 10
289.9423454569815
 20
84.9950777193041
 30
0.0
 11
289.313965812146
 21
84.6525633786706
 31
0.0
  0
LINE
  5
1BB
  8
_0-0_
  6
CONTINUOUS
 62
     7
 10
289.313965812146
 20
84.6525633786706
 30
0.0
 11
288.6357799863187
 21
84.25559820259713
 31
0.0
  0
LINE
  5
1BC
  8
_0-0_
  6
CONTINUOUS
 62
     7
 10
288.6357799863187
 20
84.25559820259713
 30
0.0
 11
287.9489473491382
 21
83.82276947431916
 31
0.0
  0
LINE
  5
1BD
  8
_0-0_
  6
CONTINUOUS
 62
     7
 10
287.9489473491382
 20
83.82276947431916
 30
0.0
 11
287.239390741559
 21
83.34125286042786
 31
0.0
  0
LINE
  5
1BE
  8
_0-0_
  6
CONTINUOUS
 62
     7
 10
287.239390741559
 20
83.34125286042786
 30
0.0
 11
286.5602901937499
 21
82.84509898357544
 31
0.0
  0
LINE
  5
1BF
  8
_0-0_
  6
CONTINUOUS
 62
     7
 10
286.5602901937499
 20
82.84509898357544
 30
0.0
 11
285.8832842642534
 21
82.31345482752147
 31
0.0
  0
LINE
  5
1C0
  8
_0-0_
  6
CONTINUOUS
 62
     7
 10
285.8832842642534
 20
82.31345482752147
 30
0.0
 11
266.3509925609422
 21
82.31345482752147
 31
0.0
  0
LINE
  5
1C1
  8
_0-0_
  6
CONTINUOUS
 62
     7
 10
266.3509925609422
 20
79.81345482752141
 30
0.0
 11
288.2126968133492
 21
79.81345482752141
 31
0.0
  0
LINE
  5
1C2
  8
_0-0_
  6
CONTINUOUS
 62
     7
 10
282.7434925454166
 20
87.13249975667082
 30
0.0
 11
282.0060019315022
 21
87.3558202323461
 31
0.0
  0
LINE
  5
1C3
  8
_0-0_
  6
CONTINUOUS
 62
     7
 10
282.0060019315022
 20
87.3558202323461
 30
0.0
 11
281.2613323030722
 21
87.53059606047367
 31
0.0
  0
LINE
  5
1C4
  8
_0-0_
  6
CONTINUOUS
 62
     7
 10
281.2613323030722
 20
87.53059606047367
 30
0.0
 11
280.5185590175343
 21
87.64707879120346
 31
0.0
  0
LINE
  5
1C5
  8
_0-0_
  6
CONTINUOUS
 62
     7
 10
280.5185590175343
 20
87.64707879120346
 30
0.0
 11
279.7744893905176
 21
87.7003467612468
 31
0.0
  0
LINE
  5
1C6
  8
_0-0_
  6
CONTINUOUS
 62
     7
 10
279.7744893905176
 20
87.7003467612468
 30
0.0
 11
279.5472425454165
 21
87.70345482754283
 31
0.0
  0
LINE
  5
1C7
  8
_0-0_
  6
CONTINUOUS
 62
     7
 10
279.5472425454165
 20
87.70345482754283
 30
0.0
 11
278.726711524277
 21
87.6631365777705
 31
0.0
  0
LINE
  5
1C8
  8
_0-0_
  6
CONTINUOUS
 62
     7
 10
278.726711524277
 20
87.6631365777705
 30
0.0
 11
277.9169257473858
 21
87.54674448422958
 31
0.0
  0
LINE
  5
1C9
  8
_0-0_
  6
CONTINUOUS
 62
     7
 10
277.9169257473858
 20
87.54674448422958
 30
0.0
 11
277.127300941374
 21
87.36625494055886
 31
0.0
  0
LINE
  5
1CA
  8
_0-0_
  6
CONTINUOUS
 62
     7
 10
277.127300941374
 20
87.36625494055886
 30
0.0
 11
276.3509925454166
 21
87.13249975667082
 31
0.0
  0
LINE
  5
1CB
  8
_0-0_
  6
CONTINUOUS
 62
     7
 10
276.3509925454166
 20
87.13249975667082
 30
0.0
 11
276.3509925454165
 21
82.31345482754284
 31
0.0
  0
LINE
  5
1CC
  8
_0-0_
  6
CENTER1
 62
   152
 10
276.3509925454165
 20
84.81345482752164
 30
0.0
 11
276.3509925454165
 21
30.31345482754284
 31
0.0
  0
LINE
  5
1CD
  8
_0-0_
  6
CENTER1
 62
   152
 10
275.3509925625102
 20
27.81345482752101
 30
0.0
 11
275.3509925625102
 21
46.81345482752101
 31
0.0
  0
LINE
  5
1CE
  8
_0-0_
  6
CONTINUOUS
 62
     7
 10
275.6088874533891
 20
43.96364490036933
 30
0.0
 11
274.8595584287155
 21
44.13951432790259
 31
0.0
  0
LINE
  5
1CF
  8
_0-0_
  6
CONTINUOUS
 62
     7
 10
274.8595584287155
 20
44.13951432790259
 30
0.0
 11
274.1121376053212
 21
44.25672594261022
 31
0.0
  0
LINE
  5
1D0
  8
_0-0_
  6
CONTINUOUS
 62
     7
 10
274.1121376053212
 20
44.25672594261022
 30
0.0
 11
273.3634123241918
 21
44.31032728637354
 31
0.0
  0
LINE
  5
1D1
  8
_0-0_
  6
CONTINUOUS
 62
     7
 10
273.3634123241918
 20
44.31032728637354
 30
0.0
 11
273.1347425454166
 21
44.3134548275213
 31
0.0
  0
LINE
  5
1D2
  8
_0-0_
  6
CONTINUOUS
 62
     7
 10
273.1347425454166
 20
44.3134548275213
 30
0.0
 11
272.3090771885953
 21
44.27288429304161
 31
0.0
  0
LINE
  5
1D3
  8
_0-0_
  6
CONTINUOUS
 62
     7
 10
272.3090771885953
 20
44.27288429304161
 30
0.0
 11
271.4942243125918
 21
44.15576389543475
 31
0.0
  0
LINE
  5
1D4
  8
_0-0_
  6
CONTINUOUS
 62
     7
 10
271.4942243125918
 20
44.15576389543475
 30
0.0
 11
270.6996585613722
 21
43.97414496862024
 31
0.0
  0
LINE
  5
1D5
  8
_0-0_
  6
CONTINUOUS
 62
     7
 10
270.6996585613722
 20
43.97414496862024
 30
0.0
 11
269.9184925454165
 21
43.73892710075023
 31
0.0
  0
LINE
  5
1D6
  8
_0-0_
  6
CONTINUOUS
 62
     7
 10
269.9184925454167
 20
44.3134548275213
 30
0.0
 11
269.9184925454167
 21
37.69345482752124
 31
0.0
  0
LINE
  5
1D7
  8
_0-0_
  6
CONTINUOUS
 62
     7
 10
269.9184925454167
 20
37.69345482752124
 30
0.0
 11
282.7834925454164
 21
37.69345482752124
 31
0.0
  0
LINE
  5
1D8
  8
_0-0_
  6
CONTINUOUS
 62
     7
 10
282.7834925454164
 20
37.69345482752124
 30
0.0
 11
282.7834925454164
 21
44.3134548275213
 31
0.0
  0
LINE
  5
1D9
  8
_0-0_
  6
CONTINUOUS
 62
     7
 10
282.7834925454165
 20
43.73892710075023
 30
0.0
 11
282.0413874533891
 21
43.96364490036933
 31
0.0
  0
LINE
  5
1DA
  8
_0-0_
  6
CONTINUOUS
 62
     7
 10
282.0413874533891
 20
43.96364490036933
 30
0.0
 11
281.2920584287155
 21
44.13951432790259
 31
0.0
  0
LINE
  5
1DB
  8
_0-0_
  6
CONTINUOUS
 62
     7
 10
281.2920584287155
 20
44.13951432790259
 30
0.0
 11
280.5446376053212
 21
44.25672594261022
 31
0.0
  0
LINE
  5
1DC
  8
_0-0_
  6
CONTINUOUS
 62
     7
 10
280.5446376053212
 20
44.25672594261022
 30
0.0
 11
279.7959123241918
 21
44.31032728637354
 31
0.0
  0
LINE
  5
1DD
  8
_0-0_
  6
CONTINUOUS
 62
     7
 10
279.7959123241918
 20
44.31032728637354
 30
0.0
 11
279.5672425454164
 21
44.3134548275213
 31
0.0
  0
LINE
  5
1DE
  8
_0-0_
  6
CONTINUOUS
 62
     7
 10
279.5672425454164
 20
44.3134548275213
 30
0.0
 11
278.7415771885953
 21
44.27288429304161
 31
0.0
  0
LINE
  5
1DF
  8
_0-0_
  6
CONTINUOUS
 62
     7
 10
278.7415771885953
 20
44.27288429304161
 30
0.0
 11
278.6468950676157
 21
44.26311191490976
 31
0.0
  0
LINE
  5
1E0
  8
_0-0_
  6
CONTINUOUS
 62
     7
 10
278.6468950676157
 20
44.26311191490976
 30
0.0
 11
277.9267243125919
 21
44.15576389543475
 31
0.0
  0
LINE
  5
1E1
  8
_0-0_
  6
CONTINUOUS
 62
     7
 10
277.9267243125919
 20
44.15576389543475
 30
0.0
 11
277.1321585613724
 21
43.97414496862029
 31
0.0
  0
LINE
  5
1E2
  8
_0-0_
  6
CONTINUOUS
 62
     7
 10
277.1321585613724
 20
43.97414496862029
 30
0.0
 11
276.3509925454168
 21
43.73892710075023
 31
0.0
  0
LINE
  5
1E3
  8
_0-0_
  6
CONTINUOUS
 62
     7
 10
276.3509925454168
 20
43.73892710075023
 30
0.0
 11
276.3509925454168
 21
38.2679825542923
 31
0.0
  0
LINE
  5
1E4
  8
_0-0_
  6
CONTINUOUS
 62
     7
 10
276.3509925454168
 20
38.2679825542923
 30
0.0
 11
275.5698265294609
 21
38.0327646864223
 31
0.0
  0
LINE
  5
1E5
  8
_0-0_
  6
CONTINUOUS
 62
     7
 10
275.5698265294609
 20
38.0327646864223
 30
0.0
 11
274.7752607782413
 21
37.85114575960779
 31
0.0
  0
LINE
  5
1E6
  8
_0-0_
  6
CONTINUOUS
 62
     7
 10
274.7752607782413
 20
37.85114575960779
 30
0.0
 11
273.9604079022378
 21
37.73402536200092
 31
0.0
  0
LINE
  5
1E7
  8
_0-0_
  6
CONTINUOUS
 62
     7
 10
273.9604079022378
 20
37.73402536200092
 30
0.0
 11
273.1347425454166
 21
37.69345482752124
 31
0.0
  0
LINE
  5
1E8
  8
_0-0_
  6
CONTINUOUS
 62
     7
 10
273.1347425454166
 20
37.69345482752124
 30
0.0
 11
272.9060727666412
 21
37.69658236866894
 31
0.0
  0
LINE
  5
1E9
  8
_0-0_
  6
CONTINUOUS
 62
     7
 10
272.9060727666412
 20
37.69658236866894
 30
0.0
 11
272.1573474855119
 21
37.75018371243232
 31
0.0
  0
LINE
  5
1EA
  8
_0-0_
  6
CONTINUOUS
 62
     7
 10
272.1573474855119
 20
37.75018371243232
 30
0.0
 11
271.4099266621175
 21
37.86739532713995
 31
0.0
  0
LINE
  5
1EB
  8
_0-0_
  6
CONTINUOUS
 62
     7
 10
271.4099266621175
 20
37.86739532713995
 30
0.0
 11
270.660597637444
 21
38.0432647546732
 31
0.0
  0
LINE
  5
1EC
  8
_0-0_
  6
CONTINUOUS
 62
     7
 10
270.660597637444
 20
38.0432647546732
 30
0.0
 11
269.9184925454165
 21
38.2679825542923
 31
0.0
  0
LINE
  5
1ED
  8
_0-0_
  6
CONTINUOUS
 62
     7
 10
270.3509925454165
 20
37.69345482752124
 30
0.0
 11
270.3509925454165
 21
37.19345482752135
 31
0.0
  0
LINE
  5
1EE
  8
_0-0_
  6
CONTINUOUS
 62
     7
 10
271.8509925454165
 20
35.69345482752135
 30
0.0
 11
280.8509925388611
 21
35.69345482752135
 31
0.0
  0
LINE
  5
1EF
  8
_0-0_
  6
CONTINUOUS
 62
     7
 10
280.3490270908712
 20
35.69345482752135
 30
0.0
 11
280.3489925454167
 21
35.31345482754284
 31
0.0
  0
LINE
  5
1F0
  8
_0-0_
  6
CONTINUOUS
 62
     7
 10
280.3489925454167
 20
35.31345482754284
 30
0.0
 11
272.3529925454163
 21
35.31345482754284
 31
0.0
  0
LINE
  5
1F1
  8
_0-0_
  6
CONTINUOUS
 62
     7
 10
272.3529925454163
 20
35.31345482754284
 30
0.0
 11
272.3529579999618
 21
35.69345482752135
 31
0.0
  0
LINE
  5
1F2
  8
_0-0_
  6
CONTINUOUS
 62
     7
 10
276.3509925454168
 20
38.2679825542923
 30
0.0
 11
277.0930976374442
 21
38.04326475467315
 31
0.0
  0
LINE
  5
1F3
  8
_0-0_
  6
CONTINUOUS
 62
     7
 10
277.0930976374442
 20
38.04326475467315
 30
0.0
 11
277.8424266621177
 21
37.86739532713989
 31
0.0
  0
LINE
  5
1F4
  8
_0-0_
  6
CONTINUOUS
 62
     7
 10
277.8424266621177
 20
37.86739532713989
 30
0.0
 11
278.589847485512
 21
37.75018371243232
 31
0.0
  0
LINE
  5
1F5
  8
_0-0_
  6
CONTINUOUS
 62
     7
 10
278.589847485512
 20
37.75018371243232
 30
0.0
 11
279.3385727666412
 21
37.69658236866894
 31
0.0
  0
LINE
  5
1F6
  8
_0-0_
  6
CONTINUOUS
 62
     7
 10
279.3385727666412
 20
37.69658236866894
 30
0.0
 11
279.5672425454164
 21
37.69345482752124
 31
0.0
  0
LINE
  5
1F7
  8
_0-0_
  6
CONTINUOUS
 62
     7
 10
279.5672425454164
 20
37.69345482752124
 30
0.0
 11
280.3929079022378
 21
37.73402536200092
 31
0.0
  0
LINE
  5
1F8
  8
_0-0_
  6
CONTINUOUS
 62
     7
 10
280.3929079022378
 20
37.73402536200092
 30
0.0
 11
281.2077607782413
 21
37.85114575960779
 31
0.0
  0
LINE
  5
1F9
  8
_0-0_
  6
CONTINUOUS
 62
     7
 10
281.2077607782413
 20
37.85114575960779
 30
0.0
 11
282.0023265294609
 21
38.0327646864223
 31
0.0
  0
LINE
  5
1FA
  8
_0-0_
  6
CONTINUOUS
 62
     7
 10
282.0023265294609
 20
38.0327646864223
 30
0.0
 11
282.7834925454165
 21
38.2679825542923
 31
0.0
  0
LINE
  5
1FB
  8
_0-0_
  6
CONTINUOUS
 62
     7
 10
282.3509925454165
 20
37.69345482752124
 30
0.0
 11
282.3509925454165
 21
37.19345482752135
 31
0.0
  0
LINE
  5
1FC
  8
_0-0_
  6
CENTER1
 62
   152
 10
284.8509925625102
 20
37.31345482752101
 30
0.0
 11
265.8509925625102
 21
37.31345482752101
 31
0.0
  0
LINE
  5
1FD
  8
_0-0_
  6
CONTINUOUS
 62
     7
 10
266.3509925625102
 20
36.31345482752101
 30
0.0
 11
266.3509925625102
 21
49.31345482752158
 31
0.0
  0
LINE
  5
1FE
  8
_0-0_
  6
CONTINUOUS
 62
     7
 10
268.6544148016339
 20
49.31345482752158
 30
0.0
 11
268.6544148016339
 21
46.81345482752135
 31
0.0
  0
LINE
  5
1FF
  8
_0-0_
  6
CONTINUOUS
 62
     7
 10
270.3509925454165
 20
46.81345482752158
 30
0.0
 11
270.3509925454165
 21
49.31345482752158
 31
0.0
  0
LINE
  5
200
  8
_0-0_
  6
CONTINUOUS
 62
     7
 10
266.3509925609422
 20
46.81345482752135
 30
0.0
 11
288.2126968133492
 21
46.81345482752135
 31
0.0
  0
LINE
  5
201
  8
_0-0_
  6
CONTINUOUS
 62
     7
 10
288.2126968133492
 20
45.66734520507003
 30
0.0
 11
288.8290141517376
 21
45.2247827734393
 31
0.0
  0
LINE
  5
202
  8
_0-0_
  6
CONTINUOUS
 62
     7
 10
288.8290141517376
 20
45.2247827734393
 30
0.0
 11
289.4236318673172
 21
44.82729603650262
 31
0.0
  0
LINE
  5
203
  8
_0-0_
  6
CONTINUOUS
 62
     7
 10
289.4236318673172
 20
44.82729603650262
 30
0.0
 11
290.1256599113469
 21
44.39278076789219
 31
0.0
  0
LINE
  5
204
  8
_0-0_
  6
CONTINUOUS
 62
     7
 10
290.1256599113469
 20
44.39278076789219
 30
0.0
 11
290.7545706773019
 21
44.03352113389394
 31
0.0
  0
LINE
  5
205
  8
_0-0_
  6
CONTINUOUS
 62
     7
 10
290.7545706773019
 20
41.22350590882354
 30
0.0
 11
290.3353070246191
 21
41.42957046404558
 31
0.0
  0
LINE
  5
206
  8
_0-0_
  6
CONTINUOUS
 62
     7
 10
290.3353070246191
 20
41.42957046404558
 30
0.0
 11
289.871357590646
 21
41.66933366465713
 31
0.0
  0
LINE
  5
207
  8
_0-0_
  6
CONTINUOUS
 62
     7
 10
289.871357590646
 20
41.66933366465713
 30
0.0
 11
289.3522611986666
 21
41.9527585054708
 31
0.0
  0
LINE
  5
208
  8
_0-0_
  6
CONTINUOUS
 62
     7
 10
289.3522611986666
 20
41.9527585054708
 30
0.0
 11
288.79882299069
 21
42.27318298896705
 31
0.0
  0
LINE
  5
209
  8
_0-0_
  6
CONTINUOUS
 62
     7
 10
288.79882299069
 20
42.27318298896705
 30
0.0
 11
288.2363550254799
 21
42.6191361660351
 31
0.0
  0
LINE
  5
20A
  8
_0-0_
  6
CONTINUOUS
 62
     7
 10
288.2363550254799
 20
42.6191361660351
 30
0.0
 11
287.6549910113114
 21
42.9991854212754
 31
0.0
  0
LINE
  5
20B
  8
_0-0_
  6
CONTINUOUS
 62
     7
 10
287.6549910113114
 20
42.9991854212754
 30
0.0
 11
287.0460047343671
 21
43.4233682169239
 31
0.0
  0
LINE
  5
20C
  8
_0-0_
  6
CONTINUOUS
 62
     7
 10
287.0460047343671
 20
43.4233682169239
 30
0.0
 11
286.4303792671062
 21
43.88087139430235
 31
0.0
  0
LINE
  5
20D
  8
_0-0_
  6
CONTINUOUS
 62
     7
 10
286.4303792671062
 20
43.88087139430235
 30
0.0
 11
285.8832842642526
 21
44.31345482752141
 31
0.0
  0
LINE
  5
20E
  8
_0-0_
  6
CONTINUOUS
 62
     7
 10
285.8832842642526
 20
44.31345482752141
 30
0.0
 11
266.3509925609422
 21
44.31345482752141
 31
0.0
  0
LINE
  5
20F
  8
_0-0_
  6
CONTINUOUS
 62
     7
 10
275.6088874533891
 20
43.96364490036933
 30
0.0
 11
276.3509925454168
 21
43.73892710075023
 31
0.0
  0
LINE
  5
210
  8
_0-0_
  6
CONTINUOUS
 62
     7
 10
282.3509925454165
 20
46.81345482752158
 30
0.0
 11
282.3509925454165
 21
49.31345482752158
 31
0.0
  0
LINE
  5
211
  8
_0-0_
  6
CONTINUOUS
 62
     7
 10
288.2126968133492
 20
49.31345482752164
 30
0.0
 11
288.2126968133492
 21
45.66734520507003
 31
0.0
  0
LINE
  5
212
  8
_0-0_
  6
CONTINUOUS
 62
     7
 10
308.4642412165624
 20
42.49515293746202
 30
0.0
 11
309.0412470528493
 21
42.70144758050583
 31
0.0
  0
LINE
  5
213
  8
_0-0_
  6
CONTINUOUS
 62
     7
 10
309.0412470528493
 20
42.70144758050583
 30
0.0
 11
309.7024534770061
 21
42.96039164308678
 31
0.0
  0
LINE
  5
214
  8
_0-0_
  6
CONTINUOUS
 62
     7
 10
309.7024534770061
 20
42.96039164308678
 30
0.0
 11
310.4306597147118
 21
43.27450165113862
 31
0.0
  0
LINE
  5
215
  8
_0-0_
  6
CONTINUOUS
 62
     7
 10
310.4306597147118
 20
43.27450165113862
 30
0.0
 11
311.2134684011808
 21
43.64845219849553
 31
0.0
  0
LINE
  5
216
  8
_0-0_
  6
CONTINUOUS
 62
     7
 10
311.2134684011808
 20
43.64845219849553
 30
0.0
 11
312.0376212772043
 21
44.08388954015982
 31
0.0
  0
LINE
  5
217
  8
_0-0_
  6
CONTINUOUS
 62
     7
 10
312.0376212772043
 20
44.08388954015982
 30
0.0
 11
312.8825796901425
 21
44.57786040626405
 31
0.0
  0
LINE
  5
218
  8
_0-0_
  6
CONTINUOUS
 62
     7
 10
312.8825796901425
 20
44.57786040626405
 30
0.0
 11
313.76044827461
 21
45.14799954731092
 31
0.0
  0
LINE
  5
219
  8
_0-0_
  6
CONTINUOUS
 62
     7
 10
313.76044827461
 20
45.14799954731092
 30
0.0
 11
314.6349827480262
 21
45.77738319257332
 31
0.0
  0
LINE
  5
21A
  8
_0-0_
  6
CONTINUOUS
 62
     7
 10
314.6349827480262
 20
45.77738319257332
 30
0.0
 11
315.4900353727935
 21
46.45856033336884
 31
0.0
  0
LINE
  5
21B
  8
_0-0_
  6
CONTINUOUS
 62
     7
 10
315.4900353727935
 20
46.45856033336884
 30
0.0
 11
316.3248501558507
 21
47.19575991442298
 31
0.0
  0
LINE
  5
21C
  8
_0-0_
  6
CONTINUOUS
 62
     7
 10
316.3248501558507
 20
47.19575991442298
 30
0.0
 11
317.1244952544073
 21
47.97733364813746
 31
0.0
  0
LINE
  5
21D
  8
_0-0_
  6
CONTINUOUS
 62
     7
 10
317.1244952544073
 20
44.56654540679943
 30
0.0
 11
316.3539319041793
 21
43.94442566728191
 31
0.0
  0
LINE
  5
21E
  8
_0-0_
  6
CONTINUOUS
 62
     7
 10
316.3539319041793
 20
43.94442566728191
 30
0.0
 11
315.5622201145792
 21
43.35622527371447
 31
0.0
  0
LINE
  5
21F
  8
_0-0_
  6
CONTINUOUS
 62
     7
 10
315.5622201145792
 20
43.35622527371447
 30
0.0
 11
314.733424760702
 21
42.79135200101996
 31
0.0
  0
LINE
  5
220
  8
_0-0_
  6
CONTINUOUS
 62
     7
 10
314.733424760702
 20
42.79135200101996
 30
0.0
 11
313.8962984054746
 21
42.26908975497707
 31
0.0
  0
LINE
  5
221
  8
_0-0_
  6
CONTINUOUS
 62
     7
 10
313.8962984054746
 20
42.26908975497707
 30
0.0
 11
313.0796894672899
 21
41.80336911143064
 31
0.0
  0
LINE
  5
222
  8
_0-0_
  6
CONTINUOUS
 62
     7
 10
313.0796894672899
 20
41.80336911143064
 30
0.0
 11
312.2742669771335
 21
41.38329121520752
 31
0.0
  0
LINE
  5
223
  8
_0-0_
  6
CONTINUOUS
 62
     7
 10
312.2742669771335
 20
41.38329121520752
 30
0.0
 11
311.4602030166743
 21
40.99642072620895
 31
0.0
  0
LINE
  5
224
  8
_0-0_
  6
CONTINUOUS
 62
     7
 10
311.4602030166743
 20
40.99642072620895
 30
0.0
 11
310.6833584921376
 21
40.66048711563957
 31
0.0
  0
LINE
  5
225
  8
_0-0_
  6
CONTINUOUS
 62
     7
 10
310.6833584921376
 20
40.66048711563957
 30
0.0
 11
310.0637748124407
 21
40.41506404999302
 31
0.0
  0
LINE
  5
226
  8
_0-0_
  6
CONTINUOUS
 62
     7
 10
310.0637748124407
 20
40.41506404999302
 30
0.0
 11
309.4879291619404
 21
40.2041436569807
 31
0.0
  0
LINE
  5
227
  8
_0-0_
  6
CONTINUOUS
 62
     7
 10
309.4879291619404
 20
40.2041436569807
 30
0.0
 11
308.9454696884391
 21
40.02024250554041
 31
0.0
  0
LINE
  5
228
  8
_0-0_
  6
CONTINUOUS
 62
     7
 10
308.9454696884391
 20
40.02024250554041
 30
0.0
 11
308.4642412165624
 21
39.86880312216118
 31
0.0
  0
LINE
  5
229
  8
_0-0_
  6
CENTER1
 62
   152
 10
317.8509925625097
 20
37.31345482752101
 30
0.0
 11
336.8509925625097
 21
37.31345482752101
 31
0.0
  0
LINE
  5
22A
  8
_0-0_
  6
CONTINUOUS
 62
     7
 10
336.3509925625098
 20
36.31345482752101
 30
0.0
 11
336.3509925625098
 21
90.3134548275213
 31
0.0
  0
LINE
  5
22B
  8
_0-0_
  6
CENTER1
 62
   152
 10
336.8509925625097
 20
89.3134548275213
 30
0.0
 11
317.8509925625097
 21
89.3134548275213
 31
0.0
  0
LINE
  5
22C
  8
_0-0_
  6
CONTINUOUS
 62
     7
 10
317.1244952544073
 20
82.06036424824276
 30
0.0
 11
316.4397432855453
 21
82.61573582806466
 31
0.0
  0
LINE
  5
22D
  8
_0-0_
  6
CONTINUOUS
 62
     7
 10
316.4397432855453
 20
82.61573582806466
 30
0.0
 11
315.7377584685908
 21
83.14451548406873
 31
0.0
  0
LINE
  5
22E
  8
_0-0_
  6
CONTINUOUS
 62
     7
 10
315.7377584685908
 20
83.14451548406873
 30
0.0
 11
314.8322977853318
 21
83.77027757062757
 31
0.0
  0
LINE
  5
22F
  8
_0-0_
  6
CONTINUOUS
 62
     7
 10
314.8322977853318
 20
83.77027757062757
 30
0.0
 11
313.9136803419167
 21
84.34691023593962
 31
0.0
  0
LINE
  5
230
  8
_0-0_
  6
CONTINUOUS
 62
     7
 10
313.9136803419167
 20
84.34691023593962
 30
0.0
 11
312.998603915989
 21
84.86764582969835
 31
0.0
  0
LINE
  5
231
  8
_0-0_
  6
CONTINUOUS
 62
     7
 10
312.998603915989
 20
84.86764582969835
 30
0.0
 11
312.120799458991
 21
85.31894187993413
 31
0.0
  0
LINE
  5
232
  8
_0-0_
  6
CONTINUOUS
 62
     7
 10
312.120799458991
 20
85.31894187993413
 30
0.0
 11
311.2698221786644
 21
85.7154101975027
 31
0.0
  0
LINE
  5
233
  8
_0-0_
  6
CONTINUOUS
 62
     7
 10
311.2698221786644
 20
85.7154101975027
 30
0.0
 11
310.4659421317922
 21
86.05477612487437
 31
0.0
  0
LINE
  5
234
  8
_0-0_
  6
CONTINUOUS
 62
     7
 10
310.4659421317922
 20
86.05477612487437
 30
0.0
 11
309.7218839196352
 21
86.33893180926492
 31
0.0
  0
LINE
  5
235
  8
_0-0_
  6
CONTINUOUS
 62
     7
 10
309.7218839196352
 20
86.33893180926492
 30
0.0
 11
309.0491184945797
 21
86.5725189883085
 31
0.0
  0
LINE
  5
236
  8
_0-0_
  6
CONTINUOUS
 62
     7
 10
309.0491184945797
 20
86.5725189883085
 30
0.0
 11
308.4642412165624
 21
86.75810653288102
 31
0.0
  0
LINE
  5
237
  8
_0-0_
  6
CONTINUOUS
 62
     7
 10
308.4642412165633
 20
84.13175671757995
 30
0.0
 11
308.9429681329723
 21
83.96198763102842
 31
0.0
  0
LINE
  5
238
  8
_0-0_
  6
CONTINUOUS
 62
     7
 10
308.9429681329723
 20
83.96198763102842
 30
0.0
 11
309.6377624740943
 21
83.69275544647178
 31
0.0
  0
LINE
  5
239
  8
_0-0_
  6
CONTINUOUS
 62
     7
 10
309.6377624740943
 20
83.69275544647178
 30
0.0
 11
310.4157606185754
 21
83.35878767477618
 31
0.0
  0
LINE
  5
23A
  8
_0-0_
  6
CONTINUOUS
 62
     7
 10
310.4157606185754
 20
83.35878767477618
 30
0.0
 11
311.253538832393
 21
82.9587997563545
 31
0.0
  0
LINE
  5
23B
  8
_0-0_
  6
CONTINUOUS
 62
     7
 10
311.253538832393
 20
82.9587997563545
 30
0.0
 11
312.1321202150978
 21
82.49000400519532
 31
0.0
  0
LINE
  5
23C
  8
_0-0_
  6
CONTINUOUS
 62
     7
 10
312.1321202150978
 20
82.49000400519532
 30
0.0
 11
313.0379959351271
 21
81.9517539818197
 31
0.0
  0
LINE
  5
23D
  8
_0-0_
  6
CONTINUOUS
 62
     7
 10
313.0379959351271
 20
81.9517539818197
 30
0.0
 11
313.9478730544564
 21
81.35004546632115
 31
0.0
  0
LINE
  5
23E
  8
_0-0_
  6
CONTINUOUS
 62
     7
 10
313.9478730544564
 20
81.35004546632115
 30
0.0
 11
315.0465676597699
 21
80.52939076807581
 31
0.0
  0
LINE
  5
23F
  8
_0-0_
  6
CONTINUOUS
 62
     7
 10
315.0465676597699
 20
80.52939076807581
 30
0.0
 11
316.1130695179211
 21
79.62413206505943
 31
0.0
  0
LINE
  5
240
  8
_0-0_
  6
CONTINUOUS
 62
     7
 10
316.1130695179211
 20
79.62413206505943
 30
0.0
 11
317.1244952544073
 21
78.64957600690474
 31
0.0
  0
LINE
  5
241
  8
_0-0_
  6
CENTER1
 62
   152
 10
327.3509925625097
 20
79.8134548275213
 30
0.0
 11
327.3509925625097
 21
98.8134548275213
 31
0.0
  0
LINE
  5
242
  8
_0-0_
  6
CONTINUOUS
 62
     7
 10
328.3509925625097
 20
98.3134548275213
 30
0.0
 11
274.3509925625102
 21
98.3134548275213
 31
0.0
  0
LINE
  5
243
  8
_0-0_
  6
CENTER1
 62
   152
 10
275.3509925625102
 20
98.8134548275213
 30
0.0
 11
275.3509925625102
 21
79.8134548275213
 31
0.0
  0
LINE
  5
244
  8
_0-0_
  6
CONTINUOUS
 62
     7
 10
270.3509925454165
 20
79.81345482752164
 30
0.0
 11
270.3509925454165
 21
77.31345482752158
 31
0.0
  0
LINE
  5
245
  8
_0-0_
  6
CONTINUOUS
 62
     7
 10
268.6544148016339
 20
77.31345482752158
 30
0.0
 11
268.6544148016339
 21
79.81345482752141
 31
0.0
  0
LINE
  5
246
  8
_0-0_
  6
CONTINUOUS
 62
     7
 10
269.9584925454165
 20
82.31345482754284
 30
0.0
 11
269.9584925454165
 21
87.70345482754283
 31
0.0
  0
LINE
  5
247
  8
_0-0_
  6
CONTINUOUS
 62
     7
 10
269.9584925454165
 20
87.70345482754283
 30
0.0
 11
282.7434925454165
 21
87.70345482754283
 31
0.0
  0
LINE
  5
248
  8
_0-0_
  6
CONTINUOUS
 62
     7
 10
276.3509925454166
 20
87.13249975667082
 30
0.0
 11
275.6135019315022
 21
87.3558202323461
 31
0.0
  0
LINE
  5
249
  8
_0-0_
  6
CONTINUOUS
 62
     7
 10
275.6135019315022
 20
87.3558202323461
 30
0.0
 11
274.8688323030722
 21
87.53059606047367
 31
0.0
  0
LINE
  5
24A
  8
_0-0_
  6
CONTINUOUS
 62
     7
 10
274.8688323030722
 20
87.53059606047367
 30
0.0
 11
274.1260590175343
 21
87.64707879120346
 31
0.0
  0
LINE
  5
24B
  8
_0-0_
  6
CONTINUOUS
 62
     7
 10
274.1260590175343
 20
87.64707879120346
 30
0.0
 11
273.3819893905176
 21
87.7003467612468
 31
0.0
  0
LINE
  5
24C
  8
_0-0_
  6
CONTINUOUS
 62
     7
 10
273.3819893905176
 20
87.7003467612468
 30
0.0
 11
273.1547425454165
 21
87.70345482754283
 31
0.0
  0
LINE
  5
24D
  8
_0-0_
  6
CONTINUOUS
 62
     7
 10
273.1547425454165
 20
87.70345482754283
 30
0.0
 11
272.334211524277
 21
87.6631365777705
 31
0.0
  0
LINE
  5
24E
  8
_0-0_
  6
CONTINUOUS
 62
     7
 10
272.334211524277
 20
87.6631365777705
 30
0.0
 11
271.5244257473859
 21
87.54674448422958
 31
0.0
  0
LINE
  5
24F
  8
_0-0_
  6
CONTINUOUS
 62
     7
 10
271.5244257473859
 20
87.54674448422958
 30
0.0
 11
270.734800941374
 21
87.36625494055886
 31
0.0
  0
LINE
  5
250
  8
_0-0_
  6
CONTINUOUS
 62
     7
 10
270.734800941374
 20
87.36625494055886
 30
0.0
 11
269.9584925454165
 21
87.13249975667082
 31
0.0
  0
LINE
  5
251
  8
_0-0_
  6
CENTER1
 62
   152
 10
327.3509925625097
 20
46.81345482752101
 30
0.0
 11
327.3509925625097
 21
27.81345482752101
 31
0.0
  0
LINE
  5
252
  8
_0-0_
  6
CONTINUOUS
 62
     7
 10
328.3509925625097
 20
28.31345482752101
 30
0.0
 11
274.3509925625102
 21
28.31345482752101
 31
0.0
  0
ARC
  5
253
  8
_0-0_
  6
CONTINUOUS
 62
     7
 10
275.3509925625102
 20
89.3134548275213
 30
0.0
 40
4.499999999999994
 50
339.0362156824148
 51
200.9637843175859
  0
ARC
  5
254
  8
_0-0_
  6
CONTINUOUS
 62
     7
 10
328.3509925625097
 20
36.31345482752101
 30
0.0
 40
8.0
 50
270.0
 51
359.9999999999999
  0
CIRCLE
  5
255
  8
_0-0_
  6
CONTINUOUS
 62
     7
 10
327.3509925625097
 20
37.31345482752101
 30
0.0
 40
4.5
  0
ARC
  5
256
  8
_0-0_
  6
CONTINUOUS
 62
     7
 10
275.3509925625102
 20
37.31345482752101
 30
0.0
 40
4.500000000000027
 50
198.1807530492886
 51
333.6122000390639
  0
ARC
  5
257
  8
_0-0_
  6
CONTINUOUS
 62
     7
 10
328.3509925625097
 20
90.3134548275213
 30
0.0
 40
8.0
 50
0.0
 51
90.0
  0
CIRCLE
  5
258
  8
_0-0_
  6
CONTINUOUS
 62
     7
 10
327.3509925625097
 20
89.3134548275213
 30
0.0
 40
4.5
  0
ARC
  5
259
  8
_0-0_
  6
CONTINUOUS
 62
     7
 10
274.3509925625102
 20
90.3134548275213
 30
0.0
 40
8.0
 50
90.0
 51
179.9999999999999
  0
ARC
  5
25A
  8
_0-0_
  6
CONTINUOUS
 62
     7
 10
274.3509925625102
 20
36.31345482752101
 30
0.0
 40
8.0
 50
179.9999999999999
 51
270.0
  0
ARC
  5
25B
  8
_0-0_
  6
CONTINUOUS
 62
     7
 10
301.350992562511
 20
63.31345482752113
 30
0.0
 40
22.00000000000005
 50
71.13560202195974
 51
118.7935838863745
  0
ARC
  5
25C
  8
_0-0_
  6
CONTINUOUS
 62
     7
 10
301.350992562511
 20
63.31345482752113
 30
0.0
 40
24.50000000000006
 50
73.12188638007818
 51
115.6267671861417
  0
ARC
  5
25D
  8
_0-0_
  6
CONTINUOUS
 62
     7
 10
301.350992562511
 20
63.31345482752113
 30
0.0
 40
22.00000000000002
 50
241.2064161136257
 51
288.86439797804
  0
ARC
  5
25E
  8
_0-0_
  6
CONTINUOUS
 62
     7
 10
301.350992562511
 20
63.31345482752113
 30
0.0
 40
24.50000000000006
 50
244.3732328138581
 51
286.8781136199217
  0
ARC
  5
25F
  8
_0-0_
  6
CONTINUOUS
 62
     7
 10
301.350992562511
 20
63.31345482752113
 30
0.0
 40
22.00000000000005
 50
315.8054891254371
 51
44.19451087456275
  0
ARC
  5
260
  8
_0-0_
  6
CONTINUOUS
 62
     7
 10
301.350992562511
 20
63.31345482752113
 30
0.0
 40
24.50000000000005
 50
310.0769938346545
 51
49.92300616534489
  0
ARC
  5
261
  8
_0-0_
  6
CONTINUOUS
 62
     7
 10
301.350992562511
 20
63.31345482752113
 30
0.0
 40
19.49999999999994
 50
227.6421654680839
 51
132.3578345319163
  0
ARC
  5
262
  8
_0-0_
  6
CONTINUOUS
 62
     7
 10
280.8509925454165
 20
37.19345482752135
 30
0.0
 40
1.5
 50
270.0
 51
0.0
  0
ARC
  5
263
  8
_0-0_
  6
CONTINUOUS
 62
     7
 10
271.8509925454165
 20
37.19345482752135
 30
0.0
 40
1.5
 50
180.0
 51
270.0
  0
ARC
  5
264
  8
_0-0_
  6
CONTINUOUS
 62
     7
 10
299.3509925454165
 20
75.31345482752164
 30
0.0
 40
2.0
 50
0.0
 51
90.0
  0
ARC
  5
265
  8
_0-0_
  6
CONTINUOUS
 62
     7
 10
253.3509925454165
 20
75.31345482752164
 30
0.0
 40
1.999999999999972
 50
90.0
 51
180.0
  0
ARC
  5
266
  8
_0-0_
  6
CONTINUOUS
 62
     7
 10
299.3509925454165
 20
51.31345482752158
 30
0.0
 40
1.999999999999972
 50
270.0
 51
359.9999999999998
  0
ARC
  5
267
  8
_0-0_
  6
CONTINUOUS
 62
     7
 10
253.3509925454165
 20
51.31345482752158
 30
0.0
 40
1.999999999999972
 50
179.9999999999998
 51
270.0
  0
LINE
  5
268
  8
_0-0_
  6
CONTINUOUS
 62
     7
 10
66.61603959874105
 20
245.0475913615652
 30
0.0
 11
136.6160395987414
 21
245.0475913615652
 31
0.0
  0
LINE
  5
269
  8
_0-0_
  6
CONTINUOUS
 62
     7
 10
136.6160395987414
 20
245.0475913615652
 30
0.0
 11
136.6160395987414
 21
242.5475913615652
 31
0.0
  0
LINE
  5
26A
  8
_0-0_
  6
CONTINUOUS
 62
     7
 10
136.6160395987414
 20
242.5475913615652
 30
0.0
 11
66.61603959874105
 21
242.5475913615652
 31
0.0
  0
LINE
  5
26B
  8
_0-0_
  6
CONTINUOUS
 62
     7
 10
66.61603959874105
 20
242.5475913615652
 30
0.0
 11
66.61603959874105
 21
245.0475913615652
 31
0.0
  0
LINE
  5
26C
  8
_0-0_
  6
CONTINUOUS
 62
     7
 10
78.4160395987409
 20
241.7475913615655
 30
0.0
 11
124.8160395986831
 21
241.7475913615655
 31
0.0
  0
LINE
  5
26D
  8
_0-0_
  6
CONTINUOUS
 62
     7
 10
122.7160395987412
 20
241.7475913615655
 30
0.0
 11
125.1160395987413
 21
239.3475913615653
 31
0.0
  0
LINE
  5
26E
  8
_0-0_
  6
CONTINUOUS
 62
     7
 10
125.1160395987412
 20
239.3475913615653
 30
0.0
 11
125.1160395987412
 21
235.0475913615653
 31
0.0
  0
LINE
  5
26F
  8
_0-0_
  6
CONTINUOUS
 62
     7
 10
125.1160395987412
 20
235.0475913615653
 30
0.0
 11
78.11603959874117
 21
235.0475913615653
 31
0.0
  0
LINE
  5
270
  8
_0-0_
  6
CONTINUOUS
 62
     7
 10
78.11603959874117
 20
235.0475913615653
 30
0.0
 11
78.11603959874117
 21
239.3475913615653
 31
0.0
  0
LINE
  5
271
  8
_0-0_
  6
CONTINUOUS
 62
     7
 10
78.11603959874105
 20
239.3475913615653
 30
0.0
 11
80.51603959874114
 21
241.7475913615655
 31
0.0
  0
LINE
  5
272
  8
_0-0_
  6
CONTINUOUS
 62
     7
 10
78.11603959874117
 20
239.3475913615653
 30
0.0
 11
125.1160395987413
 21
239.3475913615653
 31
0.0
  0
LINE
  5
273
  8
_0-0_
  6
CONTINUOUS
 62
     7
 10
126.1160395987413
 20
232.0475913615654
 30
0.0
 11
126.1160395987413
 21
209.7270832858767
 31
0.0
  0
LINE
  5
274
  8
_0-0_
  6
CONTINUOUS
 62
     7
 10
126.1160395987412
 20
209.7270832858767
 30
0.0
 11
125.7027353333015
 21
201.9654297396179
 31
0.0
  0
LINE
  5
275
  8
_0-0_
  6
CONTINUOUS
 62
     7
 10
125.6688397117789
 20
201.9808126718955
 30
0.0
 11
125.4350845278909
 21
202.4290145332758
 31
0.0
  0
LINE
  5
276
  8
_0-0_
  6
CONTINUOUS
 62
     7
 10
125.4350845278909
 20
202.4290145332758
 30
0.0
 11
126.0060395987629
 21
201.4400913416864
 31
0.0
  0
LINE
  5
277
  8
_0-0_
  6
CONTINUOUS
 62
     7
 10
126.0060395987629
 20
201.4400913416864
 30
0.0
 11
126.0060395987629
 21
188.6550913416864
 31
0.0
  0
LINE
  5
278
  8
_0-0_
  6
CONTINUOUS
 62
     7
 10
126.0060395987629
 20
188.6550913416864
 30
0.0
 11
125.4350845278909
 21
187.666168150097
 31
0.0
  0
LINE
  5
279
  8
_0-0_
  6
CONTINUOUS
 62
     7
 10
125.4350845278909
 20
187.666168150097
 30
0.0
 11
120.6160395987629
 21
187.666168150097
 31
0.0
  0
LINE
  5
27A
  8
_0-0_
  6
CONTINUOUS
 62
     7
 10
120.6160395987415
 20
187.1191527389684
 30
0.0
 11
121.1476837547955
 21
187.4261917445883
 31
0.0
  0
LINE
  5
27B
  8
_0-0_
  6
CONTINUOUS
 62
     7
 10
121.1476837547955
 20
187.4261917445883
 30
0.0
 11
121.4719980861247
 21
187.6587320510608
 31
0.0
  0
LINE
  5
27C
  8
_0-0_
  6
CONTINUOUS
 62
     7
 10
120.6160395987415
 20
185.0475913572107
 30
0.0
 11
118.1160395987415
 21
185.0475913572107
 31
0.0
  0
LINE
  5
27D
  8
_0-0_
  6
CONTINUOUS
 62
     7
 10
118.1160395987415
 20
185.0475913572107
 30
0.0
 11
118.1160395987415
 21
225.4828547356791
 31
0.0
  0
LINE
  5
27E
  8
_0-0_
  6
CONTINUOUS
 62
     7
 10
118.1160395987415
 20
225.4828547356791
 30
0.0
 11
85.1160395987414
 21
225.4828547356791
 31
0.0
  0
LINE
  5
27F
  8
_0-0_
  6
CONTINUOUS
 62
     7
 10
85.1160395987414
 20
225.4828547356791
 30
0.0
 11
85.1160395987414
 21
185.0475913572107
 31
0.0
  0
LINE
  5
280
  8
_0-0_
  6
CONTINUOUS
 62
     7
 10
85.1160395987414
 20
185.0475913572107
 30
0.0
 11
82.61603959874151
 21
185.0475913572107
 31
0.0
  0
LINE
  5
281
  8
_0-0_
  6
CONTINUOUS
 62
     7
 10
82.61603959874151
 20
185.0475913572107
 30
0.0
 11
82.61603959874151
 21
227.2694289274569
 31
0.0
  0
LINE
  5
282
  8
_0-0_
  6
CONTINUOUS
 62
     7
 10
82.61603959874151
 20
227.2694289274569
 30
0.0
 11
82.64004152657606
 21
227.679204050631
 31
0.0
  0
LINE
  5
283
  8
_0-0_
  6
CONTINUOUS
 62
     7
 10
82.64004152657606
 20
227.679204050631
 30
0.0
 11
82.70881950789965
 21
228.0620543122596
 31
0.0
  0
LINE
  5
284
  8
_0-0_
  6
CONTINUOUS
 62
     7
 10
82.70881950789965
 20
228.0620543122596
 30
0.0
 11
82.82719466259744
 21
228.4408514883048
 31
0.0
  0
LINE
  5
285
  8
_0-0_
  6
CONTINUOUS
 62
     7
 10
82.82719466259744
 20
228.4408514883048
 30
0.0
 11
82.98122218408957
 21
228.7752343971968
 31
0.0
  0
LINE
  5
286
  8
_0-0_
  6
CONTINUOUS
 62
     7
 10
82.98122218408957
 20
228.7752343971968
 30
0.0
 11
83.21670405627765
 21
229.1403647962331
 31
0.0
  0
LINE
  5
287
  8
_0-0_
  6
CONTINUOUS
 62
     7
 10
83.21670405627765
 20
229.1403647962331
 30
0.0
 11
83.48385242310144
 21
229.4426230929232
 31
0.0
  0
LINE
  5
288
  8
_0-0_
  6
CONTINUOUS
 62
     7
 10
83.48385242310144
 20
229.4426230929232
 30
0.0
 11
83.78552480860208
 21
229.6980598573326
 31
0.0
  0
LINE
  5
289
  8
_0-0_
  6
CONTINUOUS
 62
     7
 10
83.78552480860208
 20
229.6980598573326
 30
0.0
 11
84.11076684354646
 21
229.9037420920607
 31
0.0
  0
LINE
  5
28A
  8
_0-0_
  6
CONTINUOUS
 62
     7
 10
84.11076684354646
 20
229.9037420920607
 30
0.0
 11
84.78798863537406
 21
230.1701260963054
 31
0.0
  0
LINE
  5
28B
  8
_0-0_
  6
CONTINUOUS
 62
     7
 10
84.78798863537406
 20
230.1701260963054
 30
0.0
 11
85.44689466409466
 21
230.272335860745
 31
0.0
  0
LINE
  5
28C
  8
_0-0_
  6
CONTINUOUS
 62
     7
 10
85.44689466409466
 20
230.272335860745
 30
0.0
 11
86.1160395987414
 21
230.2456206429013
 31
0.0
  0
LINE
  5
28D
  8
_0-0_
  6
CONTINUOUS
 62
     7
 10
86.1160395987414
 20
230.2456206429012
 30
0.0
 11
90.10154703360456
 21
229.8146817913523
 31
0.0
  0
LINE
  5
28E
  8
_0-0_
  6
CONTINUOUS
 62
     7
 10
90.10154703360456
 20
229.8146817913523
 30
0.0
 11
94.52666752474386
 21
229.5179104178893
 31
0.0
  0
LINE
  5
28F
  8
_0-0_
  6
CONTINUOUS
 62
     7
 10
94.52666752474386
 20
229.5179104178893
 30
0.0
 11
99.22245391860542
 21
229.3666369888586
 31
0.0
  0
LINE
  5
290
  8
_0-0_
  6
CONTINUOUS
 62
     7
 10
99.22245391860542
 20
229.3666369888586
 30
0.0
 11
104.0096252788779
 21
229.3666369888586
 31
0.0
  0
LINE
  5
291
  8
_0-0_
  6
CONTINUOUS
 62
     7
 10
104.0096252788779
 20
229.3666369888586
 30
0.0
 11
108.7054116727394
 21
229.5179104178894
 31
0.0
  0
LINE
  5
292
  8
_0-0_
  6
CONTINUOUS
 62
     7
 10
108.7054116727394
 20
229.5179104178894
 30
0.0
 11
113.1305321638788
 21
229.8146817913523
 31
0.0
  0
LINE
  5
293
  8
_0-0_
  6
CONTINUOUS
 62
     7
 10
113.1305321638788
 20
229.8146817913523
 30
0.0
 11
117.1160395987417
 21
230.2456206429013
 31
0.0
  0
LINE
  5
294
  8
_0-0_
  6
CONTINUOUS
 62
     7
 10
117.1160395987413
 20
230.2456206429013
 30
0.0
 11
117.4063313411208
 21
230.27254874414
 31
0.0
  0
LINE
  5
295
  8
_0-0_
  6
CONTINUOUS
 62
     7
 10
117.4063313411208
 20
230.27254874414
 30
0.0
 11
118.0434414868896
 21
230.2483917616596
 31
0.0
  0
LINE
  5
296
  8
_0-0_
  6
CONTINUOUS
 62
     7
 10
118.0434414868896
 20
230.2483917616596
 30
0.0
 11
118.6408826697098
 21
230.1116540638781
 31
0.0
  0
LINE
  5
297
  8
_0-0_
  6
CONTINUOUS
 62
     7
 10
118.6408826697098
 20
230.1116540638781
 30
0.0
 11
119.1954767759235
 21
229.8621064152309
 31
0.0
  0
LINE
  5
298
  8
_0-0_
  6
CONTINUOUS
 62
     7
 10
119.1954767759235
 20
229.8621064152309
 30
0.0
 11
119.6854347303837
 21
229.502090300306
 31
0.0
  0
LINE
  5
299
  8
_0-0_
  6
CONTINUOUS
 62
     7
 10
119.6854347303837
 20
229.502090300306
 30
0.0
 11
119.9941995567758
 21
229.1678185191999
 31
0.0
  0
LINE
  5
29A
  8
_0-0_
  6
CONTINUOUS
 62
     7
 10
119.9941995567758
 20
229.1678185191999
 30
0.0
 11
120.2508933106233
 21
228.7751672466887
 31
0.0
  0
LINE
  5
29B
  8
_0-0_
  6
CONTINUOUS
 62
     7
 10
120.2508933106233
 20
228.7751672466887
 30
0.0
 11
120.4063789562216
 21
228.4369747103339
 31
0.0
  0
LINE
  5
29C
  8
_0-0_
  6
CONTINUOUS
 62
     7
 10
120.4063789562216
 20
228.4369747103339
 30
0.0
 11
120.5202296593335
 21
228.0744132036792
 31
0.0
  0
LINE
  5
29D
  8
_0-0_
  6
CONTINUOUS
 62
     7
 10
120.5202296593335
 20
228.0744132036792
 30
0.0
 11
120.5928958674373
 21
227.671921065568
 31
0.0
  0
LINE
  5
29E
  8
_0-0_
  6
CONTINUOUS
 62
     7
 10
120.5928958674373
 20
227.671921065568
 30
0.0
 11
120.6160395987415
 21
227.2694289274569
 31
0.0
  0
LINE
  5
29F
  8
_0-0_
  6
CONTINUOUS
 62
     7
 10
120.6160395987415
 20
227.2694289274569
 30
0.0
 11
120.6160395987415
 21
185.0475913572107
 31
0.0
  0
LINE
  5
2A0
  8
_0-0_
  6
CONTINUOUS
 62
     7
 10
120.6160395987629
 20
191.3568797458917
 30
0.0
 11
125.4350845278909
 21
191.3568797458917
 31
0.0
  0
LINE
  5
2A1
  8
_0-0_
  6
CONTINUOUS
 62
     7
 10
125.4350845278909
 20
191.3568797458917
 30
0.0
 11
125.6688397117789
 21
190.9086778845115
 31
0.0
  0
LINE
  5
2A2
  8
_0-0_
  6
CONTINUOUS
 62
     7
 10
125.6688397117789
 20
190.9086778845115
 30
0.0
 11
125.8493292554496
 21
190.4527877902018
 31
0.0
  0
LINE
  5
2A3
  8
_0-0_
  6
CONTINUOUS
 62
     7
 10
125.8493292554496
 20
190.4527877902018
 30
0.0
 11
125.9657213489905
 21
189.9852577539277
 31
0.0
  0
LINE
  5
2A4
  8
_0-0_
  6
CONTINUOUS
 62
     7
 10
125.9657213489905
 20
189.9852577539277
 30
0.0
 11
126.0060395987629
 21
189.5115239479944
 31
0.0
  0
LINE
  5
2A5
  8
_0-0_
  6
CONTINUOUS
 62
     7
 10
126.0060395987629
 20
189.5115239479944
 30
0.0
 11
126.0029315324668
 21
189.3803229208028
 31
0.0
  0
LINE
  5
2A6
  8
_0-0_
  6
CONTINUOUS
 62
     7
 10
126.0029315324668
 20
189.3803229208028
 30
0.0
 11
125.9496635624236
 21
188.9507341213488
 31
0.0
  0
LINE
  5
2A7
  8
_0-0_
  6
CONTINUOUS
 62
     7
 10
125.9496635624236
 20
188.9507341213488
 30
0.0
 11
125.8331808316938
 21
188.5218937649967
 31
0.0
  0
LINE
  5
2A8
  8
_0-0_
  6
CONTINUOUS
 62
     7
 10
125.8331808316938
 20
188.5218937649967
 30
0.0
 11
125.6584050035661
 21
188.0919585545653
 31
0.0
  0
LINE
  5
2A9
  8
_0-0_
  6
CONTINUOUS
 62
     7
 10
125.6584050035661
 20
188.0919585545653
 30
0.0
 11
125.4350845278909
 21
187.666168150097
 31
0.0
  0
LINE
  5
2AA
  8
_0-0_
  6
CONTINUOUS
 62
     7
 10
125.4350845278909
 20
191.3568797458917
 30
0.0
 11
125.677171718813
 21
192.2895120760595
 31
0.0
  0
LINE
  5
2AB
  8
_0-0_
  6
CONTINUOUS
 62
     7
 10
125.677171718813
 20
192.2895120760595
 30
0.0
 11
125.9211361647966
 21
193.6685517088729
 31
0.0
  0
LINE
  5
2AC
  8
_0-0_
  6
CONTINUOUS
 62
     7
 10
125.9211361647966
 20
193.6685517088729
 30
0.0
 11
126.0060395987629
 21
195.0475913416864
 31
0.0
  0
LINE
  5
2AD
  8
_0-0_
  6
CONTINUOUS
 62
     7
 10
126.0060395987629
 20
195.0475913416864
 30
0.0
 11
125.9607615458293
 21
196.0519815627731
 31
0.0
  0
LINE
  5
2AE
  8
_0-0_
  6
CONTINUOUS
 62
     7
 10
125.9607615458293
 20
196.0519815627731
 30
0.0
 11
125.7613818119059
 21
197.4134612205547
 31
0.0
  0
LINE
  5
2AF
  8
_0-0_
  6
CONTINUOUS
 62
     7
 10
125.7613818119059
 20
197.4134612205547
 30
0.0
 11
125.4350845278909
 21
198.7383029374812
 31
0.0
  0
LINE
  5
2B0
  8
_0-0_
  6
CONTINUOUS
 62
     7
 10
125.4350845278909
 20
198.7383029374812
 30
0.0
 11
125.6584050035661
 21
199.1640933419494
 31
0.0
  0
LINE
  5
2B1
  8
_0-0_
  6
CONTINUOUS
 62
     7
 10
125.6584050035661
 20
199.1640933419494
 30
0.0
 11
125.8331808316937
 21
199.5940285523808
 31
0.0
  0
LINE
  5
2B2
  8
_0-0_
  6
CONTINUOUS
 62
     7
 10
125.8331808316937
 20
199.5940285523808
 30
0.0
 11
125.9496635624236
 21
200.0228689087329
 31
0.0
  0
LINE
  5
2B3
  8
_0-0_
  6
CONTINUOUS
 62
     7
 10
125.9496635624236
 20
200.0228689087329
 30
0.0
 11
126.0029315324668
 21
200.4524577081868
 31
0.0
  0
LINE
  5
2B4
  8
_0-0_
  6
CONTINUOUS
 62
     7
 10
126.0029315324668
 20
200.4524577081868
 30
0.0
 11
126.0060395987629
 21
200.5836587353784
 31
0.0
  0
LINE
  5
2B5
  8
_0-0_
  6
CONTINUOUS
 62
     7
 10
126.0060395987629
 20
200.5836587353784
 30
0.0
 11
125.9657213489905
 21
201.0573925413117
 31
0.0
  0
LINE
  5
2B6
  8
_0-0_
  6
CONTINUOUS
 62
     7
 10
125.9657213489905
 20
201.0573925413117
 30
0.0
 11
125.8493292554496
 21
201.5249225775858
 31
0.0
  0
LINE
  5
2B7
  8
_0-0_
  6
CONTINUOUS
 62
     7
 10
125.8493292554496
 20
201.5249225775858
 30
0.0
 11
125.6688397117789
 21
201.9808126718955
 31
0.0
  0
LINE
  5
2B8
  8
_0-0_
  6
CONTINUOUS
 62
     7
 10
125.4350845278909
 20
202.4290145332758
 30
0.0
 11
120.6160395987629
 21
202.4290145332757
 31
0.0
  0
LINE
  5
2B9
  8
_0-0_
  6
CONTINUOUS
 62
     7
 10
120.6160395987629
 20
198.7383029374811
 30
0.0
 11
125.4350845278909
 21
198.7383029374812
 31
0.0
  0
LINE
  5
2BA
  8
_0-0_
  6
CONTINUOUS
 62
     7
 10
75.99603959874128
 20
195.0475913416863
 30
0.0
 11
76.08147430175086
 21
196.4352600844431
 31
0.0
  0
LINE
  5
2BB
  8
_0-0_
  6
CONTINUOUS
 62
     7
 10
76.08147430175086
 20
196.4352600844431
 30
0.0
 11
76.3269653144672
 21
197.8229288271998
 31
0.0
  0
LINE
  5
2BC
  8
_0-0_
  6
CONTINUOUS
 62
     7
 10
76.3269653144672
 20
197.8229288271998
 30
0.0
 11
76.57056732551234
 21
198.7613969482486
 31
0.0
  0
LINE
  5
2BD
  8
_0-0_
  6
CONTINUOUS
 62
     7
 10
76.57056732551234
 20
198.7613969482486
 30
0.0
 11
76.33534945764234
 21
199.2124033578424
 31
0.0
  0
LINE
  5
2BE
  8
_0-0_
  6
CONTINUOUS
 62
     7
 10
76.33534945764234
 20
199.2124033578424
 30
0.0
 11
76.15373053082783
 21
199.6711461081979
 31
0.0
  0
LINE
  5
2BF
  8
_0-0_
  6
CONTINUOUS
 62
     7
 10
76.15373053082783
 20
199.6711461081979
 30
0.0
 11
76.03661013322096
 21
200.1416016355084
 31
0.0
  0
LINE
  5
2C0
  8
_0-0_
  6
CONTINUOUS
 62
     7
 10
76.03661013322096
 20
200.1416016355084
 30
0.0
 11
75.99603959874128
 21
200.6182997515296
 31
0.0
  0
LINE
  5
2C1
  8
_0-0_
  6
CONTINUOUS
 62
     7
 10
75.99603959874128
 20
200.6182997515296
 30
0.0
 11
75.99916713988898
 21
200.7503223098612
 31
0.0
  0
LINE
  5
2C2
  8
_0-0_
  6
CONTINUOUS
 62
     7
 10
75.99916713988898
 20
200.7503223098612
 30
0.0
 11
76.05276848365236
 21
201.1825990524703
 31
0.0
  0
LINE
  5
2C3
  8
_0-0_
  6
CONTINUOUS
 62
     7
 10
76.05276848365236
 20
201.1825990524703
 30
0.0
 11
76.16998009835993
 21
201.6141226660548
 31
0.0
  0
LINE
  5
2C4
  8
_0-0_
  6
CONTINUOUS
 62
     7
 10
76.16998009835993
 20
201.6141226660548
 30
0.0
 11
76.34584952589319
 21
202.0467479801617
 31
0.0
  0
LINE
  5
2C5
  8
_0-0_
  6
CONTINUOUS
 62
     7
 10
76.34584952589319
 20
202.0467479801617
 30
0.0
 11
76.57056732551234
 21
202.4752025548107
 31
0.0
  0
LINE
  5
2C6
  8
_0-0_
  6
CONTINUOUS
 62
     7
 10
76.57056732551234
 20
202.4752025548107
 30
0.0
 11
75.99603959874128
 21
201.4800913416862
 31
0.0
  0
LINE
  5
2C7
  8
_0-0_
  6
CONTINUOUS
 62
     7
 10
75.99603959874128
 20
201.4800913416862
 30
0.0
 11
75.99603959874128
 21
188.6150913416865
 31
0.0
  0
LINE
  5
2C8
  8
_0-0_
  6
CONTINUOUS
 62
     7
 10
75.99603959874128
 20
188.6150913416865
 30
0.0
 11
76.57056732551234
 21
187.6199801285619
 31
0.0
  0
LINE
  5
2C9
  8
_0-0_
  6
CONTINUOUS
 62
     7
 10
76.57056732551234
 20
187.6199801285619
 30
0.0
 11
76.33534945764234
 21
188.0709865381556
 31
0.0
  0
LINE
  5
2CA
  8
_0-0_
  6
CONTINUOUS
 62
     7
 10
76.33534945764234
 20
188.0709865381556
 30
0.0
 11
76.15373053082783
 21
188.529729288511
 31
0.0
  0
LINE
  5
2CB
  8
_0-0_
  6
CONTINUOUS
 62
     7
 10
76.15373053082783
 20
188.529729288511
 30
0.0
 11
76.03661013322096
 21
189.0001848158216
 31
0.0
  0
LINE
  5
2CC
  8
_0-0_
  6
CONTINUOUS
 62
     7
 10
76.03661013322096
 20
189.0001848158216
 30
0.0
 11
75.99603959874128
 21
189.4768829318431
 31
0.0
  0
LINE
  5
2CD
  8
_0-0_
  6
CONTINUOUS
 62
     7
 10
75.99603959874128
 20
189.4768829318431
 30
0.0
 11
75.99916713988898
 21
189.6089054901744
 31
0.0
  0
LINE
  5
2CE
  8
_0-0_
  6
CONTINUOUS
 62
     7
 10
75.99916713988898
 20
189.6089054901744
 30
0.0
 11
76.05276848365236
 21
190.0411822327835
 31
0.0
  0
LINE
  5
2CF
  8
_0-0_
  6
CONTINUOUS
 62
     7
 10
76.05276848365236
 20
190.0411822327835
 30
0.0
 11
76.16998009836004
 21
190.4727058463681
 31
0.0
  0
LINE
  5
2D0
  8
_0-0_
  6
CONTINUOUS
 62
     7
 10
76.16998009836004
 20
190.4727058463681
 30
0.0
 11
76.34584952589319
 21
190.905331160475
 31
0.0
  0
LINE
  5
2D1
  8
_0-0_
  6
CONTINUOUS
 62
     7
 10
76.34584952589319
 20
190.905331160475
 30
0.0
 11
76.57056732551234
 21
191.3337857351243
 31
0.0
  0
LINE
  5
2D2
  8
_0-0_
  6
CONTINUOUS
 62
     7
 10
76.57056732551234
 20
191.3337857351243
 30
0.0
 11
82.04151187197033
 21
191.3337857351241
 31
0.0
  0
LINE
  5
2D3
  8
_0-0_
  6
CONTINUOUS
 62
     7
 10
82.04151187197033
 20
191.3337857351241
 30
0.0
 11
82.27672973984033
 21
190.8827793255303
 31
0.0
  0
LINE
  5
2D4
  8
_0-0_
  6
CONTINUOUS
 62
     7
 10
82.27672973984033
 20
190.8827793255303
 30
0.0
 11
82.45834866665484
 21
190.4240365751748
 31
0.0
  0
LINE
  5
2D5
  8
_0-0_
  6
CONTINUOUS
 62
     7
 10
82.45834866665484
 20
190.4240365751748
 30
0.0
 11
82.57546906426171
 21
189.9535810478642
 31
0.0
  0
LINE
  5
2D6
  8
_0-0_
  6
CONTINUOUS
 62
     7
 10
82.57546906426171
 20
189.9535810478642
 30
0.0
 11
82.6160395987414
 21
189.4768829318431
 31
0.0
  0
LINE
  5
2D7
  8
_0-0_
  6
CONTINUOUS
 62
     7
 10
82.6160395987414
 20
189.4768829318431
 30
0.0
 11
82.61291205759369
 21
189.3448603735115
 31
0.0
  0
LINE
  5
2D8
  8
_0-0_
  6
CONTINUOUS
 62
     7
 10
82.61291205759369
 20
189.3448603735115
 30
0.0
 11
82.55931071383031
 21
188.9125836309024
 31
0.0
  0
LINE
  5
2D9
  8
_0-0_
  6
CONTINUOUS
 62
     7
 10
82.55931071383031
 20
188.9125836309024
 30
0.0
 11
82.44209909912263
 21
188.4810600173177
 31
0.0
  0
LINE
  5
2DA
  8
_0-0_
  6
CONTINUOUS
 62
     7
 10
82.44209909912263
 20
188.4810600173177
 30
0.0
 11
82.26622967158937
 21
188.0484347032108
 31
0.0
  0
LINE
  5
2DB
  8
_0-0_
  6
CONTINUOUS
 62
     7
 10
82.26622967158937
 20
188.0484347032108
 30
0.0
 11
82.04151187197033
 21
187.6199801285619
 31
0.0
  0
LINE
  5
2DC
  8
_0-0_
  6
CONTINUOUS
 62
     7
 10
82.04151187197033
 20
187.6199801285619
 30
0.0
 11
82.6160395987414
 21
188.6150913416864
 31
0.0
  0
LINE
  5
2DD
  8
_0-0_
  6
CONTINUOUS
 62
     7
 10
82.61603959874151
 20
187.119152738968
 30
0.0
 11
82.18345616552244
 21
187.3625177938401
 31
0.0
  0
LINE
  5
2DE
  8
_0-0_
  6
CONTINUOUS
 62
     7
 10
82.18345616552244
 20
187.3625177938401
 30
0.0
 11
81.81617978904512
 21
187.6156844488415
 31
0.0
  0
LINE
  5
2DF
  8
_0-0_
  6
CONTINUOUS
 62
     7
 10
82.04151187197033
 20
187.6199801285619
 30
0.0
 11
76.57056732551234
 21
187.6199801285619
 31
0.0
  0
LINE
  5
2E0
  8
_0-0_
  6
CONTINUOUS
 62
     7
 10
75.99603959874128
 20
189.0475913416864
 30
0.0
 11
75.49603959874139
 21
189.0475913416864
 31
0.0
  0
LINE
  5
2E1
  8
_0-0_
  6
CONTINUOUS
 62
     7
 10
73.99603959874139
 20
190.5475913416864
 30
0.0
 11
73.99603959874139
 21
199.5475913416864
 31
0.0
  0
LINE
  5
2E2
  8
_0-0_
  6
CONTINUOUS
 62
     7
 10
73.99603959874139
 20
199.045625887141
 30
0.0
 11
73.61603959876288
 21
199.0455913416864
 31
0.0
  0
LINE
  5
2E3
  8
_0-0_
  6
CONTINUOUS
 62
     7
 10
73.61603959876288
 20
199.0455913416864
 30
0.0
 11
73.61603959876288
 21
191.0495913416861
 31
0.0
  0
LINE
  5
2E4
  8
_0-0_
  6
CONTINUOUS
 62
     7
 10
73.61603959876288
 20
191.0495913416861
 30
0.0
 11
73.99603959874139
 21
191.0495567962316
 31
0.0
  0
LINE
  5
2E5
  8
_0-0_
  6
CONTINUOUS
 62
     7
 10
76.57056732551234
 20
191.3337857351243
 30
0.0
 11
76.24222829079565
 21
192.6669174275965
 31
0.0
  0
LINE
  5
2E6
  8
_0-0_
  6
CONTINUOUS
 62
     7
 10
76.24222829079565
 20
192.6669174275965
 30
0.0
 11
76.04160097152123
 21
194.0369163167133
 31
0.0
  0
LINE
  5
2E7
  8
_0-0_
  6
CONTINUOUS
 62
     7
 10
76.04160097152123
 20
194.0369163167133
 30
0.0
 11
75.99603959874128
 21
195.0475913416863
 31
0.0
  0
LINE
  5
2E8
  8
_0-0_
  6
CONTINUOUS
 62
     7
 10
76.57056732551234
 20
198.7613969482486
 30
0.0
 11
82.04151187197033
 21
198.7613969482483
 31
0.0
  0
LINE
  5
2E9
  8
_0-0_
  6
CONTINUOUS
 62
     7
 10
82.04151187197033
 20
198.7613969482483
 30
0.0
 11
82.26622967158937
 21
199.1898515228977
 31
0.0
  0
LINE
  5
2EA
  8
_0-0_
  6
CONTINUOUS
 62
     7
 10
82.26622967158937
 20
199.1898515228977
 30
0.0
 11
82.44209909912263
 21
199.6224768370045
 31
0.0
  0
LINE
  5
2EB
  8
_0-0_
  6
CONTINUOUS
 62
     7
 10
82.44209909912263
 20
199.6224768370045
 30
0.0
 11
82.55931071383031
 21
200.0540004505892
 31
0.0
  0
LINE
  5
2EC
  8
_0-0_
  6
CONTINUOUS
 62
     7
 10
82.55931071383031
 20
200.0540004505892
 30
0.0
 11
82.61291205759369
 21
200.4862771931983
 31
0.0
  0
LINE
  5
2ED
  8
_0-0_
  6
CONTINUOUS
 62
     7
 10
82.61291205759369
 20
200.4862771931983
 30
0.0
 11
82.6160395987414
 21
200.6182997515296
 31
0.0
  0
LINE
  5
2EE
  8
_0-0_
  6
CONTINUOUS
 62
     7
 10
82.6160395987414
 20
200.6182997515296
 30
0.0
 11
82.57546906426171
 21
201.094997867551
 31
0.0
  0
LINE
  5
2EF
  8
_0-0_
  6
CONTINUOUS
 62
     7
 10
82.57546906426171
 20
201.094997867551
 30
0.0
 11
82.45834866665484
 21
201.5654533948615
 31
0.0
  0
LINE
  5
2F0
  8
_0-0_
  6
CONTINUOUS
 62
     7
 10
82.45834866665484
 20
201.5654533948615
 30
0.0
 11
82.27672973984033
 21
202.024196145217
 31
0.0
  0
LINE
  5
2F1
  8
_0-0_
  6
CONTINUOUS
 62
     7
 10
82.27672973984033
 20
202.024196145217
 30
0.0
 11
82.04151187197033
 21
202.4752025548107
 31
0.0
  0
LINE
  5
2F2
  8
_0-0_
  6
CONTINUOUS
 62
     7
 10
82.04151187197033
 20
202.4752025548107
 30
0.0
 11
82.6160395987414
 21
201.4800913416862
 31
0.0
  0
LINE
  5
2F3
  8
_0-0_
  6
CONTINUOUS
 62
     7
 10
82.04151187197033
 20
202.4752025548107
 30
0.0
 11
76.57056732551234
 21
202.4752025548107
 31
0.0
  0
LINE
  5
2F4
  8
_0-0_
  6
CONTINUOUS
 62
     7
 10
77.47644400793911
 20
202.4752025548109
 30
0.0
 11
77.11603959874105
 21
209.7270832858767
 31
0.0
  0
LINE
  5
2F5
  8
_0-0_
  6
CONTINUOUS
 62
     7
 10
77.11603959874105
 20
209.7270832858767
 30
0.0
 11
77.11603959874105
 21
232.0475913615654
 31
0.0
  0
LINE
  5
2F6
  8
_0-0_
  6
CONTINUOUS
 62
     7
 10
83.64116586458852
 20
226.995919809495
 30
0.0
 11
83.20589595568254
 21
226.4518079401532
 31
0.0
  0
LINE
  5
2F7
  8
_0-0_
  6
CONTINUOUS
 62
     7
 10
83.20589595568254
 20
226.4518079401532
 30
0.0
 11
82.88246123495196
 21
225.8310351864738
 31
0.0
  0
LINE
  5
2F8
  8
_0-0_
  6
CONTINUOUS
 62
     7
 10
82.88246123495196
 20
225.8310351864738
 30
0.0
 11
82.6832911173301
 21
225.1574574972474
 31
0.0
  0
LINE
  5
2F9
  8
_0-0_
  6
CONTINUOUS
 62
     7
 10
82.6832911173301
 20
225.1574574972474
 30
0.0
 11
82.6160395987414
 21
224.4569600853244
 31
0.0
  0
LINE
  5
2FA
  8
_0-0_
  6
CONTINUOUS
 62
     7
 10
83.64116586458852
 20
226.995919809495
 30
0.0
 11
84.17154378317287
 21
227.442460880502
 31
0.0
  0
LINE
  5
2FB
  8
_0-0_
  6
CONTINUOUS
 62
     7
 10
84.17154378317287
 20
227.442460880502
 30
0.0
 11
84.77664758546359
 21
227.7742708302385
 31
0.0
  0
LINE
  5
2FC
  8
_0-0_
  6
CONTINUOUS
 62
     7
 10
84.77664758546359
 20
227.7742708302385
 30
0.0
 11
85.43322347168498
 21
227.9785983884172
 31
0.0
  0
LINE
  5
2FD
  8
_0-0_
  6
CONTINUOUS
 62
     7
 10
85.43322347168498
 20
227.9785983884172
 30
0.0
 11
86.1160395987414
 21
228.0475913615655
 31
0.0
  0
LINE
  5
2FE
  8
_0-0_
  6
CONTINUOUS
 62
     7
 10
86.1160395987414
 20
228.0475913615656
 30
0.0
 11
117.1160395987416
 21
228.0475913615656
 31
0.0
  0
LINE
  5
2FF
  8
_0-0_
  6
CONTINUOUS
 62
     7
 10
117.1160395987416
 20
228.0475913615655
 30
0.0
 11
117.798855725798
 21
227.9785983884172
 31
0.0
  0
LINE
  5
300
  8
_0-0_
  6
CONTINUOUS
 62
     7
 10
117.798855725798
 20
227.9785983884172
 30
0.0
 11
118.4554316120194
 21
227.7742708302384
 31
0.0
  0
LINE
  5
301
  8
_0-0_
  6
CONTINUOUS
 62
     7
 10
118.4554316120194
 20
227.7742708302384
 30
0.0
 11
119.0605354143103
 21
227.442460880502
 31
0.0
  0
LINE
  5
302
  8
_0-0_
  6
CONTINUOUS
 62
     7
 10
119.0605354143103
 20
227.442460880502
 30
0.0
 11
119.5909133328946
 21
226.9959198094949
 31
0.0
  0
LINE
  5
303
  8
_0-0_
  6
CONTINUOUS
 62
     7
 10
119.5909133328946
 20
226.9959198094949
 30
0.0
 11
120.0261832418006
 21
226.4518079401531
 31
0.0
  0
LINE
  5
304
  8
_0-0_
  6
CONTINUOUS
 62
     7
 10
120.0261832418006
 20
226.4518079401531
 30
0.0
 11
120.3496179625312
 21
225.8310351864736
 31
0.0
  0
LINE
  5
305
  8
_0-0_
  6
CONTINUOUS
 62
     7
 10
120.3496179625312
 20
225.8310351864736
 30
0.0
 11
120.5487880801529
 21
225.1574574972473
 31
0.0
  0
LINE
  5
306
  8
_0-0_
  6
CONTINUOUS
 62
     7
 10
120.5487880801529
 20
225.1574574972473
 30
0.0
 11
120.6160395987416
 21
224.4569600853242
 31
0.0
  0
LINE
  5
307
  8
_0-0_
  6
CONTINUOUS
 62
     7
 10
113.6160395987417
 20
220.0475913416864
 30
0.0
 11
89.61603959874162
 21
220.0475913416864
 31
0.0
  0
LINE
  5
308
  8
_0-0_
  6
CONTINUOUS
 62
     7
 10
87.61603959874162
 20
218.0475913410474
 30
0.0
 11
87.61603959874162
 21
172.0475913416864
 31
0.0
  0
LINE
  5
309
  8
_0-0_
  6
CONTINUOUS
 62
     7
 10
115.6160395987417
 20
172.0475913416864
 30
0.0
 11
115.6160395987417
 21
218.0475913410474
 31
0.0
  0
LINE
  5
30A
  8
_0-0_
  6
CONTINUOUS
 62
     7
 10
115.6160395987417
 20
201.0475913416864
 30
0.0
 11
118.1160395987417
 21
201.0475913416864
 31
0.0
  0
LINE
  5
30B
  8
_0-0_
  6
CONTINUOUS
 62
     7
 10
118.1160395987417
 20
189.0475913416864
 30
0.0
 11
115.6160395987417
 21
189.0475913416864
 31
0.0
  0
LINE
  5
30C
  8
_0-0_
  6
CONTINUOUS
 62
     7
 10
87.61603959874162
 20
189.0475913416864
 30
0.0
 11
85.11603959874162
 21
189.0475913416864
 31
0.0
  0
LINE
  5
30D
  8
_0-0_
  6
CONTINUOUS
 62
     7
 10
82.04151187197033
 20
191.3337857351241
 30
0.0
 11
82.37234754518079
 21
192.6794049175147
 31
0.0
  0
LINE
  5
30E
  8
_0-0_
  6
CONTINUOUS
 62
     7
 10
82.37234754518079
 20
192.6794049175147
 30
0.0
 11
82.57047822596144
 21
194.0369163167133
 31
0.0
  0
LINE
  5
30F
  8
_0-0_
  6
CONTINUOUS
 62
     7
 10
82.57047822596144
 20
194.0369163167133
 30
0.0
 11
82.6160395987414
 21
195.0475913416863
 31
0.0
  0
LINE
  5
310
  8
_0-0_
  6
CONTINUOUS
 62
     7
 10
82.6160395987414
 20
195.0475913416863
 30
0.0
 11
82.52842383507846
 21
196.4530653016056
 31
0.0
  0
LINE
  5
311
  8
_0-0_
  6
CONTINUOUS
 62
     7
 10
82.52842383507846
 20
196.4530653016056
 30
0.0
 11
82.28511388301547
 21
197.8229288271998
 31
0.0
  0
LINE
  5
312
  8
_0-0_
  6
CONTINUOUS
 62
     7
 10
82.28511388301547
 20
197.8229288271998
 30
0.0
 11
82.04151187197033
 21
198.7613969482483
 31
0.0
  0
LINE
  5
313
  8
_0-0_
  6
CONTINUOUS
 62
     7
 10
85.11603959874162
 20
201.0475913416864
 30
0.0
 11
87.61603959874162
 21
201.0475913416864
 31
0.0
  0
LINE
  5
314
  8
_0-0_
  6
CONTINUOUS
 62
     7
 10
75.99603959874128
 20
201.0475913416864
 30
0.0
 11
75.49603959874139
 21
201.0475913416864
 31
0.0
  0
ARC
  5
315
  8
_0-0_
  6
CONTINUOUS
 62
     7
 10
80.11603964700441
 20
232.0475913133022
 30
0.0
 40
3.000000048263189
 50
90.00000074653761
 51
180.0000019539558
  0
ARC
  5
316
  8
_0-0_
  6
CONTINUOUS
 62
     7
 10
123.116039550478
 20
232.0475913133022
 30
0.0
 40
3.000000048263189
 50
359.9999987925821
 51
89.99999787082254
  0
ARC
  5
317
  8
_0-0_
  6
CONTINUOUS
 62
     7
 10
78.4160395987409
 20
242.5475913615654
 30
0.0
 40
0.8000000000000256
 50
180.0
 51
270.0
  0
ARC
  5
318
  8
_0-0_
  6
CONTINUOUS
 62
     7
 10
124.8160395987414
 20
242.5475913615654
 30
0.0
 40
0.8000000000000398
 50
270.0
 51
0.0
  0
ARC
  5
319
  8
_0-0_
  6
CONTINUOUS
 62
     7
 10
75.49603959874139
 20
190.5475913416864
 30
0.0
 40
1.5
 50
180.0000000000011
 51
270.0
  0
ARC
  5
31A
  8
_0-0_
  6
CONTINUOUS
 62
     7
 10
75.49603959874139
 20
199.5475913416864
 30
0.0
 40
1.5
 50
90.0
 51
180.0000000000011
  0
ARC
  5
31B
  8
_0-0_
  6
CONTINUOUS
 62
     7
 10
113.6160395987417
 20
172.0475913416864
 30
0.0
 40
1.999999999999972
 50
270.0
 51
0.0000000000008142
  0
ARC
  5
31C
  8
_0-0_
  6
CONTINUOUS
 62
     7
 10
113.6160395987417
 20
218.0475913416865
 30
0.0
 40
1.999999999999972
 50
359.9999999999992
 51
90.0
  0
ARC
  5
31D
  8
_0-0_
  6
CONTINUOUS
 62
     7
 10
89.61603959874162
 20
172.0475913416864
 30
0.0
 40
1.999999999999972
 50
179.9999999999992
 51
270.0
  0
ARC
  5
31E
  8
_0-0_
  6
CONTINUOUS
 62
     7
 10
89.61603959874162
 20
218.0475913416865
 30
0.0
 40
1.999999999999972
 50
90.0
 51
180.0000000000008
  0
LINE
  5
31F
  8
_0-0_
  6
CENTER1
 62
   152
 10
127.6160395987412
 20
250.1521235424713
 30
0.0
 11
127.6160395987412
 21
236.8975924155998
 31
0.0
  0
LINE
  5
320
  8
_0-0_
  6
CENTER1
 62
   152
 10
75.61603959874117
 20
250.1521235424713
 30
0.0
 11
75.61603959874117
 21
236.8975924155998
 31
0.0
  0
LINE
  5
321
  8
_0-0_
  6
CONTINUOUS
 62
     7
 10
325.8509925454163
 20
232.0475913615654
 30
0.0
 11
325.8509925454163
 21
227.0475913615657
 31
0.0
  0
LINE
  5
322
  8
_0-0_
  6
CONTINUOUS
 62
     7
 10
325.8509925454163
 20
227.0475913615657
 30
0.0
 11
317.1244952373129
 21
227.0475913615657
 31
0.0
  0
LINE
  5
323
  8
_0-0_
  6
CONTINUOUS
 62
     7
 10
317.1244952373129
 20
227.0475913615655
 30
0.0
 11
316.4397432684509
 21
227.0240991769408
 31
0.0
  0
LINE
  5
324
  8
_0-0_
  6
CONTINUOUS
 62
     7
 10
316.4397432684509
 20
227.0240991769408
 30
0.0
 11
315.7377584514964
 21
226.9509726572072
 31
0.0
  0
LINE
  5
325
  8
_0-0_
  6
CONTINUOUS
 62
     7
 10
315.7377584514964
 20
226.9509726572072
 30
0.0
 11
314.8322977682374
 21
226.7808386162467
 31
0.0
  0
LINE
  5
326
  8
_0-0_
  6
CONTINUOUS
 62
     7
 10
314.8322977682374
 20
226.7808386162467
 30
0.0
 11
313.9136803248223
 21
226.5176057307254
 31
0.0
  0
LINE
  5
327
  8
_0-0_
  6
CONTINUOUS
 62
     7
 10
313.9136803248223
 20
226.5176057307254
 30
0.0
 11
312.9986038988945
 21
226.1567636984776
 31
0.0
  0
LINE
  5
328
  8
_0-0_
  6
CONTINUOUS
 62
     7
 10
312.9986038988945
 20
226.1567636984776
 30
0.0
 11
312.1207994418966
 21
225.7047836178099
 31
0.0
  0
LINE
  5
329
  8
_0-0_
  6
CONTINUOUS
 62
     7
 10
312.1207994418966
 20
225.7047836178099
 30
0.0
 11
311.2698221615699
 21
225.1535714042599
 31
0.0
  0
LINE
  5
32A
  8
_0-0_
  6
CONTINUOUS
 62
     7
 10
311.2698221615699
 20
225.1535714042599
 30
0.0
 11
310.4659421146978
 21
224.5084003199374
 31
0.0
  0
LINE
  5
32B
  8
_0-0_
  6
CONTINUOUS
 62
     7
 10
310.4659421146978
 20
224.5084003199374
 30
0.0
 11
309.7218839025408
 21
223.7694104564152
 31
0.0
  0
LINE
  5
32C
  8
_0-0_
  6
CONTINUOUS
 62
     7
 10
309.7218839025408
 20
223.7694104564152
 30
0.0
 11
309.0491184774853
 21
222.9441918441166
 31
0.0
  0
LINE
  5
32D
  8
_0-0_
  6
CONTINUOUS
 62
     7
 10
309.0491184774853
 20
222.9441918441166
 30
0.0
 11
308.464241199468
 21
222.0475913615658
 31
0.0
  0
LINE
  5
32E
  8
_0-0_
  6
CONTINUOUS
 62
     7
 10
308.4642411994689
 20
222.0475913615656
 30
0.0
 11
290.7545706602066
 21
191.373542202258
 31
0.0
  0
LINE
  5
32F
  8
_0-0_
  6
CONTINUOUS
 62
     7
 10
290.7545706602066
 20
191.3735422022573
 30
0.0
 11
290.3665429421192
 21
190.7547993077366
 31
0.0
  0
LINE
  5
330
  8
_0-0_
  6
CONTINUOUS
 62
     7
 10
290.3665429421192
 20
190.7547993077366
 30
0.0
 11
289.942345439887
 21
190.1760875893288
 31
0.0
  0
LINE
  5
331
  8
_0-0_
  6
CONTINUOUS
 62
     7
 10
289.942345439887
 20
190.1760875893288
 30
0.0
 11
289.3139657950516
 21
189.4544894040404
 31
0.0
  0
LINE
  5
332
  8
_0-0_
  6
CONTINUOUS
 62
     7
 10
289.3139657950516
 20
189.4544894040404
 30
0.0
 11
288.6357799692243
 21
188.8098620608405
 31
0.0
  0
LINE
  5
333
  8
_0-0_
  6
CONTINUOUS
 62
     7
 10
288.6357799692243
 20
188.8098620608405
 30
0.0
 11
287.9489473320438
 21
188.2666846137451
 31
0.0
  0
LINE
  5
334
  8
_0-0_
  6
CONTINUOUS
 62
     7
 10
287.9489473320438
 20
188.2666846137451
 30
0.0
 11
287.2393907244646
 21
187.7986828749055
 31
0.0
  0
LINE
  5
335
  8
_0-0_
  6
CONTINUOUS
 62
     7
 10
287.2393907244646
 20
187.7986828749055
 30
0.0
 11
286.5602901766555
 21
187.4261917445883
 31
0.0
  0
LINE
  5
336
  8
_0-0_
  6
CONTINUOUS
 62
     7
 10
286.5602901766555
 20
187.4261917445883
 30
0.0
 11
285.883284247159
 21
187.1191527389684
 31
0.0
  0
LINE
  5
337
  8
_0-0_
  6
CONTINUOUS
 62
     7
 10
285.883284247159
 20
187.1191527389684
 30
0.0
 11
285.883284247159
 21
227.2694289274569
 31
0.0
  0
LINE
  5
338
  8
_0-0_
  6
CONTINUOUS
 62
     7
 10
285.883284247159
 20
227.2694289274569
 30
0.0
 11
285.8534359149487
 21
227.6788797965626
 31
0.0
  0
LINE
  5
339
  8
_0-0_
  6
CONTINUOUS
 62
     7
 10
285.8534359149487
 20
227.6788797965626
 30
0.0
 11
285.7663334810352
 21
228.0744132036792
 31
0.0
  0
LINE
  5
33A
  8
_0-0_
  6
CONTINUOUS
 62
     7
 10
285.7663334810352
 20
228.0744132036792
 30
0.0
 11
285.6269312560939
 21
228.4414800090256
 31
0.0
  0
LINE
  5
33B
  8
_0-0_
  6
CONTINUOUS
 62
     7
 10
285.6269312560939
 20
228.4414800090256
 30
0.0
 11
285.4452631645692
 21
228.7751672466887
 31
0.0
  0
LINE
  5
33C
  8
_0-0_
  6
CONTINUOUS
 62
     7
 10
285.4452631645692
 20
228.7751672466887
 30
0.0
 11
285.1451286542595
 21
229.172500732892
 31
0.0
  0
LINE
  5
33D
  8
_0-0_
  6
CONTINUOUS
 62
     7
 10
285.1451286542595
 20
229.172500732892
 30
0.0
 11
284.805692319172
 21
229.502090300306
 31
0.0
  0
LINE
  5
33E
  8
_0-0_
  6
CONTINUOUS
 62
     7
 10
284.805692319172
 20
229.502090300306
 30
0.0
 11
284.2790668387225
 21
229.8662342821645
 31
0.0
  0
LINE
  5
33F
  8
_0-0_
  6
CONTINUOUS
 62
     7
 10
284.2790668387225
 20
229.8662342821645
 30
0.0
 11
283.7326862020448
 21
230.1116540638781
 31
0.0
  0
LINE
  5
340
  8
_0-0_
  6
CONTINUOUS
 62
     7
 10
283.7326862020448
 20
230.1116540638781
 30
0.0
 11
283.1688188868726
 21
230.2491923436663
 31
0.0
  0
LINE
  5
341
  8
_0-0_
  6
CONTINUOUS
 62
     7
 10
283.1688188868726
 20
230.2491923436663
 30
0.0
 11
282.6182221499163
 21
230.27254874414
 31
0.0
  0
LINE
  5
342
  8
_0-0_
  6
CONTINUOUS
 62
     7
 10
282.6182221499163
 20
230.27254874414
 30
0.0
 11
282.3773265844067
 21
230.2456206429013
 31
0.0
  0
LINE
  5
343
  8
_0-0_
  6
CONTINUOUS
 62
     7
 10
282.3773265844067
 20
230.2456206429013
 30
0.0
 11
268.8509925454168
 21
228.0475913615656
 31
0.0
  0
LINE
  5
344
  8
_0-0_
  6
CONTINUOUS
 62
     7
 10
268.8509925454168
 20
228.0475913615656
 30
0.0
 11
266.3802370863341
 21
195.8118135643161
 31
0.0
  0
LINE
  5
345
  8
_0-0_
  6
CONTINUOUS
 62
     7
 10
269.9584925283221
 20
198.7383029374812
 30
0.0
 11
269.9584925283221
 21
191.3568797458917
 31
0.0
  0
LINE
  5
346
  8
_0-0_
  6
CONTINUOUS
 62
     7
 10
269.9584925283221
 20
191.3568797458917
 30
0.0
 11
276.3509925283222
 21
187.666168150097
 31
0.0
  0
LINE
  5
347
  8
_0-0_
  6
CONTINUOUS
 62
     7
 10
276.3509925283222
 20
187.666168150097
 30
0.0
 11
282.7434925283222
 21
191.3568797458918
 31
0.0
  0
LINE
  5
348
  8
_0-0_
  6
CONTINUOUS
 62
     7
 10
282.7434925283222
 20
191.3568797458918
 30
0.0
 11
282.7434925283221
 21
198.7383029374812
 31
0.0
  0
LINE
  5
349
  8
_0-0_
  6
CONTINUOUS
 62
     7
 10
282.7434925283221
 20
198.7383029374812
 30
0.0
 11
276.350992528322
 21
202.4290145332758
 31
0.0
  0
LINE
  5
34A
  8
_0-0_
  6
CONTINUOUS
 62
     7
 10
276.350992528322
 20
202.4290145332758
 30
0.0
 11
269.9584925283221
 21
198.7383029374812
 31
0.0
  0
LINE
  5
34B
  8
_0-0_
  6
CONTINUOUS
 62
     7
 10
278.6005030888556
 20
185.3038907137133
 30
0.0
 11
284.3438271658012
 21
186.6298415544057
 31
0.0
  0
LINE
  5
34C
  8
_0-0_
  6
CONTINUOUS
 62
     7
 10
276.8509925454168
 20
229.3475913615655
 30
0.0
 11
276.8509925454168
 21
232.0475913615654
 31
0.0
  0
LINE
  5
34D
  8
_0-0_
  6
CENTER1
 62
   152
 10
301.3509925454165
 20
222.0475913615657
 30
0.0
 11
301.3509925454165
 21
247.5475913615654
 31
0.0
  0
ARC
  5
34E
  8
_0-0_
  6
CONTINUOUS
 62
     7
 10
276.3509925283232
 20
195.0475913416863
 30
0.0
 40
9.999999984475457
 50
175.6170557896673
 51
283.0000001210521
  0
ARC
  5
34F
  8
_0-0_
  6
CONTINUOUS
 62
     7
 10
282.0943166223626
 20
196.3735422022584
 30
0.0
 40
10.00000000000036
 50
282.9999999999995
 51
292.2653623190226
  0
ARC
  5
350
  8
_0-0_
  6
CONTINUOUS
 62
     7
 10
276.3509925283221
 20
195.0475913416864
 30
0.0
 40
6.39250000000002
 50
240.0000000000003
 51
300.0000000000005
  0
ARC
  5
351
  8
_0-0_
  6
CONTINUOUS
 62
     7
 10
276.3509925283221
 20
195.0475913416864
 30
0.0
 40
6.39250000000002
 50
299.9999999999969
 51
359.999999999998
  0
ARC
  5
352
  8
_0-0_
  6
CONTINUOUS
 62
     7
 10
276.3509925283221
 20
195.0475913416864
 30
0.0
 40
6.392500000000041
 50
180.0000000000002
 51
240.0000000000001
  0
ARC
  5
353
  8
_0-0_
  6
CONTINUOUS
 62
     7
 10
276.3509925283221
 20
195.0475913416864
 30
0.0
 40
6.39250000000002
 50
120.0000000000005
 51
180.0
  0
ARC
  5
354
  8
_0-0_
  6
CONTINUOUS
 62
     7
 10
276.3509925283221
 20
195.0475913416864
 30
0.0
 40
6.392500000000041
 50
0.0
 51
59.99999999999946
  0
ARC
  5
355
  8
_0-0_
  6
CONTINUOUS
 62
     7
 10
276.3509925283221
 20
195.0475913416864
 30
0.0
 40
6.39250000000002
 50
59.99999999999934
 51
119.9999999999998
  0
ARC
  5
356
  8
_0-0_
  6
CONTINUOUS
 62
     7
 10
276.3509925283221
 20
195.0475913416864
 30
0.0
 40
18.0
 50
119.3660442050681
 51
7.340078480237178
  0
ARC
  5
357
  8
_0-0_
  6
CONTINUOUS
 62
     7
 10
276.3509925283221
 20
195.0475913416864
 30
0.0
 40
25.00000000000002
 50
109.1952341079944
 51
25.07975962993925
  0
ARC
  5
358
  8
_0-0_
  6
CONTINUOUS
 62
     7
 10
279.8509925936796
 20
232.0475913133022
 30
0.0
 40
3.000000048263209
 50
156.4218209183702
 51
180.000001207419
  0
ARC
  5
359
  8
_0-0_
  6
CONTINUOUS
 62
     7
 10
322.8509924971534
 20
232.0475913133022
 30
0.0
 40
3.000000048263189
 50
359.9999987925821
 51
23.57817695245422
  0
LINE
  5
35A
  8
_0-0_
  6
CONTINUOUS
 62
     7
 10
572.2550312492542
 20
170.0475913416864
 30
0.0
 11
596.2550312492543
 21
170.0475913416864
 31
0.0
  0
LINE
  5
35B
  8
_0-0_
  6
CONTINUOUS
 62
     7
 10
549.2550312492538
 20
245.0475913615652
 30
0.0
 11
619.2550312492538
 21
245.0475913615652
 31
0.0
  0
LINE
  5
35C
  8
_0-0_
  6
CONTINUOUS
 62
     7
 10
733.9899841959291
 20
75.31345482752164
 30
0.0
 11
733.9899841959291
 21
51.31345482752158
 31
0.0
  0
LINE
  5
35D
  8
_0-0_
  6
CONTINUOUS
 62
     7
 10
735.9899841959292
 20
49.31345482752158
 30
0.0
 11
781.9899841959292
 21
49.31345482752158
 31
0.0
  0
LINE
  5
35E
  8
_0-0_
  6
CONTINUOUS
 62
     7
 10
783.9899841959292
 20
51.31345482752158
 30
0.0
 11
783.9899841959292
 21
75.31345482752164
 31
0.0
  0
LINE
  5
35F
  8
_0-0_
  6
CONTINUOUS
 62
     7
 10
781.9899841959292
 20
77.31345482752158
 30
0.0
 11
735.9899841959291
 21
77.31345482752158
 31
0.0
  0
LINE
  5
360
  8
_0-0_
  6
CONTINUOUS
 62
     7
 10
748.9899842130228
 20
77.31345482752158
 30
0.0
 11
748.9899842130228
 21
90.3134548275213
 31
0.0
  0
LINE
  5
361
  8
_0-0_
  6
CONTINUOUS
 62
     7
 10
765.3824841959292
 20
87.70345482754283
 30
0.0
 11
765.3824841959292
 21
82.31345482754284
 31
0.0
  0
LINE
  5
362
  8
_0-0_
  6
CONTINUOUS
 62
     7
 10
764.9899841959292
 20
79.81345482752164
 30
0.0
 11
764.9899841959292
 21
77.31345482752158
 31
0.0
  0
LINE
  5
363
  8
_0-0_
  6
CONTINUOUS
 62
     7
 10
770.8516884638618
 20
77.31345482752158
 30
0.0
 11
770.8516884638618
 21
80.95956444997216
 31
0.0
  0
LINE
  5
364
  8
_0-0_
  6
CONTINUOUS
 62
     7
 10
770.8516884638618
 20
80.95956444997216
 30
0.0
 11
771.4911332579439
 21
81.41811513371573
 31
0.0
  0
LINE
  5
365
  8
_0-0_
  6
CONTINUOUS
 62
     7
 10
771.4911332579439
 20
81.41811513371573
 30
0.0
 11
772.0270595584738
 21
81.77661906633887
 31
0.0
  0
LINE
  5
366
  8
_0-0_
  6
CONTINUOUS
 62
     7
 10
772.0270595584738
 20
81.77661906633887
 30
0.0
 11
772.5290779886777
 21
82.09236929339886
 31
0.0
  0
LINE
  5
367
  8
_0-0_
  6
CONTINUOUS
 62
     7
 10
772.5290779886777
 20
82.09236929339886
 30
0.0
 11
772.9837508356643
 21
82.36241350885336
 31
0.0
  0
LINE
  5
368
  8
_0-0_
  6
CONTINUOUS
 62
     7
 10
772.9837508356643
 20
82.36241350885336
 30
0.0
 11
773.3935623278146
 21
82.59338852114831
 31
0.0
  0
LINE
  5
369
  8
_0-0_
  6
CONTINUOUS
 62
     7
 10
773.3935623278137
 20
85.40340374621832
 30
0.0
 11
773.0055346097263
 21
85.21304082617917
 31
0.0
  0
LINE
  5
36A
  8
_0-0_
  6
CONTINUOUS
 62
     7
 10
773.0055346097263
 20
85.21304082617917
 30
0.0
 11
772.5813371074942
 21
84.9950777193041
 31
0.0
  0
LINE
  5
36B
  8
_0-0_
  6
CONTINUOUS
 62
     7
 10
772.5813371074942
 20
84.9950777193041
 30
0.0
 11
771.9529574626587
 21
84.6525633786706
 31
0.0
  0
LINE
  5
36C
  8
_0-0_
  6
CONTINUOUS
 62
     7
 10
771.9529574626587
 20
84.6525633786706
 30
0.0
 11
771.2747716368314
 21
84.25559820259713
 31
0.0
  0
LINE
  5
36D
  8
_0-0_
  6
CONTINUOUS
 62
     7
 10
771.2747716368314
 20
84.25559820259713
 30
0.0
 11
770.5879389996508
 21
83.82276947431916
 31
0.0
  0
LINE
  5
36E
  8
_0-0_
  6
CONTINUOUS
 62
     7
 10
770.5879389996508
 20
83.82276947431916
 30
0.0
 11
769.8783823920717
 21
83.34125286042786
 31
0.0
  0
LINE
  5
36F
  8
_0-0_
  6
CONTINUOUS
 62
     7
 10
769.8783823920717
 20
83.34125286042786
 30
0.0
 11
769.1992818442625
 21
82.84509898357544
 31
0.0
  0
LINE
  5
370
  8
_0-0_
  6
CONTINUOUS
 62
     7
 10
769.1992818442625
 20
82.84509898357544
 30
0.0
 11
768.522275914766
 21
82.31345482752147
 31
0.0
  0
LINE
  5
371
  8
_0-0_
  6
CONTINUOUS
 62
     7
 10
768.522275914766
 20
82.31345482752147
 30
0.0
 11
748.9899842114548
 21
82.31345482752147
 31
0.0
  0
LINE
  5
372
  8
_0-0_
  6
CONTINUOUS
 62
     7
 10
748.9899842114548
 20
79.81345482752141
 30
0.0
 11
770.8516884638618
 21
79.81345482752141
 31
0.0
  0
LINE
  5
373
  8
_0-0_
  6
CONTINUOUS
 62
     7
 10
765.3824841959292
 20
87.13249975667082
 30
0.0
 11
764.6449935820149
 21
87.3558202323461
 31
0.0
  0
LINE
  5
374
  8
_0-0_
  6
CONTINUOUS
 62
     7
 10
764.6449935820149
 20
87.3558202323461
 30
0.0
 11
763.9003239535848
 21
87.53059606047367
 31
0.0
  0
LINE
  5
375
  8
_0-0_
  6
CONTINUOUS
 62
     7
 10
763.9003239535848
 20
87.53059606047367
 30
0.0
 11
763.157550668047
 21
87.64707879120346
 31
0.0
  0
LINE
  5
376
  8
_0-0_
  6
CONTINUOUS
 62
     7
 10
763.157550668047
 20
87.64707879120346
 30
0.0
 11
762.4134810410303
 21
87.7003467612468
 31
0.0
  0
LINE
  5
377
  8
_0-0_
  6
CONTINUOUS
 62
     7
 10
762.4134810410303
 20
87.7003467612468
 30
0.0
 11
762.1862341959292
 21
87.70345482754283
 31
0.0
  0
LINE
  5
378
  8
_0-0_
  6
CONTINUOUS
 62
     7
 10
762.1862341959292
 20
87.70345482754283
 30
0.0
 11
761.3657031747896
 21
87.6631365777705
 31
0.0
  0
LINE
  5
379
  8
_0-0_
  6
CONTINUOUS
 62
     7
 10
761.3657031747896
 20
87.6631365777705
 30
0.0
 11
760.5559173978985
 21
87.54674448422958
 31
0.0
  0
LINE
  5
37A
  8
_0-0_
  6
CONTINUOUS
 62
     7
 10
760.5559173978985
 20
87.54674448422958
 30
0.0
 11
759.7662925918867
 21
87.36625494055886
 31
0.0
  0
LINE
  5
37B
  8
_0-0_
  6
CONTINUOUS
 62
     7
 10
759.7662925918867
 20
87.36625494055886
 30
0.0
 11
758.9899841959293
 21
87.13249975667082
 31
0.0
  0
LINE
  5
37C
  8
_0-0_
  6
CONTINUOUS
 62
     7
 10
758.9899841959293
 20
87.13249975667082
 30
0.0
 11
758.9899841959292
 21
82.31345482754284
 31
0.0
  0
LINE
  5
37D
  8
_0-0_
  6
CENTER1
 62
   152
 10
758.9899841959292
 20
84.81345482752164
 30
0.0
 11
758.9899841959292
 21
30.31345482754284
 31
0.0
  0
LINE
  5
37E
  8
_0-0_
  6
CONTINUOUS
 62
     7
 10
758.2478791039017
 20
43.96364490036933
 30
0.0
 11
757.4985500792282
 21
44.13951432790259
 31
0.0
  0
LINE
  5
37F
  8
_0-0_
  6
CONTINUOUS
 62
     7
 10
757.4985500792282
 20
44.13951432790259
 30
0.0
 11
756.7511292558338
 21
44.25672594261022
 31
0.0
  0
LINE
  5
380
  8
_0-0_
  6
CONTINUOUS
 62
     7
 10
756.7511292558338
 20
44.25672594261022
 30
0.0
 11
756.0024039747045
 21
44.31032728637354
 31
0.0
  0
LINE
  5
381
  8
_0-0_
  6
CONTINUOUS
 62
     7
 10
756.0024039747045
 20
44.31032728637354
 30
0.0
 11
755.7737341959293
 21
44.3134548275213
 31
0.0
  0
LINE
  5
382
  8
_0-0_
  6
CONTINUOUS
 62
     7
 10
755.7737341959293
 20
44.3134548275213
 30
0.0
 11
754.9480688391079
 21
44.27288429304161
 31
0.0
  0
LINE
  5
383
  8
_0-0_
  6
CONTINUOUS
 62
     7
 10
754.9480688391079
 20
44.27288429304161
 30
0.0
 11
754.1332159631045
 21
44.15576389543475
 31
0.0
  0
LINE
  5
384
  8
_0-0_
  6
CONTINUOUS
 62
     7
 10
754.1332159631045
 20
44.15576389543475
 30
0.0
 11
753.3386502118849
 21
43.97414496862024
 31
0.0
  0
LINE
  5
385
  8
_0-0_
  6
CONTINUOUS
 62
     7
 10
753.3386502118849
 20
43.97414496862024
 30
0.0
 11
752.5574841959292
 21
43.73892710075023
 31
0.0
  0
LINE
  5
386
  8
_0-0_
  6
CONTINUOUS
 62
     7
 10
752.5574841959293
 20
44.3134548275213
 30
0.0
 11
752.5574841959293
 21
37.69345482752124
 31
0.0
  0
LINE
  5
387
  8
_0-0_
  6
CONTINUOUS
 62
     7
 10
752.5574841959293
 20
37.69345482752124
 30
0.0
 11
765.422484195929
 21
37.69345482752124
 31
0.0
  0
LINE
  5
388
  8
_0-0_
  6
CONTINUOUS
 62
     7
 10
765.422484195929
 20
37.69345482752124
 30
0.0
 11
765.422484195929
 21
44.3134548275213
 31
0.0
  0
LINE
  5
389
  8
_0-0_
  6
CONTINUOUS
 62
     7
 10
765.4224841959292
 20
43.73892710075023
 30
0.0
 11
764.6803791039017
 21
43.96364490036933
 31
0.0
  0
LINE
  5
38A
  8
_0-0_
  6
CONTINUOUS
 62
     7
 10
764.6803791039017
 20
43.96364490036933
 30
0.0
 11
763.9310500792282
 21
44.13951432790259
 31
0.0
  0
LINE
  5
38B
  8
_0-0_
  6
CONTINUOUS
 62
     7
 10
763.9310500792282
 20
44.13951432790259
 30
0.0
 11
763.1836292558338
 21
44.25672594261022
 31
0.0
  0
LINE
  5
38C
  8
_0-0_
  6
CONTINUOUS
 62
     7
 10
763.1836292558338
 20
44.25672594261022
 30
0.0
 11
762.4349039747044
 21
44.31032728637354
 31
0.0
  0
LINE
  5
38D
  8
_0-0_
  6
CONTINUOUS
 62
     7
 10
762.4349039747044
 20
44.31032728637354
 30
0.0
 11
762.206234195929
 21
44.3134548275213
 31
0.0
  0
LINE
  5
38E
  8
_0-0_
  6
CONTINUOUS
 62
     7
 10
762.206234195929
 20
44.3134548275213
 30
0.0
 11
761.380568839108
 21
44.27288429304161
 31
0.0
  0
LINE
  5
38F
  8
_0-0_
  6
CONTINUOUS
 62
     7
 10
761.380568839108
 20
44.27288429304161
 30
0.0
 11
761.2858867181284
 21
44.26311191490976
 31
0.0
  0
LINE
  5
390
  8
_0-0_
  6
CONTINUOUS
 62
     7
 10
761.2858867181284
 20
44.26311191490976
 30
0.0
 11
760.5657159631046
 21
44.15576389543475
 31
0.0
  0
LINE
  5
391
  8
_0-0_
  6
CONTINUOUS
 62
     7
 10
760.5657159631046
 20
44.15576389543475
 30
0.0
 11
759.771150211885
 21
43.97414496862029
 31
0.0
  0
LINE
  5
392
  8
_0-0_
  6
CONTINUOUS
 62
     7
 10
759.771150211885
 20
43.97414496862029
 30
0.0
 11
758.9899841959294
 21
43.73892710075023
 31
0.0
  0
LINE
  5
393
  8
_0-0_
  6
CONTINUOUS
 62
     7
 10
758.9899841959294
 20
43.73892710075023
 30
0.0
 11
758.9899841959294
 21
38.2679825542923
 31
0.0
  0
LINE
  5
394
  8
_0-0_
  6
CONTINUOUS
 62
     7
 10
758.9899841959294
 20
38.2679825542923
 30
0.0
 11
758.2088181799736
 21
38.0327646864223
 31
0.0
  0
LINE
  5
395
  8
_0-0_
  6
CONTINUOUS
 62
     7
 10
758.2088181799736
 20
38.0327646864223
 30
0.0
 11
757.414252428754
 21
37.85114575960779
 31
0.0
  0
LINE
  5
396
  8
_0-0_
  6
CONTINUOUS
 62
     7
 10
757.414252428754
 20
37.85114575960779
 30
0.0
 11
756.5993995527505
 21
37.73402536200092
 31
0.0
  0
LINE
  5
397
  8
_0-0_
  6
CONTINUOUS
 62
     7
 10
756.5993995527505
 20
37.73402536200092
 30
0.0
 11
755.7737341959293
 21
37.69345482752124
 31
0.0
  0
LINE
  5
398
  8
_0-0_
  6
CONTINUOUS
 62
     7
 10
755.7737341959293
 20
37.69345482752124
 30
0.0
 11
755.5450644171539
 21
37.69658236866894
 31
0.0
  0
LINE
  5
399
  8
_0-0_
  6
CONTINUOUS
 62
     7
 10
755.5450644171539
 20
37.69658236866894
 30
0.0
 11
754.7963391360245
 21
37.75018371243232
 31
0.0
  0
LINE
  5
39A
  8
_0-0_
  6
CONTINUOUS
 62
     7
 10
754.7963391360245
 20
37.75018371243232
 30
0.0
 11
754.0489183126301
 21
37.86739532713995
 31
0.0
  0
LINE
  5
39B
  8
_0-0_
  6
CONTINUOUS
 62
     7
 10
754.0489183126301
 20
37.86739532713995
 30
0.0
 11
753.2995892879567
 21
38.0432647546732
 31
0.0
  0
LINE
  5
39C
  8
_0-0_
  6
CONTINUOUS
 62
     7
 10
753.2995892879567
 20
38.0432647546732
 30
0.0
 11
752.5574841959292
 21
38.2679825542923
 31
0.0
  0
LINE
  5
39D
  8
_0-0_
  6
CONTINUOUS
 62
     7
 10
752.9899841959292
 20
37.69345482752124
 30
0.0
 11
752.9899841959292
 21
37.19345482752135
 31
0.0
  0
LINE
  5
39E
  8
_0-0_
  6
CONTINUOUS
 62
     7
 10
754.4899841959292
 20
35.69345482752135
 30
0.0
 11
763.4899841893738
 21
35.69345482752135
 31
0.0
  0
LINE
  5
39F
  8
_0-0_
  6
CONTINUOUS
 62
     7
 10
762.9880187413839
 20
35.69345482752135
 30
0.0
 11
762.9879841959294
 21
35.31345482754284
 31
0.0
  0
LINE
  5
3A0
  8
_0-0_
  6
CONTINUOUS
 62
     7
 10
762.9879841959294
 20
35.31345482754284
 30
0.0
 11
754.991984195929
 21
35.31345482754284
 31
0.0
  0
LINE
  5
3A1
  8
_0-0_
  6
CONTINUOUS
 62
     7
 10
754.991984195929
 20
35.31345482754284
 30
0.0
 11
754.9919496504745
 21
35.69345482752135
 31
0.0
  0
LINE
  5
3A2
  8
_0-0_
  6
CONTINUOUS
 62
     7
 10
758.9899841959294
 20
38.2679825542923
 30
0.0
 11
759.7320892879568
 21
38.04326475467315
 31
0.0
  0
LINE
  5
3A3
  8
_0-0_
  6
CONTINUOUS
 62
     7
 10
759.7320892879568
 20
38.04326475467315
 30
0.0
 11
760.4814183126304
 21
37.86739532713989
 31
0.0
  0
LINE
  5
3A4
  8
_0-0_
  6
CONTINUOUS
 62
     7
 10
760.4814183126304
 20
37.86739532713989
 30
0.0
 11
761.2288391360246
 21
37.75018371243232
 31
0.0
  0
LINE
  5
3A5
  8
_0-0_
  6
CONTINUOUS
 62
     7
 10
761.2288391360246
 20
37.75018371243232
 30
0.0
 11
761.9775644171539
 21
37.69658236866894
 31
0.0
  0
LINE
  5
3A6
  8
_0-0_
  6
CONTINUOUS
 62
     7
 10
761.9775644171539
 20
37.69658236866894
 30
0.0
 11
762.206234195929
 21
37.69345482752124
 31
0.0
  0
LINE
  5
3A7
  8
_0-0_
  6
CONTINUOUS
 62
     7
 10
762.206234195929
 20
37.69345482752124
 30
0.0
 11
763.0318995527505
 21
37.73402536200092
 31
0.0
  0
LINE
  5
3A8
  8
_0-0_
  6
CONTINUOUS
 62
     7
 10
763.0318995527505
 20
37.73402536200092
 30
0.0
 11
763.8467524287539
 21
37.85114575960779
 31
0.0
  0
LINE
  5
3A9
  8
_0-0_
  6
CONTINUOUS
 62
     7
 10
763.8467524287539
 20
37.85114575960779
 30
0.0
 11
764.6413181799735
 21
38.0327646864223
 31
0.0
  0
LINE
  5
3AA
  8
_0-0_
  6
CONTINUOUS
 62
     7
 10
764.6413181799735
 20
38.0327646864223
 30
0.0
 11
765.4224841959292
 21
38.2679825542923
 31
0.0
  0
LINE
  5
3AB
  8
_0-0_
  6
CONTINUOUS
 62
     7
 10
764.9899841959292
 20
37.69345482752124
 30
0.0
 11
764.9899841959292
 21
37.19345482752135
 31
0.0
  0
LINE
  5
3AC
  8
_0-0_
  6
CONTINUOUS
 62
     7
 10
748.9899842130228
 20
36.31345482752101
 30
0.0
 11
748.9899842130228
 21
49.31345482752158
 31
0.0
  0
LINE
  5
3AD
  8
_0-0_
  6
CONTINUOUS
 62
     7
 10
751.2934064521467
 20
49.31345482752158
 30
0.0
 11
751.2934064521467
 21
46.81345482752135
 31
0.0
  0
LINE
  5
3AE
  8
_0-0_
  6
CONTINUOUS
 62
     7
 10
752.9899841959291
 20
46.81345482752158
 30
0.0
 11
752.9899841959291
 21
49.31345482752158
 31
0.0
  0
LINE
  5
3AF
  8
_0-0_
  6
CONTINUOUS
 62
     7
 10
748.9899842114548
 20
46.81345482752135
 30
0.0
 11
770.8516884638618
 21
46.81345482752135
 31
0.0
  0
LINE
  5
3B0
  8
_0-0_
  6
CONTINUOUS
 62
     7
 10
770.8516884638618
 20
45.66734520507003
 30
0.0
 11
771.4680058022502
 21
45.2247827734393
 31
0.0
  0
LINE
  5
3B1
  8
_0-0_
  6
CONTINUOUS
 62
     7
 10
771.4680058022502
 20
45.2247827734393
 30
0.0
 11
772.0626235178298
 21
44.82729603650262
 31
0.0
  0
LINE
  5
3B2
  8
_0-0_
  6
CONTINUOUS
 62
     7
 10
772.0626235178298
 20
44.82729603650262
 30
0.0
 11
772.7646515618596
 21
44.39278076789219
 31
0.0
  0
LINE
  5
3B3
  8
_0-0_
  6
CONTINUOUS
 62
     7
 10
772.7646515618596
 20
44.39278076789219
 30
0.0
 11
773.3935623278146
 21
44.03352113389394
 31
0.0
  0
LINE
  5
3B4
  8
_0-0_
  6
CONTINUOUS
 62
     7
 10
773.3935623278146
 20
41.22350590882354
 30
0.0
 11
772.9742986751318
 21
41.42957046404558
 31
0.0
  0
LINE
  5
3B5
  8
_0-0_
  6
CONTINUOUS
 62
     7
 10
772.9742986751318
 20
41.42957046404558
 30
0.0
 11
772.5103492411587
 21
41.66933366465713
 31
0.0
  0
LINE
  5
3B6
  8
_0-0_
  6
CONTINUOUS
 62
     7
 10
772.5103492411587
 20
41.66933366465713
 30
0.0
 11
771.9912528491793
 21
41.9527585054708
 31
0.0
  0
LINE
  5
3B7
  8
_0-0_
  6
CONTINUOUS
 62
     7
 10
771.9912528491793
 20
41.9527585054708
 30
0.0
 11
771.4378146412026
 21
42.27318298896705
 31
0.0
  0
LINE
  5
3B8
  8
_0-0_
  6
CONTINUOUS
 62
     7
 10
771.4378146412026
 20
42.27318298896705
 30
0.0
 11
770.8753466759925
 21
42.6191361660351
 31
0.0
  0
LINE
  5
3B9
  8
_0-0_
  6
CONTINUOUS
 62
     7
 10
770.8753466759925
 20
42.6191361660351
 30
0.0
 11
770.293982661824
 21
42.9991854212754
 31
0.0
  0
LINE
  5
3BA
  8
_0-0_
  6
CONTINUOUS
 62
     7
 10
770.293982661824
 20
42.9991854212754
 30
0.0
 11
769.6849963848797
 21
43.4233682169239
 31
0.0
  0
LINE
  5
3BB
  8
_0-0_
  6
CONTINUOUS
 62
     7
 10
769.6849963848797
 20
43.4233682169239
 30
0.0
 11
769.0693709176189
 21
43.88087139430235
 31
0.0
  0
LINE
  5
3BC
  8
_0-0_
  6
CONTINUOUS
 62
     7
 10
769.0693709176189
 20
43.88087139430235
 30
0.0
 11
768.5222759147653
 21
44.31345482752141
 31
0.0
  0
LINE
  5
3BD
  8
_0-0_
  6
CONTINUOUS
 62
     7
 10
768.5222759147653
 20
44.31345482752141
 30
0.0
 11
748.9899842114548
 21
44.31345482752141
 31
0.0
  0
LINE
  5
3BE
  8
_0-0_
  6
CONTINUOUS
 62
     7
 10
758.2478791039017
 20
43.96364490036933
 30
0.0
 11
758.9899841959294
 21
43.73892710075023
 31
0.0
  0
LINE
  5
3BF
  8
_0-0_
  6
CONTINUOUS
 62
     7
 10
764.9899841959292
 20
46.81345482752158
 30
0.0
 11
764.9899841959292
 21
49.31345482752158
 31
0.0
  0
LINE
  5
3C0
  8
_0-0_
  6
CONTINUOUS
 62
     7
 10
770.8516884638618
 20
49.31345482752164
 30
0.0
 11
770.8516884638618
 21
45.66734520507003
 31
0.0
  0
LINE
  5
3C1
  8
_0-0_
  6
CONTINUOUS
 62
     7
 10
791.1032328670751
 20
42.49515293746202
 30
0.0
 11
791.680238703362
 21
42.70144758050583
 31
0.0
  0
LINE
  5
3C2
  8
_0-0_
  6
CONTINUOUS
 62
     7
 10
791.680238703362
 20
42.70144758050583
 30
0.0
 11
792.3414451275188
 21
42.96039164308678
 31
0.0
  0
LINE
  5
3C3
  8
_0-0_
  6
CONTINUOUS
 62
     7
 10
792.3414451275188
 20
42.96039164308678
 30
0.0
 11
793.0696513652244
 21
43.27450165113862
 31
0.0
  0
LINE
  5
3C4
  8
_0-0_
  6
CONTINUOUS
 62
     7
 10
793.0696513652244
 20
43.27450165113862
 30
0.0
 11
793.8524600516935
 21
43.64845219849553
 31
0.0
  0
LINE
  5
3C5
  8
_0-0_
  6
CONTINUOUS
 62
     7
 10
793.8524600516935
 20
43.64845219849553
 30
0.0
 11
794.676612927717
 21
44.08388954015982
 31
0.0
  0
LINE
  5
3C6
  8
_0-0_
  6
CONTINUOUS
 62
     7
 10
794.676612927717
 20
44.08388954015982
 30
0.0
 11
795.5215713406551
 21
44.57786040626405
 31
0.0
  0
LINE
  5
3C7
  8
_0-0_
  6
CONTINUOUS
 62
     7
 10
795.5215713406551
 20
44.57786040626405
 30
0.0
 11
796.3994399251226
 21
45.14799954731092
 31
0.0
  0
LINE
  5
3C8
  8
_0-0_
  6
CONTINUOUS
 62
     7
 10
796.3994399251226
 20
45.14799954731092
 30
0.0
 11
797.2739743985389
 21
45.77738319257332
 31
0.0
  0
LINE
  5
3C9
  8
_0-0_
  6
CONTINUOUS
 62
     7
 10
797.2739743985389
 20
45.77738319257332
 30
0.0
 11
798.1290270233062
 21
46.45856033336884
 31
0.0
  0
LINE
  5
3CA
  8
_0-0_
  6
CONTINUOUS
 62
     7
 10
798.1290270233062
 20
46.45856033336884
 30
0.0
 11
798.9638418063633
 21
47.19575991442298
 31
0.0
  0
LINE
  5
3CB
  8
_0-0_
  6
CONTINUOUS
 62
     7
 10
798.9638418063633
 20
47.19575991442298
 30
0.0
 11
799.76348690492
 21
47.97733364813746
 31
0.0
  0
LINE
  5
3CC
  8
_0-0_
  6
CONTINUOUS
 62
     7
 10
799.76348690492
 20
44.56654540679943
 30
0.0
 11
798.992923554692
 21
43.94442566728191
 31
0.0
  0
LINE
  5
3CD
  8
_0-0_
  6
CONTINUOUS
 62
     7
 10
798.992923554692
 20
43.94442566728191
 30
0.0
 11
798.2012117650918
 21
43.35622527371447
 31
0.0
  0
LINE
  5
3CE
  8
_0-0_
  6
CONTINUOUS
 62
     7
 10
798.2012117650918
 20
43.35622527371447
 30
0.0
 11
797.3724164112145
 21
42.79135200101996
 31
0.0
  0
LINE
  5
3CF
  8
_0-0_
  6
CONTINUOUS
 62
     7
 10
797.3724164112145
 20
42.79135200101996
 30
0.0
 11
796.5352900559872
 21
42.26908975497707
 31
0.0
  0
LINE
  5
3D0
  8
_0-0_
  6
CONTINUOUS
 62
     7
 10
796.5352900559872
 20
42.26908975497707
 30
0.0
 11
795.7186811178026
 21
41.80336911143064
 31
0.0
  0
LINE
  5
3D1
  8
_0-0_
  6
CONTINUOUS
 62
     7
 10
795.7186811178026
 20
41.80336911143064
 30
0.0
 11
794.9132586276462
 21
41.38329121520752
 31
0.0
  0
LINE
  5
3D2
  8
_0-0_
  6
CONTINUOUS
 62
     7
 10
794.9132586276462
 20
41.38329121520752
 30
0.0
 11
794.0991946671869
 21
40.99642072620895
 31
0.0
  0
LINE
  5
3D3
  8
_0-0_
  6
CONTINUOUS
 62
     7
 10
794.0991946671869
 20
40.99642072620895
 30
0.0
 11
793.3223501426503
 21
40.66048711563957
 31
0.0
  0
LINE
  5
3D4
  8
_0-0_
  6
CONTINUOUS
 62
     7
 10
793.3223501426503
 20
40.66048711563957
 30
0.0
 11
792.7027664629534
 21
40.41506404999302
 31
0.0
  0
LINE
  5
3D5
  8
_0-0_
  6
CONTINUOUS
 62
     7
 10
792.7027664629534
 20
40.41506404999302
 30
0.0
 11
792.1269208124531
 21
40.2041436569807
 31
0.0
  0
LINE
  5
3D6
  8
_0-0_
  6
CONTINUOUS
 62
     7
 10
792.1269208124531
 20
40.2041436569807
 30
0.0
 11
791.5844613389518
 21
40.02024250554041
 31
0.0
  0
LINE
  5
3D7
  8
_0-0_
  6
CONTINUOUS
 62
     7
 10
791.5844613389518
 20
40.02024250554041
 30
0.0
 11
791.1032328670751
 21
39.86880312216118
 31
0.0
  0
LINE
  5
3D8
  8
_0-0_
  6
CONTINUOUS
 62
     7
 10
818.9899842130224
 20
36.31345482752101
 30
0.0
 11
818.9899842130224
 21
90.3134548275213
 31
0.0
  0
LINE
  5
3D9
  8
_0-0_
  6
CONTINUOUS
 62
     7
 10
799.76348690492
 20
82.06036424824276
 30
0.0
 11
799.078734936058
 21
82.61573582806466
 31
0.0
  0
LINE
  5
3DA
  8
_0-0_
  6
CONTINUOUS
 62
     7
 10
799.078734936058
 20
82.61573582806466
 30
0.0
 11
798.3767501191035
 21
83.14451548406873
 31
0.0
  0
LINE
  5
3DB
  8
_0-0_
  6
CONTINUOUS
 62
     7
 10
798.3767501191035
 20
83.14451548406873
 30
0.0
 11
797.4712894358445
 21
83.77027757062757
 31
0.0
  0
LINE
  5
3DC
  8
_0-0_
  6
CONTINUOUS
 62
     7
 10
797.4712894358445
 20
83.77027757062757
 30
0.0
 11
796.5526719924294
 21
84.34691023593962
 31
0.0
  0
LINE
  5
3DD
  8
_0-0_
  6
CONTINUOUS
 62
     7
 10
796.5526719924294
 20
84.34691023593962
 30
0.0
 11
795.6375955665017
 21
84.86764582969835
 31
0.0
  0
LINE
  5
3DE
  8
_0-0_
  6
CONTINUOUS
 62
     7
 10
795.6375955665017
 20
84.86764582969835
 30
0.0
 11
794.7597911095037
 21
85.31894187993413
 31
0.0
  0
LINE
  5
3DF
  8
_0-0_
  6
CONTINUOUS
 62
     7
 10
794.7597911095037
 20
85.31894187993413
 30
0.0
 11
793.908813829177
 21
85.7154101975027
 31
0.0
  0
LINE
  5
3E0
  8
_0-0_
  6
CONTINUOUS
 62
     7
 10
793.908813829177
 20
85.7154101975027
 30
0.0
 11
793.1049337823049
 21
86.05477612487437
 31
0.0
  0
LINE
  5
3E1
  8
_0-0_
  6
CONTINUOUS
 62
     7
 10
793.1049337823049
 20
86.05477612487437
 30
0.0
 11
792.3608755701479
 21
86.33893180926492
 31
0.0
  0
LINE
  5
3E2
  8
_0-0_
  6
CONTINUOUS
 62
     7
 10
792.3608755701479
 20
86.33893180926492
 30
0.0
 11
791.6881101450923
 21
86.5725189883085
 31
0.0
  0
LINE
  5
3E3
  8
_0-0_
  6
CONTINUOUS
 62
     7
 10
791.6881101450923
 20
86.5725189883085
 30
0.0
 11
791.1032328670751
 21
86.75810653288102
 31
0.0
  0
LINE
  5
3E4
  8
_0-0_
  6
CONTINUOUS
 62
     7
 10
791.103232867076
 20
84.13175671757995
 30
0.0
 11
791.581959783485
 21
83.96198763102842
 31
0.0
  0
LINE
  5
3E5
  8
_0-0_
  6
CONTINUOUS
 62
     7
 10
791.581959783485
 20
83.96198763102842
 30
0.0
 11
792.2767541246069
 21
83.69275544647178
 31
0.0
  0
LINE
  5
3E6
  8
_0-0_
  6
CONTINUOUS
 62
     7
 10
792.2767541246069
 20
83.69275544647178
 30
0.0
 11
793.0547522690881
 21
83.35878767477618
 31
0.0
  0
LINE
  5
3E7
  8
_0-0_
  6
CONTINUOUS
 62
     7
 10
793.0547522690881
 20
83.35878767477618
 30
0.0
 11
793.8925304829056
 21
82.9587997563545
 31
0.0
  0
LINE
  5
3E8
  8
_0-0_
  6
CONTINUOUS
 62
     7
 10
793.8925304829056
 20
82.9587997563545
 30
0.0
 11
794.7711118656105
 21
82.49000400519532
 31
0.0
  0
LINE
  5
3E9
  8
_0-0_
  6
CONTINUOUS
 62
     7
 10
794.7711118656105
 20
82.49000400519532
 30
0.0
 11
795.6769875856398
 21
81.9517539818197
 31
0.0
  0
LINE
  5
3EA
  8
_0-0_
  6
CONTINUOUS
 62
     7
 10
795.6769875856398
 20
81.9517539818197
 30
0.0
 11
796.586864704969
 21
81.35004546632115
 31
0.0
  0
LINE
  5
3EB
  8
_0-0_
  6
CONTINUOUS
 62
     7
 10
796.586864704969
 20
81.35004546632115
 30
0.0
 11
797.6855593102825
 21
80.52939076807581
 31
0.0
  0
LINE
  5
3EC
  8
_0-0_
  6
CONTINUOUS
 62
     7
 10
797.6855593102825
 20
80.52939076807581
 30
0.0
 11
798.7520611684338
 21
79.62413206505943
 31
0.0
  0
LINE
  5
3ED
  8
_0-0_
  6
CONTINUOUS
 62
     7
 10
798.7520611684338
 20
79.62413206505943
 30
0.0
 11
799.76348690492
 21
78.64957600690474
 31
0.0
  0
LINE
  5
3EE
  8
_0-0_
  6
CONTINUOUS
 62
     7
 10
810.9899842130224
 20
98.3134548275213
 30
0.0
 11
756.9899842130228
 21
98.3134548275213
 31
0.0
  0
LINE
  5
3EF
  8
_0-0_
  6
CONTINUOUS
 62
     7
 10
752.9899841959291
 20
79.81345482752164
 30
0.0
 11
752.9899841959291
 21
77.31345482752158
 31
0.0
  0
LINE
  5
3F0
  8
_0-0_
  6
CONTINUOUS
 62
     7
 10
751.2934064521467
 20
77.31345482752158
 30
0.0
 11
751.2934064521467
 21
79.81345482752141
 31
0.0
  0
LINE
  5
3F1
  8
_0-0_
  6
CONTINUOUS
 62
     7
 10
752.5974841959292
 20
82.31345482754284
 30
0.0
 11
752.5974841959292
 21
87.70345482754283
 31
0.0
  0
LINE
  5
3F2
  8
_0-0_
  6
CONTINUOUS
 62
     7
 10
752.5974841959292
 20
87.70345482754283
 30
0.0
 11
765.3824841959292
 21
87.70345482754283
 31
0.0
  0
LINE
  5
3F3
  8
_0-0_
  6
CONTINUOUS
 62
     7
 10
758.9899841959293
 20
87.13249975667082
 30
0.0
 11
758.2524935820148
 21
87.3558202323461
 31
0.0
  0
LINE
  5
3F4
  8
_0-0_
  6
CONTINUOUS
 62
     7
 10
758.2524935820148
 20
87.3558202323461
 30
0.0
 11
757.5078239535849
 21
87.53059606047367
 31
0.0
  0
LINE
  5
3F5
  8
_0-0_
  6
CONTINUOUS
 62
     7
 10
757.5078239535849
 20
87.53059606047367
 30
0.0
 11
756.765050668047
 21
87.64707879120346
 31
0.0
  0
LINE
  5
3F6
  8
_0-0_
  6
CONTINUOUS
 62
     7
 10
756.765050668047
 20
87.64707879120346
 30
0.0
 11
756.0209810410303
 21
87.7003467612468
 31
0.0
  0
LINE
  5
3F7
  8
_0-0_
  6
CONTINUOUS
 62
     7
 10
756.0209810410303
 20
87.7003467612468
 30
0.0
 11
755.7937341959291
 21
87.70345482754283
 31
0.0
  0
LINE
  5
3F8
  8
_0-0_
  6
CONTINUOUS
 62
     7
 10
755.7937341959291
 20
87.70345482754283
 30
0.0
 11
754.9732031747897
 21
87.6631365777705
 31
0.0
  0
LINE
  5
3F9
  8
_0-0_
  6
CONTINUOUS
 62
     7
 10
754.9732031747897
 20
87.6631365777705
 30
0.0
 11
754.1634173978985
 21
87.54674448422958
 31
0.0
  0
LINE
  5
3FA
  8
_0-0_
  6
CONTINUOUS
 62
     7
 10
754.1634173978985
 20
87.54674448422958
 30
0.0
 11
753.3737925918867
 21
87.36625494055886
 31
0.0
  0
LINE
  5
3FB
  8
_0-0_
  6
CONTINUOUS
 62
     7
 10
753.3737925918867
 20
87.36625494055886
 30
0.0
 11
752.5974841959292
 21
87.13249975667082
 31
0.0
  0
LINE
  5
3FC
  8
_0-0_
  6
CONTINUOUS
 62
     7
 10
810.9899842130224
 20
28.31345482752101
 30
0.0
 11
756.9899842130228
 21
28.31345482752101
 31
0.0
  0
ARC
  5
3FD
  8
_0-0_
  6
CONTINUOUS
 62
     7
 10
757.9899842130228
 20
89.3134548275213
 30
0.0
 40
4.500000000000047
 50
339.0362156824143
 51
200.9637843175852
  0
ARC
  5
3FE
  8
_0-0_
  6
CONTINUOUS
 62
     7
 10
810.9899842130224
 20
36.31345482752101
 30
0.0
 40
8.0
 50
270.0
 51
359.9999999999999
  0
CIRCLE
  5
3FF
  8
_0-0_
  6
CONTINUOUS
 62
     7
 10
809.9899842130224
 20
37.31345482752101
 30
0.0
 40
4.5
  0
ARC
  5
400
  8
_0-0_
  6
CONTINUOUS
 62
     7
 10
757.9899842130228
 20
37.31345482752101
 30
0.0
 40
4.500000000000027
 50
198.1807530492883
 51
333.6122000390625
  0
ARC
  5
401
  8
_0-0_
  6
CONTINUOUS
 62
     7
 10
810.9899842130224
 20
90.3134548275213
 30
0.0
 40
8.0
 50
0.0000000000001018
 51
90.0
  0
CIRCLE
  5
402
  8
_0-0_
  6
CONTINUOUS
 62
     7
 10
809.9899842130224
 20
89.3134548275213
 30
0.0
 40
4.5
  0
ARC
  5
403
  8
_0-0_
  6
CONTINUOUS
 62
     7
 10
756.9899842130228
 20
90.3134548275213
 30
0.0
 40
8.0
 50
90.0
 51
180.0000000000001
  0
ARC
  5
404
  8
_0-0_
  6
CONTINUOUS
 62
     7
 10
756.9899842130228
 20
36.31345482752101
 30
0.0
 40
8.0
 50
179.9999999999999
 51
270.0
  0
ARC
  5
405
  8
_0-0_
  6
CONTINUOUS
 62
     7
 10
783.9899842130236
 20
63.31345482752113
 30
0.0
 40
22.00000000000005
 50
71.13560202195944
 51
118.7935838863742
  0
ARC
  5
406
  8
_0-0_
  6
CONTINUOUS
 62
     7
 10
783.9899842130236
 20
63.31345482752113
 30
0.0
 40
24.50000000000006
 50
73.12188638007787
 51
115.6267671861415
  0
ARC
  5
407
  8
_0-0_
  6
CONTINUOUS
 62
     7
 10
783.9899842130236
 20
63.31345482752113
 30
0.0
 40
22.00000000000005
 50
241.2064161136257
 51
288.8643979780402
  0
ARC
  5
408
  8
_0-0_
  6
CONTINUOUS
 62
     7
 10
783.9899842130236
 20
63.31345482752113
 30
0.0
 40
24.50000000000003
 50
244.3732328138582
 51
286.8781136199216
  0
ARC
  5
409
  8
_0-0_
  6
CONTINUOUS
 62
     7
 10
783.9899842130236
 20
63.31345482752113
 30
0.0
 40
22.00000000000001
 50
315.8054891254367
 51
44.1945108745623
  0
ARC
  5
40A
  8
_0-0_
  6
CONTINUOUS
 62
     7
 10
783.9899842130236
 20
63.31345482752113
 30
0.0
 40
24.50000000000005
 50
310.0769938346541
 51
49.92300616534519
  0
ARC
  5
40B
  8
_0-0_
  6
CONTINUOUS
 62
     7
 10
783.9899842130236
 20
63.31345482752113
 30
0.0
 40
19.49999999999994
 50
227.6421654680837
 51
132.3578345319154
  0
ARC
  5
40C
  8
_0-0_
  6
CONTINUOUS
 62
     7
 10
763.4899841959292
 20
37.19345482752135
 30
0.0
 40
1.5
 50
270.0
 51
0.0
  0
ARC
  5
40D
  8
_0-0_
  6
CONTINUOUS
 62
     7
 10
754.4899841959292
 20
37.19345482752135
 30
0.0
 40
1.5
 50
180.0000000000003
 51
270.0
  0
ARC
  5
40E
  8
_0-0_
  6
CONTINUOUS
 62
     7
 10
781.9899841959292
 20
75.31345482752164
 30
0.0
 40
2.0
 50
0.0
 51
90.0
  0
ARC
  5
40F
  8
_0-0_
  6
CONTINUOUS
 62
     7
 10
735.9899841959291
 20
75.31345482752164
 30
0.0
 40
1.999999999999972
 50
90.0
 51
180.0
  0
ARC
  5
410
  8
_0-0_
  6
CONTINUOUS
 62
     7
 10
781.9899841959292
 20
51.31345482752158
 30
0.0
 40
1.999999999999972
 50
270.0
 51
359.9999999999996
  0
ARC
  5
411
  8
_0-0_
  6
CONTINUOUS
 62
     7
 10
735.9899841959291
 20
51.31345482752158
 30
0.0
 40
2.0
 50
180.0000000000002
 51
270.0
  0
LINE
  5
412
  8
_0-0_
  6
CONTINUOUS
 62
     7
 10
549.2550312492538
 20
245.0475913615652
 30
0.0
 11
619.255031249254
 21
245.0475913615652
 31
0.0
  0
LINE
  5
413
  8
_0-0_
  6
CONTINUOUS
 62
     7
 10
619.255031249254
 20
245.0475913615652
 30
0.0
 11
619.255031249254
 21
242.5475913615652
 31
0.0
  0
LINE
  5
414
  8
_0-0_
  6
CONTINUOUS
 62
     7
 10
619.255031249254
 20
242.5475913615652
 30
0.0
 11
549.2550312492538
 21
242.5475913615652
 31
0.0
  0
LINE
  5
415
  8
_0-0_
  6
CONTINUOUS
 62
     7
 10
549.2550312492538
 20
242.5475913615652
 30
0.0
 11
549.2550312492538
 21
245.0475913615652
 31
0.0
  0
LINE
  5
416
  8
_0-0_
  6
CONTINUOUS
 62
     7
 10
561.0550312492535
 20
241.7475913615655
 30
0.0
 11
607.4550312491958
 21
241.7475913615655
 31
0.0
  0
LINE
  5
417
  8
_0-0_
  6
CONTINUOUS
 62
     7
 10
605.3550312492539
 20
241.7475913615655
 30
0.0
 11
607.755031249254
 21
239.3475913615653
 31
0.0
  0
LINE
  5
418
  8
_0-0_
  6
CONTINUOUS
 62
     7
 10
607.7550312492538
 20
239.3475913615653
 30
0.0
 11
607.7550312492538
 21
235.0475913615653
 31
0.0
  0
LINE
  5
419
  8
_0-0_
  6
CONTINUOUS
 62
     7
 10
607.7550312492538
 20
235.0475913615653
 30
0.0
 11
560.7550312492538
 21
235.0475913615653
 31
0.0
  0
LINE
  5
41A
  8
_0-0_
  6
CONTINUOUS
 62
     7
 10
560.7550312492538
 20
235.0475913615653
 30
0.0
 11
560.7550312492538
 21
239.3475913615653
 31
0.0
  0
LINE
  5
41B
  8
_0-0_
  6
CONTINUOUS
 62
     7
 10
560.7550312492538
 20
239.3475913615653
 30
0.0
 11
563.1550312492539
 21
241.7475913615655
 31
0.0
  0
LINE
  5
41C
  8
_0-0_
  6
CONTINUOUS
 62
     7
 10
560.7550312492538
 20
239.3475913615653
 30
0.0
 11
607.755031249254
 21
239.3475913615653
 31
0.0
  0
LINE
  5
41D
  8
_0-0_
  6
CONTINUOUS
 62
     7
 10
608.755031249254
 20
232.0475913615654
 30
0.0
 11
608.755031249254
 21
209.7270832858767
 31
0.0
  0
LINE
  5
41E
  8
_0-0_
  6
CONTINUOUS
 62
     7
 10
608.7550312492539
 20
209.7270832858767
 30
0.0
 11
608.3417269838142
 21
201.9654297396179
 31
0.0
  0
LINE
  5
41F
  8
_0-0_
  6
CONTINUOUS
 62
     7
 10
608.3078313622916
 20
201.9808126718955
 30
0.0
 11
608.0740761784036
 21
202.4290145332758
 31
0.0
  0
LINE
  5
420
  8
_0-0_
  6
CONTINUOUS
 62
     7
 10
608.0740761784036
 20
202.4290145332758
 30
0.0
 11
608.6450312492755
 21
201.4400913416864
 31
0.0
  0
LINE
  5
421
  8
_0-0_
  6
CONTINUOUS
 62
     7
 10
608.6450312492755
 20
201.4400913416864
 30
0.0
 11
608.6450312492756
 21
188.6550913416864
 31
0.0
  0
LINE
  5
422
  8
_0-0_
  6
CONTINUOUS
 62
     7
 10
608.6450312492756
 20
188.6550913416864
 30
0.0
 11
608.0740761784036
 21
187.666168150097
 31
0.0
  0
LINE
  5
423
  8
_0-0_
  6
CONTINUOUS
 62
     7
 10
608.0740761784036
 20
187.666168150097
 30
0.0
 11
603.2550312492756
 21
187.666168150097
 31
0.0
  0
LINE
  5
424
  8
_0-0_
  6
CONTINUOUS
 62
     7
 10
603.2550312492542
 20
187.1191527389684
 30
0.0
 11
603.7866754053082
 21
187.4261917445883
 31
0.0
  0
LINE
  5
425
  8
_0-0_
  6
CONTINUOUS
 62
     7
 10
603.7866754053082
 20
187.4261917445883
 30
0.0
 11
604.1109897366373
 21
187.6587320510608
 31
0.0
  0
LINE
  5
426
  8
_0-0_
  6
CONTINUOUS
 62
     7
 10
603.2550312492542
 20
185.0475913572107
 30
0.0
 11
600.7550312492541
 21
185.0475913572107
 31
0.0
  0
LINE
  5
427
  8
_0-0_
  6
CONTINUOUS
 62
     7
 10
600.7550312492541
 20
185.0475913572107
 30
0.0
 11
600.7550312492541
 21
225.4828547356791
 31
0.0
  0
LINE
  5
428
  8
_0-0_
  6
CONTINUOUS
 62
     7
 10
600.7550312492541
 20
225.4828547356791
 30
0.0
 11
567.755031249254
 21
225.4828547356791
 31
0.0
  0
LINE
  5
429
  8
_0-0_
  6
CONTINUOUS
 62
     7
 10
567.755031249254
 20
225.4828547356791
 30
0.0
 11
567.755031249254
 21
185.0475913572107
 31
0.0
  0
LINE
  5
42A
  8
_0-0_
  6
CONTINUOUS
 62
     7
 10
567.755031249254
 20
185.0475913572107
 30
0.0
 11
565.2550312492542
 21
185.0475913572107
 31
0.0
  0
LINE
  5
42B
  8
_0-0_
  6
CONTINUOUS
 62
     7
 10
565.2550312492542
 20
185.0475913572107
 30
0.0
 11
565.2550312492542
 21
227.2694289274569
 31
0.0
  0
LINE
  5
42C
  8
_0-0_
  6
CONTINUOUS
 62
     7
 10
565.2550312492542
 20
227.2694289274569
 30
0.0
 11
565.2790331770886
 21
227.679204050631
 31
0.0
  0
LINE
  5
42D
  8
_0-0_
  6
CONTINUOUS
 62
     7
 10
565.2790331770886
 20
227.679204050631
 30
0.0
 11
565.3478111584122
 21
228.0620543122596
 31
0.0
  0
LINE
  5
42E
  8
_0-0_
  6
CONTINUOUS
 62
     7
 10
565.3478111584122
 20
228.0620543122596
 30
0.0
 11
565.46618631311
 21
228.4408514883048
 31
0.0
  0
LINE
  5
42F
  8
_0-0_
  6
CONTINUOUS
 62
     7
 10
565.46618631311
 20
228.4408514883048
 30
0.0
 11
565.6202138346023
 21
228.7752343971968
 31
0.0
  0
LINE
  5
430
  8
_0-0_
  6
CONTINUOUS
 62
     7
 10
565.6202138346023
 20
228.7752343971968
 30
0.0
 11
565.8556957067904
 21
229.1403647962331
 31
0.0
  0
LINE
  5
431
  8
_0-0_
  6
CONTINUOUS
 62
     7
 10
565.8556957067904
 20
229.1403647962331
 30
0.0
 11
566.122844073614
 21
229.4426230929232
 31
0.0
  0
LINE
  5
432
  8
_0-0_
  6
CONTINUOUS
 62
     7
 10
566.122844073614
 20
229.4426230929232
 30
0.0
 11
566.4245164591148
 21
229.6980598573326
 31
0.0
  0
LINE
  5
433
  8
_0-0_
  6
CONTINUOUS
 62
     7
 10
566.4245164591148
 20
229.6980598573326
 30
0.0
 11
566.749758494059
 21
229.9037420920607
 31
0.0
  0
LINE
  5
434
  8
_0-0_
  6
CONTINUOUS
 62
     7
 10
566.749758494059
 20
229.9037420920607
 30
0.0
 11
567.4269802858867
 21
230.1701260963054
 31
0.0
  0
LINE
  5
435
  8
_0-0_
  6
CONTINUOUS
 62
     7
 10
567.4269802858867
 20
230.1701260963054
 30
0.0
 11
568.0858863146073
 21
230.272335860745
 31
0.0
  0
LINE
  5
436
  8
_0-0_
  6
CONTINUOUS
 62
     7
 10
568.0858863146073
 20
230.272335860745
 30
0.0
 11
568.755031249254
 21
230.2456206429013
 31
0.0
  0
LINE
  5
437
  8
_0-0_
  6
CONTINUOUS
 62
     7
 10
568.755031249254
 20
230.2456206429012
 30
0.0
 11
572.7405386841172
 21
229.8146817913523
 31
0.0
  0
LINE
  5
438
  8
_0-0_
  6
CONTINUOUS
 62
     7
 10
572.7405386841172
 20
229.8146817913523
 30
0.0
 11
577.1656591752565
 21
229.5179104178893
 31
0.0
  0
LINE
  5
439
  8
_0-0_
  6
CONTINUOUS
 62
     7
 10
577.1656591752565
 20
229.5179104178893
 30
0.0
 11
581.8614455691181
 21
229.3666369888586
 31
0.0
  0
LINE
  5
43A
  8
_0-0_
  6
CONTINUOUS
 62
     7
 10
581.8614455691181
 20
229.3666369888586
 30
0.0
 11
586.6486169293905
 21
229.3666369888586
 31
0.0
  0
LINE
  5
43B
  8
_0-0_
  6
CONTINUOUS
 62
     7
 10
586.6486169293905
 20
229.3666369888586
 30
0.0
 11
591.3444033232521
 21
229.5179104178894
 31
0.0
  0
LINE
  5
43C
  8
_0-0_
  6
CONTINUOUS
 62
     7
 10
591.3444033232521
 20
229.5179104178894
 30
0.0
 11
595.7695238143915
 21
229.8146817913523
 31
0.0
  0
LINE
  5
43D
  8
_0-0_
  6
CONTINUOUS
 62
     7
 10
595.7695238143915
 20
229.8146817913523
 30
0.0
 11
599.7550312492543
 21
230.2456206429013
 31
0.0
  0
LINE
  5
43E
  8
_0-0_
  6
CONTINUOUS
 62
     7
 10
599.755031249254
 20
230.2456206429013
 30
0.0
 11
600.0453229916335
 21
230.27254874414
 31
0.0
  0
LINE
  5
43F
  8
_0-0_
  6
CONTINUOUS
 62
     7
 10
600.0453229916335
 20
230.27254874414
 30
0.0
 11
600.6824331374023
 21
230.2483917616596
 31
0.0
  0
LINE
  5
440
  8
_0-0_
  6
CONTINUOUS
 62
     7
 10
600.6824331374023
 20
230.2483917616596
 30
0.0
 11
601.2798743202225
 21
230.1116540638781
 31
0.0
  0
LINE
  5
441
  8
_0-0_
  6
CONTINUOUS
 62
     7
 10
601.2798743202225
 20
230.1116540638781
 30
0.0
 11
601.8344684264362
 21
229.8621064152309
 31
0.0
  0
LINE
  5
442
  8
_0-0_
  6
CONTINUOUS
 62
     7
 10
601.8344684264362
 20
229.8621064152309
 30
0.0
 11
602.3244263808963
 21
229.502090300306
 31
0.0
  0
LINE
  5
443
  8
_0-0_
  6
CONTINUOUS
 62
     7
 10
602.3244263808963
 20
229.502090300306
 30
0.0
 11
602.6331912072885
 21
229.1678185191999
 31
0.0
  0
LINE
  5
444
  8
_0-0_
  6
CONTINUOUS
 62
     7
 10
602.6331912072885
 20
229.1678185191999
 30
0.0
 11
602.889884961136
 21
228.7751672466887
 31
0.0
  0
LINE
  5
445
  8
_0-0_
  6
CONTINUOUS
 62
     7
 10
602.889884961136
 20
228.7751672466887
 30
0.0
 11
603.0453706067342
 21
228.4369747103339
 31
0.0
  0
LINE
  5
446
  8
_0-0_
  6
CONTINUOUS
 62
     7
 10
603.0453706067342
 20
228.4369747103339
 30
0.0
 11
603.1592213098461
 21
228.0744132036792
 31
0.0
  0
LINE
  5
447
  8
_0-0_
  6
CONTINUOUS
 62
     7
 10
603.1592213098461
 20
228.0744132036792
 30
0.0
 11
603.23188751795
 21
227.671921065568
 31
0.0
  0
LINE
  5
448
  8
_0-0_
  6
CONTINUOUS
 62
     7
 10
603.23188751795
 20
227.671921065568
 30
0.0
 11
603.2550312492542
 21
227.2694289274569
 31
0.0
  0
LINE
  5
449
  8
_0-0_
  6
CONTINUOUS
 62
     7
 10
603.2550312492542
 20
227.2694289274569
 30
0.0
 11
603.2550312492542
 21
185.0475913572107
 31
0.0
  0
LINE
  5
44A
  8
_0-0_
  6
CONTINUOUS
 62
     7
 10
603.2550312492756
 20
191.3568797458917
 30
0.0
 11
608.0740761784036
 21
191.3568797458917
 31
0.0
  0
LINE
  5
44B
  8
_0-0_
  6
CONTINUOUS
 62
     7
 10
608.0740761784036
 20
191.3568797458917
 30
0.0
 11
608.3078313622916
 21
190.9086778845115
 31
0.0
  0
LINE
  5
44C
  8
_0-0_
  6
CONTINUOUS
 62
     7
 10
608.3078313622916
 20
190.9086778845115
 30
0.0
 11
608.4883209059623
 21
190.4527877902018
 31
0.0
  0
LINE
  5
44D
  8
_0-0_
  6
CONTINUOUS
 62
     7
 10
608.4883209059623
 20
190.4527877902018
 30
0.0
 11
608.6047129995031
 21
189.9852577539277
 31
0.0
  0
LINE
  5
44E
  8
_0-0_
  6
CONTINUOUS
 62
     7
 10
608.6047129995031
 20
189.9852577539277
 30
0.0
 11
608.6450312492756
 21
189.5115239479944
 31
0.0
  0
LINE
  5
44F
  8
_0-0_
  6
CONTINUOUS
 62
     7
 10
608.6450312492756
 20
189.5115239479944
 30
0.0
 11
608.6419231829796
 21
189.3803229208028
 31
0.0
  0
LINE
  5
450
  8
_0-0_
  6
CONTINUOUS
 62
     7
 10
608.6419231829796
 20
189.3803229208028
 30
0.0
 11
608.5886552129361
 21
188.9507341213488
 31
0.0
  0
LINE
  5
451
  8
_0-0_
  6
CONTINUOUS
 62
     7
 10
608.5886552129361
 20
188.9507341213488
 30
0.0
 11
608.4721724822064
 21
188.5218937649967
 31
0.0
  0
LINE
  5
452
  8
_0-0_
  6
CONTINUOUS
 62
     7
 10
608.4721724822064
 20
188.5218937649967
 30
0.0
 11
608.2973966540787
 21
188.0919585545653
 31
0.0
  0
LINE
  5
453
  8
_0-0_
  6
CONTINUOUS
 62
     7
 10
608.2973966540787
 20
188.0919585545653
 30
0.0
 11
608.0740761784036
 21
187.666168150097
 31
0.0
  0
LINE
  5
454
  8
_0-0_
  6
CONTINUOUS
 62
     7
 10
608.0740761784036
 20
191.3568797458917
 30
0.0
 11
608.3161633693257
 21
192.2895120760595
 31
0.0
  0
LINE
  5
455
  8
_0-0_
  6
CONTINUOUS
 62
     7
 10
608.3161633693257
 20
192.2895120760595
 30
0.0
 11
608.5601278153092
 21
193.6685517088729
 31
0.0
  0
LINE
  5
456
  8
_0-0_
  6
CONTINUOUS
 62
     7
 10
608.5601278153092
 20
193.6685517088729
 30
0.0
 11
608.6450312492755
 21
195.0475913416864
 31
0.0
  0
LINE
  5
457
  8
_0-0_
  6
CONTINUOUS
 62
     7
 10
608.6450312492755
 20
195.0475913416864
 30
0.0
 11
608.5997531963419
 21
196.0519815627731
 31
0.0
  0
LINE
  5
458
  8
_0-0_
  6
CONTINUOUS
 62
     7
 10
608.5997531963419
 20
196.0519815627731
 30
0.0
 11
608.4003734624187
 21
197.4134612205547
 31
0.0
  0
LINE
  5
459
  8
_0-0_
  6
CONTINUOUS
 62
     7
 10
608.4003734624187
 20
197.4134612205547
 30
0.0
 11
608.0740761784036
 21
198.7383029374812
 31
0.0
  0
LINE
  5
45A
  8
_0-0_
  6
CONTINUOUS
 62
     7
 10
608.0740761784036
 20
198.7383029374812
 30
0.0
 11
608.2973966540787
 21
199.1640933419494
 31
0.0
  0
LINE
  5
45B
  8
_0-0_
  6
CONTINUOUS
 62
     7
 10
608.2973966540787
 20
199.1640933419494
 30
0.0
 11
608.4721724822064
 21
199.5940285523808
 31
0.0
  0
LINE
  5
45C
  8
_0-0_
  6
CONTINUOUS
 62
     7
 10
608.4721724822064
 20
199.5940285523808
 30
0.0
 11
608.5886552129361
 21
200.0228689087329
 31
0.0
  0
LINE
  5
45D
  8
_0-0_
  6
CONTINUOUS
 62
     7
 10
608.5886552129361
 20
200.0228689087329
 30
0.0
 11
608.6419231829796
 21
200.4524577081868
 31
0.0
  0
LINE
  5
45E
  8
_0-0_
  6
CONTINUOUS
 62
     7
 10
608.6419231829796
 20
200.4524577081868
 30
0.0
 11
608.6450312492755
 21
200.5836587353784
 31
0.0
  0
LINE
  5
45F
  8
_0-0_
  6
CONTINUOUS
 62
     7
 10
608.6450312492755
 20
200.5836587353784
 30
0.0
 11
608.6047129995031
 21
201.0573925413117
 31
0.0
  0
LINE
  5
460
  8
_0-0_
  6
CONTINUOUS
 62
     7
 10
608.6047129995031
 20
201.0573925413117
 30
0.0
 11
608.4883209059623
 21
201.5249225775858
 31
0.0
  0
LINE
  5
461
  8
_0-0_
  6
CONTINUOUS
 62
     7
 10
608.4883209059623
 20
201.5249225775858
 30
0.0
 11
608.3078313622916
 21
201.9808126718955
 31
0.0
  0
LINE
  5
462
  8
_0-0_
  6
CONTINUOUS
 62
     7
 10
608.0740761784036
 20
202.4290145332758
 30
0.0
 11
603.2550312492756
 21
202.4290145332757
 31
0.0
  0
LINE
  5
463
  8
_0-0_
  6
CONTINUOUS
 62
     7
 10
603.2550312492756
 20
198.7383029374811
 30
0.0
 11
608.0740761784036
 21
198.7383029374812
 31
0.0
  0
LINE
  5
464
  8
_0-0_
  6
CONTINUOUS
 62
     7
 10
558.6350312492539
 20
195.0475913416863
 30
0.0
 11
558.7204659522636
 21
196.4352600844431
 31
0.0
  0
LINE
  5
465
  8
_0-0_
  6
CONTINUOUS
 62
     7
 10
558.7204659522636
 20
196.4352600844431
 30
0.0
 11
558.9659569649798
 21
197.8229288271998
 31
0.0
  0
LINE
  5
466
  8
_0-0_
  6
CONTINUOUS
 62
     7
 10
558.9659569649798
 20
197.8229288271998
 30
0.0
 11
559.2095589760249
 21
198.7613969482486
 31
0.0
  0
LINE
  5
467
  8
_0-0_
  6
CONTINUOUS
 62
     7
 10
559.2095589760249
 20
198.7613969482486
 30
0.0
 11
558.9743411081549
 21
199.2124033578424
 31
0.0
  0
LINE
  5
468
  8
_0-0_
  6
CONTINUOUS
 62
     7
 10
558.9743411081549
 20
199.2124033578424
 30
0.0
 11
558.7927221813404
 21
199.6711461081979
 31
0.0
  0
LINE
  5
469
  8
_0-0_
  6
CONTINUOUS
 62
     7
 10
558.7927221813404
 20
199.6711461081979
 30
0.0
 11
558.6756017837336
 21
200.1416016355084
 31
0.0
  0
LINE
  5
46A
  8
_0-0_
  6
CONTINUOUS
 62
     7
 10
558.6756017837336
 20
200.1416016355084
 30
0.0
 11
558.6350312492539
 21
200.6182997515296
 31
0.0
  0
LINE
  5
46B
  8
_0-0_
  6
CONTINUOUS
 62
     7
 10
558.6350312492539
 20
200.6182997515296
 30
0.0
 11
558.6381587904016
 21
200.7503223098612
 31
0.0
  0
LINE
  5
46C
  8
_0-0_
  6
CONTINUOUS
 62
     7
 10
558.6381587904016
 20
200.7503223098612
 30
0.0
 11
558.691760134165
 21
201.1825990524703
 31
0.0
  0
LINE
  5
46D
  8
_0-0_
  6
CONTINUOUS
 62
     7
 10
558.691760134165
 20
201.1825990524703
 30
0.0
 11
558.8089717488726
 21
201.6141226660548
 31
0.0
  0
LINE
  5
46E
  8
_0-0_
  6
CONTINUOUS
 62
     7
 10
558.8089717488726
 20
201.6141226660548
 30
0.0
 11
558.9848411764058
 21
202.0467479801617
 31
0.0
  0
LINE
  5
46F
  8
_0-0_
  6
CONTINUOUS
 62
     7
 10
558.9848411764058
 20
202.0467479801617
 30
0.0
 11
559.2095589760249
 21
202.4752025548107
 31
0.0
  0
LINE
  5
470
  8
_0-0_
  6
CONTINUOUS
 62
     7
 10
559.2095589760249
 20
202.4752025548107
 30
0.0
 11
558.6350312492539
 21
201.4800913416862
 31
0.0
  0
LINE
  5
471
  8
_0-0_
  6
CONTINUOUS
 62
     7
 10
558.6350312492539
 20
201.4800913416862
 30
0.0
 11
558.6350312492539
 21
188.6150913416865
 31
0.0
  0
LINE
  5
472
  8
_0-0_
  6
CONTINUOUS
 62
     7
 10
558.6350312492539
 20
188.6150913416865
 30
0.0
 11
559.2095589760249
 21
187.6199801285619
 31
0.0
  0
LINE
  5
473
  8
_0-0_
  6
CONTINUOUS
 62
     7
 10
559.2095589760249
 20
187.6199801285619
 30
0.0
 11
558.9743411081549
 21
188.0709865381556
 31
0.0
  0
LINE
  5
474
  8
_0-0_
  6
CONTINUOUS
 62
     7
 10
558.9743411081549
 20
188.0709865381556
 30
0.0
 11
558.7927221813404
 21
188.529729288511
 31
0.0
  0
LINE
  5
475
  8
_0-0_
  6
CONTINUOUS
 62
     7
 10
558.7927221813404
 20
188.529729288511
 30
0.0
 11
558.6756017837336
 21
189.0001848158216
 31
0.0
  0
LINE
  5
476
  8
_0-0_
  6
CONTINUOUS
 62
     7
 10
558.6756017837336
 20
189.0001848158216
 30
0.0
 11
558.6350312492539
 21
189.4768829318431
 31
0.0
  0
LINE
  5
477
  8
_0-0_
  6
CONTINUOUS
 62
     7
 10
558.6350312492539
 20
189.4768829318431
 30
0.0
 11
558.6381587904016
 21
189.6089054901744
 31
0.0
  0
LINE
  5
478
  8
_0-0_
  6
CONTINUOUS
 62
     7
 10
558.6381587904016
 20
189.6089054901744
 30
0.0
 11
558.691760134165
 21
190.0411822327835
 31
0.0
  0
LINE
  5
479
  8
_0-0_
  6
CONTINUOUS
 62
     7
 10
558.691760134165
 20
190.0411822327835
 30
0.0
 11
558.8089717488726
 21
190.4727058463681
 31
0.0
  0
LINE
  5
47A
  8
_0-0_
  6
CONTINUOUS
 62
     7
 10
558.8089717488726
 20
190.4727058463681
 30
0.0
 11
558.9848411764058
 21
190.905331160475
 31
0.0
  0
LINE
  5
47B
  8
_0-0_
  6
CONTINUOUS
 62
     7
 10
558.9848411764058
 20
190.905331160475
 30
0.0
 11
559.2095589760249
 21
191.3337857351243
 31
0.0
  0
LINE
  5
47C
  8
_0-0_
  6
CONTINUOUS
 62
     7
 10
559.2095589760249
 20
191.3337857351243
 30
0.0
 11
564.6805035224829
 21
191.3337857351241
 31
0.0
  0
LINE
  5
47D
  8
_0-0_
  6
CONTINUOUS
 62
     7
 10
564.6805035224829
 20
191.3337857351241
 30
0.0
 11
564.9157213903529
 21
190.8827793255303
 31
0.0
  0
LINE
  5
47E
  8
_0-0_
  6
CONTINUOUS
 62
     7
 10
564.9157213903529
 20
190.8827793255303
 30
0.0
 11
565.0973403171674
 21
190.4240365751748
 31
0.0
  0
LINE
  5
47F
  8
_0-0_
  6
CONTINUOUS
 62
     7
 10
565.0973403171674
 20
190.4240365751748
 30
0.0
 11
565.2144607147743
 21
189.9535810478642
 31
0.0
  0
LINE
  5
480
  8
_0-0_
  6
CONTINUOUS
 62
     7
 10
565.2144607147743
 20
189.9535810478642
 30
0.0
 11
565.255031249254
 21
189.4768829318431
 31
0.0
  0
LINE
  5
481
  8
_0-0_
  6
CONTINUOUS
 62
     7
 10
565.255031249254
 20
189.4768829318431
 30
0.0
 11
565.2519037081063
 21
189.3448603735115
 31
0.0
  0
LINE
  5
482
  8
_0-0_
  6
CONTINUOUS
 62
     7
 10
565.2519037081063
 20
189.3448603735115
 30
0.0
 11
565.1983023643429
 21
188.9125836309024
 31
0.0
  0
LINE
  5
483
  8
_0-0_
  6
CONTINUOUS
 62
     7
 10
565.1983023643429
 20
188.9125836309024
 30
0.0
 11
565.0810907496352
 21
188.4810600173177
 31
0.0
  0
LINE
  5
484
  8
_0-0_
  6
CONTINUOUS
 62
     7
 10
565.0810907496352
 20
188.4810600173177
 30
0.0
 11
564.9052213221021
 21
188.0484347032108
 31
0.0
  0
LINE
  5
485
  8
_0-0_
  6
CONTINUOUS
 62
     7
 10
564.9052213221021
 20
188.0484347032108
 30
0.0
 11
564.6805035224829
 21
187.6199801285619
 31
0.0
  0
LINE
  5
486
  8
_0-0_
  6
CONTINUOUS
 62
     7
 10
564.6805035224829
 20
187.6199801285619
 30
0.0
 11
565.255031249254
 21
188.6150913416864
 31
0.0
  0
LINE
  5
487
  8
_0-0_
  6
CONTINUOUS
 62
     7
 10
565.2550312492542
 20
187.119152738968
 30
0.0
 11
564.822447816035
 21
187.3625177938401
 31
0.0
  0
LINE
  5
488
  8
_0-0_
  6
CONTINUOUS
 62
     7
 10
564.822447816035
 20
187.3625177938401
 30
0.0
 11
564.4551714395577
 21
187.6156844488415
 31
0.0
  0
LINE
  5
489
  8
_0-0_
  6
CONTINUOUS
 62
     7
 10
564.6805035224829
 20
187.6199801285619
 30
0.0
 11
559.2095589760249
 21
187.6199801285619
 31
0.0
  0
LINE
  5
48A
  8
_0-0_
  6
CONTINUOUS
 62
     7
 10
558.6350312492539
 20
189.0475913416864
 30
0.0
 11
558.1350312492541
 21
189.0475913416864
 31
0.0
  0
LINE
  5
48B
  8
_0-0_
  6
CONTINUOUS
 62
     7
 10
556.6350312492541
 20
190.5475913416864
 30
0.0
 11
556.6350312492541
 21
199.5475913416864
 31
0.0
  0
LINE
  5
48C
  8
_0-0_
  6
CONTINUOUS
 62
     7
 10
556.6350312492541
 20
199.045625887141
 30
0.0
 11
556.2550312492756
 21
199.0455913416864
 31
0.0
  0
LINE
  5
48D
  8
_0-0_
  6
CONTINUOUS
 62
     7
 10
556.2550312492756
 20
199.0455913416864
 30
0.0
 11
556.2550312492756
 21
191.0495913416861
 31
0.0
  0
LINE
  5
48E
  8
_0-0_
  6
CONTINUOUS
 62
     7
 10
556.2550312492756
 20
191.0495913416861
 30
0.0
 11
556.6350312492541
 21
191.0495567962316
 31
0.0
  0
LINE
  5
48F
  8
_0-0_
  6
CONTINUOUS
 62
     7
 10
559.2095589760249
 20
191.3337857351243
 30
0.0
 11
558.8812199413082
 21
192.6669174275965
 31
0.0
  0
LINE
  5
490
  8
_0-0_
  6
CONTINUOUS
 62
     7
 10
558.8812199413082
 20
192.6669174275965
 30
0.0
 11
558.6805926220338
 21
194.0369163167133
 31
0.0
  0
LINE
  5
491
  8
_0-0_
  6
CONTINUOUS
 62
     7
 10
558.6805926220338
 20
194.0369163167133
 30
0.0
 11
558.6350312492539
 21
195.0475913416863
 31
0.0
  0
LINE
  5
492
  8
_0-0_
  6
CONTINUOUS
 62
     7
 10
559.2095589760249
 20
198.7613969482486
 30
0.0
 11
564.6805035224829
 21
198.7613969482483
 31
0.0
  0
LINE
  5
493
  8
_0-0_
  6
CONTINUOUS
 62
     7
 10
564.6805035224829
 20
198.7613969482483
 30
0.0
 11
564.9052213221021
 21
199.1898515228977
 31
0.0
  0
LINE
  5
494
  8
_0-0_
  6
CONTINUOUS
 62
     7
 10
564.9052213221021
 20
199.1898515228977
 30
0.0
 11
565.0810907496352
 21
199.6224768370045
 31
0.0
  0
LINE
  5
495
  8
_0-0_
  6
CONTINUOUS
 62
     7
 10
565.0810907496352
 20
199.6224768370045
 30
0.0
 11
565.1983023643429
 21
200.0540004505892
 31
0.0
  0
LINE
  5
496
  8
_0-0_
  6
CONTINUOUS
 62
     7
 10
565.1983023643429
 20
200.0540004505892
 30
0.0
 11
565.2519037081063
 21
200.4862771931983
 31
0.0
  0
LINE
  5
497
  8
_0-0_
  6
CONTINUOUS
 62
     7
 10
565.2519037081063
 20
200.4862771931983
 30
0.0
 11
565.255031249254
 21
200.6182997515296
 31
0.0
  0
LINE
  5
498
  8
_0-0_
  6
CONTINUOUS
 62
     7
 10
565.255031249254
 20
200.6182997515296
 30
0.0
 11
565.2144607147743
 21
201.094997867551
 31
0.0
  0
LINE
  5
499
  8
_0-0_
  6
CONTINUOUS
 62
     7
 10
565.2144607147743
 20
201.094997867551
 30
0.0
 11
565.0973403171674
 21
201.5654533948615
 31
0.0
  0
LINE
  5
49A
  8
_0-0_
  6
CONTINUOUS
 62
     7
 10
565.0973403171674
 20
201.5654533948615
 30
0.0
 11
564.9157213903529
 21
202.024196145217
 31
0.0
  0
LINE
  5
49B
  8
_0-0_
  6
CONTINUOUS
 62
     7
 10
564.9157213903529
 20
202.024196145217
 30
0.0
 11
564.6805035224829
 21
202.4752025548107
 31
0.0
  0
LINE
  5
49C
  8
_0-0_
  6
CONTINUOUS
 62
     7
 10
564.6805035224829
 20
202.4752025548107
 30
0.0
 11
565.255031249254
 21
201.4800913416862
 31
0.0
  0
LINE
  5
49D
  8
_0-0_
  6
CONTINUOUS
 62
     7
 10
564.6805035224829
 20
202.4752025548107
 30
0.0
 11
559.2095589760249
 21
202.4752025548107
 31
0.0
  0
LINE
  5
49E
  8
_0-0_
  6
CONTINUOUS
 62
     7
 10
560.1154356584518
 20
202.4752025548109
 30
0.0
 11
559.7550312492538
 21
209.7270832858767
 31
0.0
  0
LINE
  5
49F
  8
_0-0_
  6
CONTINUOUS
 62
     7
 10
559.7550312492538
 20
209.7270832858767
 30
0.0
 11
559.7550312492538
 21
232.0475913615654
 31
0.0
  0
LINE
  5
4A0
  8
_0-0_
  6
CONTINUOUS
 62
     7
 10
566.2801575151011
 20
226.995919809495
 30
0.0
 11
565.8448876061952
 21
226.4518079401532
 31
0.0
  0
LINE
  5
4A1
  8
_0-0_
  6
CONTINUOUS
 62
     7
 10
565.8448876061952
 20
226.4518079401532
 30
0.0
 11
565.5214528854647
 21
225.8310351864738
 31
0.0
  0
LINE
  5
4A2
  8
_0-0_
  6
CONTINUOUS
 62
     7
 10
565.5214528854647
 20
225.8310351864738
 30
0.0
 11
565.3222827678428
 21
225.1574574972474
 31
0.0
  0
LINE
  5
4A3
  8
_0-0_
  6
CONTINUOUS
 62
     7
 10
565.3222827678428
 20
225.1574574972474
 30
0.0
 11
565.255031249254
 21
224.4569600853244
 31
0.0
  0
LINE
  5
4A4
  8
_0-0_
  6
CONTINUOUS
 62
     7
 10
566.2801575151011
 20
226.995919809495
 30
0.0
 11
566.8105354336856
 21
227.442460880502
 31
0.0
  0
LINE
  5
4A5
  8
_0-0_
  6
CONTINUOUS
 62
     7
 10
566.8105354336856
 20
227.442460880502
 30
0.0
 11
567.4156392359762
 21
227.7742708302385
 31
0.0
  0
LINE
  5
4A6
  8
_0-0_
  6
CONTINUOUS
 62
     7
 10
567.4156392359762
 20
227.7742708302385
 30
0.0
 11
568.0722151221976
 21
227.9785983884172
 31
0.0
  0
LINE
  5
4A7
  8
_0-0_
  6
CONTINUOUS
 62
     7
 10
568.0722151221976
 20
227.9785983884172
 30
0.0
 11
568.755031249254
 21
228.0475913615655
 31
0.0
  0
LINE
  5
4A8
  8
_0-0_
  6
CONTINUOUS
 62
     7
 10
568.755031249254
 20
228.0475913615656
 30
0.0
 11
599.7550312492542
 21
228.0475913615656
 31
0.0
  0
LINE
  5
4A9
  8
_0-0_
  6
CONTINUOUS
 62
     7
 10
599.7550312492542
 20
228.0475913615655
 30
0.0
 11
600.4378473763106
 21
227.9785983884172
 31
0.0
  0
LINE
  5
4AA
  8
_0-0_
  6
CONTINUOUS
 62
     7
 10
600.4378473763106
 20
227.9785983884172
 30
0.0
 11
601.094423262532
 21
227.7742708302384
 31
0.0
  0
LINE
  5
4AB
  8
_0-0_
  6
CONTINUOUS
 62
     7
 10
601.094423262532
 20
227.7742708302384
 30
0.0
 11
601.6995270648229
 21
227.442460880502
 31
0.0
  0
LINE
  5
4AC
  8
_0-0_
  6
CONTINUOUS
 62
     7
 10
601.6995270648229
 20
227.442460880502
 30
0.0
 11
602.2299049834072
 21
226.9959198094949
 31
0.0
  0
LINE
  5
4AD
  8
_0-0_
  6
CONTINUOUS
 62
     7
 10
602.2299049834072
 20
226.9959198094949
 30
0.0
 11
602.6651748923132
 21
226.4518079401531
 31
0.0
  0
LINE
  5
4AE
  8
_0-0_
  6
CONTINUOUS
 62
     7
 10
602.6651748923132
 20
226.4518079401531
 30
0.0
 11
602.9886096130438
 21
225.8310351864736
 31
0.0
  0
LINE
  5
4AF
  8
_0-0_
  6
CONTINUOUS
 62
     7
 10
602.9886096130438
 20
225.8310351864736
 30
0.0
 11
603.1877797306656
 21
225.1574574972473
 31
0.0
  0
LINE
  5
4B0
  8
_0-0_
  6
CONTINUOUS
 62
     7
 10
603.1877797306656
 20
225.1574574972473
 30
0.0
 11
603.2550312492542
 21
224.4569600853242
 31
0.0
  0
LINE
  5
4B1
  8
_0-0_
  6
CONTINUOUS
 62
     7
 10
596.2550312492543
 20
220.0475913416864
 30
0.0
 11
572.2550312492542
 21
220.0475913416864
 31
0.0
  0
LINE
  5
4B2
  8
_0-0_
  6
CONTINUOUS
 62
     7
 10
570.2550312492542
 20
218.0475913410474
 30
0.0
 11
570.2550312492542
 21
172.0475913416864
 31
0.0
  0
LINE
  5
4B3
  8
_0-0_
  6
CONTINUOUS
 62
     7
 10
598.2550312492543
 20
172.0475913416864
 30
0.0
 11
598.2550312492543
 21
218.0475913410474
 31
0.0
  0
LINE
  5
4B4
  8
_0-0_
  6
CONTINUOUS
 62
     7
 10
598.2550312492543
 20
201.0475913416864
 30
0.0
 11
600.7550312492543
 21
201.0475913416864
 31
0.0
  0
LINE
  5
4B5
  8
_0-0_
  6
CONTINUOUS
 62
     7
 10
600.7550312492543
 20
189.0475913416864
 30
0.0
 11
598.2550312492543
 21
189.0475913416864
 31
0.0
  0
LINE
  5
4B6
  8
_0-0_
  6
CONTINUOUS
 62
     7
 10
570.2550312492542
 20
189.0475913416864
 30
0.0
 11
567.7550312492542
 21
189.0475913416864
 31
0.0
  0
LINE
  5
4B7
  8
_0-0_
  6
CONTINUOUS
 62
     7
 10
564.6805035224829
 20
191.3337857351241
 30
0.0
 11
565.0113391956934
 21
192.6794049175147
 31
0.0
  0
LINE
  5
4B8
  8
_0-0_
  6
CONTINUOUS
 62
     7
 10
565.0113391956934
 20
192.6794049175147
 30
0.0
 11
565.209469876474
 21
194.0369163167133
 31
0.0
  0
LINE
  5
4B9
  8
_0-0_
  6
CONTINUOUS
 62
     7
 10
565.209469876474
 20
194.0369163167133
 30
0.0
 11
565.255031249254
 21
195.0475913416863
 31
0.0
  0
LINE
  5
4BA
  8
_0-0_
  6
CONTINUOUS
 62
     7
 10
565.255031249254
 20
195.0475913416863
 30
0.0
 11
565.1674154855912
 21
196.4530653016056
 31
0.0
  0
LINE
  5
4BB
  8
_0-0_
  6
CONTINUOUS
 62
     7
 10
565.1674154855912
 20
196.4530653016056
 30
0.0
 11
564.9241055335281
 21
197.8229288271998
 31
0.0
  0
LINE
  5
4BC
  8
_0-0_
  6
CONTINUOUS
 62
     7
 10
564.9241055335281
 20
197.8229288271998
 30
0.0
 11
564.6805035224829
 21
198.7613969482483
 31
0.0
  0
LINE
  5
4BD
  8
_0-0_
  6
CONTINUOUS
 62
     7
 10
567.7550312492542
 20
201.0475913416864
 30
0.0
 11
570.2550312492542
 21
201.0475913416864
 31
0.0
  0
LINE
  5
4BE
  8
_0-0_
  6
CONTINUOUS
 62
     7
 10
558.6350312492539
 20
201.0475913416864
 30
0.0
 11
558.1350312492541
 21
201.0475913416864
 31
0.0
  0
ARC
  5
4BF
  8
_0-0_
  6
CONTINUOUS
 62
     7
 10
562.755031297517
 20
232.0475913133022
 30
0.0
 40
3.000000048263189
 50
90.00000074653951
 51
180.0000019539547
  0
ARC
  5
4C0
  8
_0-0_
  6
CONTINUOUS
 62
     7
 10
605.7550312009906
 20
232.0475913133022
 30
0.0
 40
3.000000048263246
 50
359.9999987925816
 51
89.99999787082037
  0
ARC
  5
4C1
  8
_0-0_
  6
CONTINUOUS
 62
     7
 10
561.0550312492535
 20
242.5475913615654
 30
0.0
 40
0.8000000000000682
 50
179.999999999998
 51
270.0
  0
ARC
  5
4C2
  8
_0-0_
  6
CONTINUOUS
 62
     7
 10
607.455031249254
 20
242.5475913615654
 30
0.0
 40
0.8000000000000398
 50
270.0
 51
0.0
  0
ARC
  5
4C3
  8
_0-0_
  6
CONTINUOUS
 62
     7
 10
558.1350312492541
 20
190.5475913416864
 30
0.0
 40
1.5
 50
179.9999999999989
 51
270.0
  0
ARC
  5
4C4
  8
_0-0_
  6
CONTINUOUS
 62
     7
 10
558.1350312492541
 20
199.5475913416864
 30
0.0
 40
1.5
 50
90.0
 51
180.0
  0
ARC
  5
4C5
  8
_0-0_
  6
CONTINUOUS
 62
     7
 10
596.2550312492544
 20
172.0475913416864
 30
0.0
 40
1.999999999999972
 50
270.0
 51
359.9999999999992
  0
ARC
  5
4C6
  8
_0-0_
  6
CONTINUOUS
 62
     7
 10
596.2550312492544
 20
218.0475913416865
 30
0.0
 40
2.0
 50
0.0
 51
90.0
  0
ARC
  5
4C7
  8
_0-0_
  6
CONTINUOUS
 62
     7
 10
572.2550312492542
 20
172.0475913416864
 30
0.0
 40
2.0
 50
179.9999999999992
 51
270.0
  0
ARC
  5
4C8
  8
_0-0_
  6
CONTINUOUS
 62
     7
 10
572.2550312492542
 20
218.0475913416865
 30
0.0
 40
1.999999999999972
 50
90.0
 51
179.9999999999992
  0
LINE
  5
4C9
  8
_0-0_
  6
CENTER1
 62
   152
 10
610.2550312492538
 20
250.1521235424713
 30
0.0
 11
610.2550312492538
 21
236.8975924155998
 31
0.0
  0
LINE
  5
4CA
  8
_0-0_
  6
CENTER1
 62
   152
 10
558.2550312492538
 20
250.1521235424713
 30
0.0
 11
558.2550312492538
 21
236.8975924155998
 31
0.0
  0
LINE
  5
4CB
  8
_0-0_
  6
CONTINUOUS
 62
     7
 10
808.4899841959289
 20
232.0475913615654
 30
0.0
 11
808.4899841959289
 21
227.0475913615657
 31
0.0
  0
LINE
  5
4CC
  8
_0-0_
  6
CONTINUOUS
 62
     7
 10
808.4899841959289
 20
227.0475913615657
 30
0.0
 11
799.7634868878256
 21
227.0475913615657
 31
0.0
  0
LINE
  5
4CD
  8
_0-0_
  6
CONTINUOUS
 62
     7
 10
799.7634868878256
 20
227.0475913615655
 30
0.0
 11
799.0787349189636
 21
227.0240991769408
 31
0.0
  0
LINE
  5
4CE
  8
_0-0_
  6
CONTINUOUS
 62
     7
 10
799.0787349189636
 20
227.0240991769408
 30
0.0
 11
798.376750102009
 21
226.9509726572072
 31
0.0
  0
LINE
  5
4CF
  8
_0-0_
  6
CONTINUOUS
 62
     7
 10
798.376750102009
 20
226.9509726572072
 30
0.0
 11
797.4712894187501
 21
226.7808386162467
 31
0.0
  0
LINE
  5
4D0
  8
_0-0_
  6
CONTINUOUS
 62
     7
 10
797.4712894187501
 20
226.7808386162467
 30
0.0
 11
796.552671975335
 21
226.5176057307254
 31
0.0
  0
LINE
  5
4D1
  8
_0-0_
  6
CONTINUOUS
 62
     7
 10
796.552671975335
 20
226.5176057307254
 30
0.0
 11
795.6375955494073
 21
226.1567636984776
 31
0.0
  0
LINE
  5
4D2
  8
_0-0_
  6
CONTINUOUS
 62
     7
 10
795.6375955494073
 20
226.1567636984776
 30
0.0
 11
794.7597910924093
 21
225.7047836178099
 31
0.0
  0
LINE
  5
4D3
  8
_0-0_
  6
CONTINUOUS
 62
     7
 10
794.7597910924093
 20
225.7047836178099
 30
0.0
 11
793.9088138120826
 21
225.1535714042599
 31
0.0
  0
LINE
  5
4D4
  8
_0-0_
  6
CONTINUOUS
 62
     7
 10
793.9088138120826
 20
225.1535714042599
 30
0.0
 11
793.1049337652105
 21
224.5084003199374
 31
0.0
  0
LINE
  5
4D5
  8
_0-0_
  6
CONTINUOUS
 62
     7
 10
793.1049337652105
 20
224.5084003199374
 30
0.0
 11
792.3608755530535
 21
223.7694104564152
 31
0.0
  0
LINE
  5
4D6
  8
_0-0_
  6
CONTINUOUS
 62
     7
 10
792.3608755530535
 20
223.7694104564152
 30
0.0
 11
791.6881101279979
 21
222.9441918441166
 31
0.0
  0
LINE
  5
4D7
  8
_0-0_
  6
CONTINUOUS
 62
     7
 10
791.6881101279979
 20
222.9441918441166
 30
0.0
 11
791.1032328499807
 21
222.0475913615658
 31
0.0
  0
LINE
  5
4D8
  8
_0-0_
  6
CONTINUOUS
 62
     7
 10
791.1032328499816
 20
222.0475913615656
 30
0.0
 11
773.3935623107193
 21
191.373542202258
 31
0.0
  0
LINE
  5
4D9
  8
_0-0_
  6
CONTINUOUS
 62
     7
 10
773.3935623107193
 20
191.3735422022573
 30
0.0
 11
773.0055345926319
 21
190.7547993077366
 31
0.0
  0
LINE
  5
4DA
  8
_0-0_
  6
CONTINUOUS
 62
     7
 10
773.0055345926319
 20
190.7547993077366
 30
0.0
 11
772.5813370903998
 21
190.1760875893288
 31
0.0
  0
LINE
  5
4DB
  8
_0-0_
  6
CONTINUOUS
 62
     7
 10
772.5813370903998
 20
190.1760875893288
 30
0.0
 11
771.9529574455643
 21
189.4544894040404
 31
0.0
  0
LINE
  5
4DC
  8
_0-0_
  6
CONTINUOUS
 62
     7
 10
771.9529574455643
 20
189.4544894040404
 30
0.0
 11
771.274771619737
 21
188.8098620608405
 31
0.0
  0
LINE
  5
4DD
  8
_0-0_
  6
CONTINUOUS
 62
     7
 10
771.274771619737
 20
188.8098620608405
 30
0.0
 11
770.5879389825564
 21
188.2666846137451
 31
0.0
  0
LINE
  5
4DE
  8
_0-0_
  6
CONTINUOUS
 62
     7
 10
770.5879389825564
 20
188.2666846137451
 30
0.0
 11
769.8783823749773
 21
187.7986828749055
 31
0.0
  0
LINE
  5
4DF
  8
_0-0_
  6
CONTINUOUS
 62
     7
 10
769.8783823749773
 20
187.7986828749055
 30
0.0
 11
769.1992818271681
 21
187.4261917445883
 31
0.0
  0
LINE
  5
4E0
  8
_0-0_
  6
CONTINUOUS
 62
     7
 10
769.1992818271681
 20
187.4261917445883
 30
0.0
 11
768.5222758976716
 21
187.1191527389684
 31
0.0
  0
LINE
  5
4E1
  8
_0-0_
  6
CONTINUOUS
 62
     7
 10
768.5222758976716
 20
187.1191527389684
 30
0.0
 11
768.5222758976716
 21
227.2694289274569
 31
0.0
  0
LINE
  5
4E2
  8
_0-0_
  6
CONTINUOUS
 62
     7
 10
768.5222758976716
 20
227.2694289274569
 30
0.0
 11
768.4924275654614
 21
227.6788797965626
 31
0.0
  0
LINE
  5
4E3
  8
_0-0_
  6
CONTINUOUS
 62
     7
 10
768.4924275654614
 20
227.6788797965626
 30
0.0
 11
768.4053251315479
 21
228.0744132036792
 31
0.0
  0
LINE
  5
4E4
  8
_0-0_
  6
CONTINUOUS
 62
     7
 10
768.4053251315479
 20
228.0744132036792
 30
0.0
 11
768.2659229066066
 21
228.4414800090256
 31
0.0
  0
LINE
  5
4E5
  8
_0-0_
  6
CONTINUOUS
 62
     7
 10
768.2659229066066
 20
228.4414800090256
 30
0.0
 11
768.0842548150817
 21
228.7751672466887
 31
0.0
  0
LINE
  5
4E6
  8
_0-0_
  6
CONTINUOUS
 62
     7
 10
768.0842548150817
 20
228.7751672466887
 30
0.0
 11
767.7841203047722
 21
229.172500732892
 31
0.0
  0
LINE
  5
4E7
  8
_0-0_
  6
CONTINUOUS
 62
     7
 10
767.7841203047722
 20
229.172500732892
 30
0.0
 11
767.4446839696845
 21
229.502090300306
 31
0.0
  0
LINE
  5
4E8
  8
_0-0_
  6
CONTINUOUS
 62
     7
 10
767.4446839696845
 20
229.502090300306
 30
0.0
 11
766.9180584892351
 21
229.8662342821645
 31
0.0
  0
LINE
  5
4E9
  8
_0-0_
  6
CONTINUOUS
 62
     7
 10
766.9180584892351
 20
229.8662342821645
 30
0.0
 11
766.3716778525575
 21
230.1116540638781
 31
0.0
  0
LINE
  5
4EA
  8
_0-0_
  6
CONTINUOUS
 62
     7
 10
766.3716778525575
 20
230.1116540638781
 30
0.0
 11
765.8078105373852
 21
230.2491923436663
 31
0.0
  0
LINE
  5
4EB
  8
_0-0_
  6
CONTINUOUS
 62
     7
 10
765.8078105373852
 20
230.2491923436663
 30
0.0
 11
765.2572138004289
 21
230.27254874414
 31
0.0
  0
LINE
  5
4EC
  8
_0-0_
  6
CONTINUOUS
 62
     7
 10
765.2572138004289
 20
230.27254874414
 30
0.0
 11
765.0163182349194
 21
230.2456206429013
 31
0.0
  0
LINE
  5
4ED
  8
_0-0_
  6
CONTINUOUS
 62
     7
 10
765.0163182349194
 20
230.2456206429013
 30
0.0
 11
751.4899841959294
 21
228.0475913615656
 31
0.0
  0
LINE
  5
4EE
  8
_0-0_
  6
CONTINUOUS
 62
     7
 10
751.4899841959294
 20
228.0475913615656
 30
0.0
 11
749.0192287368468
 21
195.8118135643161
 31
0.0
  0
LINE
  5
4EF
  8
_0-0_
  6
CONTINUOUS
 62
     7
 10
752.5974841788347
 20
198.7383029374812
 30
0.0
 11
752.5974841788347
 21
191.3568797458917
 31
0.0
  0
LINE
  5
4F0
  8
_0-0_
  6
CONTINUOUS
 62
     7
 10
752.5974841788347
 20
191.3568797458917
 30
0.0
 11
758.9899841788349
 21
187.666168150097
 31
0.0
  0
LINE
  5
4F1
  8
_0-0_
  6
CONTINUOUS
 62
     7
 10
758.9899841788349
 20
187.666168150097
 30
0.0
 11
765.3824841788348
 21
191.3568797458918
 31
0.0
  0
LINE
  5
4F2
  8
_0-0_
  6
CONTINUOUS
 62
     7
 10
765.3824841788348
 20
191.3568797458918
 30
0.0
 11
765.3824841788348
 21
198.7383029374812
 31
0.0
  0
LINE
  5
4F3
  8
_0-0_
  6
CONTINUOUS
 62
     7
 10
765.3824841788348
 20
198.7383029374812
 30
0.0
 11
758.9899841788347
 21
202.4290145332758
 31
0.0
  0
LINE
  5
4F4
  8
_0-0_
  6
CONTINUOUS
 62
     7
 10
758.9899841788347
 20
202.4290145332758
 30
0.0
 11
752.5974841788347
 21
198.7383029374812
 31
0.0
  0
LINE
  5
4F5
  8
_0-0_
  6
CONTINUOUS
 62
     7
 10
761.2394947393683
 20
185.3038907137133
 30
0.0
 11
766.9828188163139
 21
186.6298415544057
 31
0.0
  0
LINE
  5
4F6
  8
_0-0_
  6
CONTINUOUS
 62
     7
 10
759.4899841959294
 20
229.3475913615655
 30
0.0
 11
759.4899841959294
 21
232.0475913615654
 31
0.0
  0
LINE
  5
4F7
  8
_0-0_
  6
CENTER1
 62
   152
 10
783.9899841959292
 20
222.0475913615657
 30
0.0
 11
783.9899841959292
 21
247.5475913615654
 31
0.0
  0
ARC
  5
4F8
  8
_0-0_
  6
CONTINUOUS
 62
     7
 10
758.9899841788358
 20
195.0475913416863
 30
0.0
 40
9.999999984475512
 50
175.6170557896668
 51
283.0000001210521
  0
ARC
  5
4F9
  8
_0-0_
  6
CONTINUOUS
 62
     7
 10
764.7333082728753
 20
196.3735422022584
 30
0.0
 40
10.00000000000037
 50
282.9999999999841
 51
292.265362319007
  0
ARC
  5
4FA
  8
_0-0_
  6
CONTINUOUS
 62
     7
 10
758.9899841788348
 20
195.0475913416864
 30
0.0
 40
6.392499999999993
 50
240.0000000000007
 51
300.0000000000002
  0
ARC
  5
4FB
  8
_0-0_
  6
CONTINUOUS
 62
     7
 10
758.9899841788348
 20
195.0475913416864
 30
0.0
 40
6.392500000000049
 50
299.9999999999974
 51
359.9999999999993
  0
ARC
  5
4FC
  8
_0-0_
  6
CONTINUOUS
 62
     7
 10
758.9899841788348
 20
195.0475913416864
 30
0.0
 40
6.392500000000041
 50
179.9999999999997
 51
240.0000000000012
  0
ARC
  5
4FD
  8
_0-0_
  6
CONTINUOUS
 62
     7
 10
758.9899841788348
 20
195.0475913416864
 30
0.0
 40
6.392499999999993
 50
119.9999999999998
 51
180.0000000000005
  0
ARC
  5
4FE
  8
_0-0_
  6
CONTINUOUS
 62
     7
 10
758.9899841788348
 20
195.0475913416864
 30
0.0
 40
6.392500000000041
 50
0.0
 51
59.99999999999946
  0
ARC
  5
4FF
  8
_0-0_
  6
CONTINUOUS
 62
     7
 10
758.9899841788348
 20
195.0475913416864
 30
0.0
 40
6.392500000000049
 50
59.99999999999934
 51
119.9999999999995
  0
ARC
  5
500
  8
_0-0_
  6
CONTINUOUS
 62
     7
 10
758.9899841788348
 20
195.0475913416864
 30
0.0
 40
18.0
 50
119.3660442050688
 51
7.340078480236572
  0
ARC
  5
501
  8
_0-0_
  6
CONTINUOUS
 62
     7
 10
758.9899841788348
 20
195.0475913416864
 30
0.0
 40
25.00000000000002
 50
109.1952341079949
 51
25.0797596299396
  0
ARC
  5
502
  8
_0-0_
  6
CONTINUOUS
 62
     7
 10
762.4899842441923
 20
232.0475913133022
 30
0.0
 40
3.000000048263209
 50
156.4218209183682
 51
180.0000012074169
  0
ARC
  5
503
  8
_0-0_
  6
CONTINUOUS
 62
     7
 10
805.4899841476661
 20
232.0475913133022
 30
0.0
 40
3.000000048263246
 50
359.9999987925821
 51
23.57817695245428
  0
LINE
  5
504
  8
_0-0_
  6
CONTINUOUS
 62
     7
 10
703.8711741959294
 20
190.0475913416864
 30
0.0
 11
703.8711741959294
 21
183.7621213416862
 31
0.0
  0
LINE
  5
505
  8
_0-0_
  6
CONTINUOUS
 62
     7
 10
700.4899841959298
 20
183.0475913416864
 30
0.0
 11
699.2523741959292
 21
183.7621213416862
 31
0.0
  0
LINE
  5
506
  8
_0-0_
  6
CONTINUOUS
 62
     7
 10
699.2523741959292
 20
183.7621213416862
 30
0.0
 11
699.2523741959292
 21
190.0475913416864
 31
0.0
  0
LINE
  5
507
  8
_0-0_
  6
CONTINUOUS
 62
     7
 10
699.2523741959292
 20
190.0475913416864
 30
0.0
 11
717.7275841959292
 21
190.0475913416864
 31
0.0
  0
LINE
  5
508
  8
_0-0_
  6
CONTINUOUS
 62
     7
 10
717.7275841959292
 20
190.0475913416864
 30
0.0
 11
717.7275841959292
 21
183.7621213416862
 31
0.0
  0
LINE
  5
509
  8
_0-0_
  6
CONTINUOUS
 62
     7
 10
717.7275841959292
 20
183.7621213416862
 30
0.0
 11
716.4899841959298
 21
183.0475913416864
 31
0.0
  0
LINE
  5
50A
  8
_0-0_
  6
CONTINUOUS
 62
     7
 10
713.1087841959295
 20
183.7621213416862
 30
0.0
 11
713.1087841959295
 21
190.0475913416864
 31
0.0
  0
LINE
  5
50B
  8
_0-0_
  6
CONTINUOUS
 62
     7
 10
713.4899841959293
 20
248.2475913615652
 30
0.0
 11
713.4899841959293
 21
269.3475913416864
 31
0.0
  0
LINE
  5
50C
  8
_0-0_
  6
CONTINUOUS
 62
     7
 10
713.4899841959293
 20
269.3475913416864
 30
0.0
 11
712.7899841959295
 21
270.0475913416864
 31
0.0
  0
LINE
  5
50D
  8
_0-0_
  6
CONTINUOUS
 62
     7
 10
712.7899841959295
 20
270.0475913416864
 30
0.0
 11
704.1899741959294
 21
270.0475913416864
 31
0.0
  0
LINE
  5
50E
  8
_0-0_
  6
CONTINUOUS
 62
     7
 10
704.1899741959294
 20
270.0475913416864
 30
0.0
 11
703.4899841959293
 21
269.3475913416864
 31
0.0
  0
LINE
  5
50F
  8
_0-0_
  6
CONTINUOUS
 62
     7
 10
703.4899841959293
 20
269.3475913416864
 30
0.0
 11
703.4899841959293
 21
248.2475913615652
 31
0.0
  0
LINE
  5
510
  8
_0-0_
  6
CONTINUOUS
 62
     7
 10
690.4899841959298
 20
170.0475913416864
 30
0.0
 11
726.4899841959298
 21
170.0475913416864
 31
0.0
  0
LINE
  5
511
  8
_0-0_
  6
CONTINUOUS
 62
     7
 10
726.4899841959298
 20
170.0475913416864
 30
0.0
 11
726.4899841959298
 21
174.0475913416864
 31
0.0
  0
LINE
  5
512
  8
_0-0_
  6
CONTINUOUS
 62
     7
 10
728.4899841959293
 20
174.0475913416864
 30
0.0
 11
688.4899841959293
 21
174.0475913416864
 31
0.0
  0
LINE
  5
513
  8
_0-0_
  6
CONTINUOUS
 62
     7
 10
688.4899841959293
 20
174.0475913416864
 30
0.0
 11
688.4899841959293
 21
178.0475913416864
 31
0.0
  0
LINE
  5
514
  8
_0-0_
  6
CONTINUOUS
 62
     7
 10
690.4899841959298
 20
174.0475913416864
 30
0.0
 11
690.4899841959298
 21
170.0475913416864
 31
0.0
  0
LINE
  5
515
  8
_0-0_
  6
CONTINUOUS
 62
     7
 10
693.4899841959293
 20
183.0475913416864
 30
0.0
 11
723.4899841959293
 21
183.0475913416864
 31
0.0
  0
LINE
  5
516
  8
_0-0_
  6
CONTINUOUS
 62
     7
 10
728.4899841959293
 20
178.0475913416864
 30
0.0
 11
728.4899841959293
 21
174.0475913416864
 31
0.0
  0
ARC
  5
517
  8
_0-0_
  6
CONTINUOUS
 62
     7
 10
708.4899841959293
 20
198.3330613416865
 30
0.0
 40
15.28546800000001
 50
252.4120399999994
 51
287.5879499999991
  0
ARC
  5
518
  8
_0-0_
  6
CONTINUOUS
 62
     7
 10
701.5617741959293
 20
187.136901341686
 30
0.0
 40
4.08931640000003
 50
235.6157500000005
 51
304.384240000002
  0
ARC
  5
519
  8
_0-0_
  6
CONTINUOUS
 62
     7
 10
715.4181841959296
 20
187.136901341686
 30
0.0
 40
4.08931640000003
 50
235.6157499999983
 51
304.3842399999988
  0
ARC
  5
51A
  8
_0-0_
  6
CONTINUOUS
 62
     7
 10
693.4899841959293
 20
178.0475913416864
 30
0.0
 40
5.0
 50
90.0
 51
180.0000000000003
  0
ARC
  5
51B
  8
_0-0_
  6
CONTINUOUS
 62
     7
 10
723.4899841959293
 20
178.0475913416864
 30
0.0
 40
5.0
 50
0.0
 51
90.0
  0
LINE
  5
51C
  8
_0-0_
  6
CONTINUOUS
 62
     7
 10
625.6362212492539
 20
190.0475913416864
 30
0.0
 11
625.6362212492539
 21
183.7621213416862
 31
0.0
  0
LINE
  5
51D
  8
_0-0_
  6
CONTINUOUS
 62
     7
 10
622.2550312492543
 20
183.0475913416864
 30
0.0
 11
621.0174212492537
 21
183.7621213416862
 31
0.0
  0
LINE
  5
51E
  8
_0-0_
  6
CONTINUOUS
 62
     7
 10
621.0174212492537
 20
183.7621213416862
 30
0.0
 11
621.0174212492537
 21
190.0475913416864
 31
0.0
  0
LINE
  5
51F
  8
_0-0_
  6
CONTINUOUS
 62
     7
 10
621.0174212492537
 20
190.0475913416864
 30
0.0
 11
639.4926312492538
 21
190.0475913416864
 31
0.0
  0
LINE
  5
520
  8
_0-0_
  6
CONTINUOUS
 62
     7
 10
639.4926312492538
 20
190.0475913416864
 30
0.0
 11
639.4926312492538
 21
183.7621213416862
 31
0.0
  0
LINE
  5
521
  8
_0-0_
  6
CONTINUOUS
 62
     7
 10
639.4926312492538
 20
183.7621213416862
 30
0.0
 11
638.2550312492543
 21
183.0475913416864
 31
0.0
  0
LINE
  5
522
  8
_0-0_
  6
CONTINUOUS
 62
     7
 10
634.8738312492541
 20
183.7621213416862
 30
0.0
 11
634.8738312492541
 21
190.0475913416864
 31
0.0
  0
LINE
  5
523
  8
_0-0_
  6
CONTINUOUS
 62
     7
 10
635.2550312492539
 20
248.2475913615652
 30
0.0
 11
635.2550312492539
 21
269.3475913416864
 31
0.0
  0
LINE
  5
524
  8
_0-0_
  6
CONTINUOUS
 62
     7
 10
635.2550312492539
 20
269.3475913416864
 30
0.0
 11
634.5550312492541
 21
270.0475913416864
 31
0.0
  0
LINE
  5
525
  8
_0-0_
  6
CONTINUOUS
 62
     7
 10
634.5550312492541
 20
270.0475913416864
 30
0.0
 11
625.955021249254
 21
270.0475913416864
 31
0.0
  0
LINE
  5
526
  8
_0-0_
  6
CONTINUOUS
 62
     7
 10
625.955021249254
 20
270.0475913416864
 30
0.0
 11
625.2550312492539
 21
269.3475913416864
 31
0.0
  0
LINE
  5
527
  8
_0-0_
  6
CONTINUOUS
 62
     7
 10
625.2550312492539
 20
269.3475913416864
 30
0.0
 11
625.2550312492539
 21
248.2475913615652
 31
0.0
  0
LINE
  5
528
  8
_0-0_
  6
CONTINUOUS
 62
     7
 10
612.2550312492543
 20
170.0475913416864
 30
0.0
 11
648.2550312492543
 21
170.0475913416864
 31
0.0
  0
LINE
  5
529
  8
_0-0_
  6
CONTINUOUS
 62
     7
 10
648.2550312492543
 20
170.0475913416864
 30
0.0
 11
648.2550312492543
 21
174.0475913416864
 31
0.0
  0
LINE
  5
52A
  8
_0-0_
  6
CONTINUOUS
 62
     7
 10
650.2550312492539
 20
174.0475913416864
 30
0.0
 11
610.2550312492539
 21
174.0475913416864
 31
0.0
  0
LINE
  5
52B
  8
_0-0_
  6
CONTINUOUS
 62
     7
 10
610.2550312492539
 20
174.0475913416864
 30
0.0
 11
610.2550312492539
 21
178.0475913416864
 31
0.0
  0
LINE
  5
52C
  8
_0-0_
  6
CONTINUOUS
 62
     7
 10
612.2550312492543
 20
174.0475913416864
 30
0.0
 11
612.2550312492543
 21
170.0475913416864
 31
0.0
  0
LINE
  5
52D
  8
_0-0_
  6
CONTINUOUS
 62
     7
 10
615.2550312492539
 20
183.0475913416864
 30
0.0
 11
645.2550312492539
 21
183.0475913416864
 31
0.0
  0
LINE
  5
52E
  8
_0-0_
  6
CONTINUOUS
 62
     7
 10
650.2550312492539
 20
178.0475913416864
 30
0.0
 11
650.2550312492539
 21
174.0475913416864
 31
0.0
  0
ARC
  5
52F
  8
_0-0_
  6
CONTINUOUS
 62
     7
 10
630.2550312492539
 20
198.3330613416865
 30
0.0
 40
15.28546800000001
 50
252.4120399999998
 51
287.5879499999995
  0
ARC
  5
530
  8
_0-0_
  6
CONTINUOUS
 62
     7
 10
623.3268212492538
 20
187.136901341686
 30
0.0
 40
4.08931640000003
 50
235.6157499999986
 51
304.3842399999986
  0
ARC
  5
531
  8
_0-0_
  6
CONTINUOUS
 62
     7
 10
637.1832312492542
 20
187.136901341686
 30
0.0
 40
4.08931640000003
 50
235.6157499999996
 51
304.3842400000002
  0
ARC
  5
532
  8
_0-0_
  6
CONTINUOUS
 62
     7
 10
615.2550312492539
 20
178.0475913416864
 30
0.0
 40
5.0
 50
90.0
 51
180.0
  0
ARC
  5
533
  8
_0-0_
  6
CONTINUOUS
 62
     7
 10
645.2550312492539
 20
178.0475913416864
 30
0.0
 40
5.0
 50
0.0
 51
90.0
  0
LINE
  5
534
  8
_0-1_
  6
CONTINUOUS
 62
   152
 10
712.7899841959295
 20
248.2475913615652
 30
0.0
 11
712.7899841959295
 21
270.0475913416864
 31
0.0
  0
LINE
  5
535
  8
_0-1_
  6
CONTINUOUS
 62
   152
 10
704.1899741959294
 20
248.2475913615652
 30
0.0
 11
704.1899741959294
 21
270.0475913416864
 31
0.0
  0
LINE
  5
536
  8
_0-1_
  6
CONTINUOUS
 62
   152
 10
703.4899841959293
 20
269.3475913416864
 30
0.0
 11
713.4899841959293
 21
269.3475913416864
 31
0.0
  0
LINE
  5
537
  8
_0-1_
  6
CONTINUOUS
 62
   152
 10
634.5550312492541
 20
248.2475913615652
 30
0.0
 11
634.5550312492541
 21
270.0475913416864
 31
0.0
  0
LINE
  5
538
  8
_0-1_
  6
CONTINUOUS
 62
   152
 10
625.955021249254
 20
248.2475913615652
 30
0.0
 11
625.955021249254
 21
270.0475913416864
 31
0.0
  0
LINE
  5
539
  8
_0-1_
  6
CONTINUOUS
 62
   152
 10
625.2550312492539
 20
269.3475913416864
 30
0.0
 11
635.2550312492539
 21
269.3475913416864
 31
0.0
  0
LINE
  5
53A
  8
_0-1_
  6
CENTER1
 62
   152
 10
630.2550312492539
 20
270.0475913416864
 30
0.0
 11
630.2550312492539
 21
170.0475913416864
 31
0.0
  0
LINE
  5
53B
  8
_0-1_
  6
CENTER1
 62
   152
 10
708.4899841959293
 20
270.0475913416864
 30
0.0
 11
708.4899841959293
 21
170.0475913416864
 31
0.0
  0
TEXT
  5
53C
  8
_0-1_
 62
     7
 10
661.5022265721908
 20
139.4171207689553
 30
0.0
 40
5.0
  1
AS25A-M10
1001
CAXA_DRAFT_TXTSCALE
1041
1.0
  0
TEXT
  5
53D
  8
_0-1_
 62
     7
 10
175.9773550043697
 20
139.4171207689553
 30
0.0
 40
5.0
  1
AS25A-M12
1001
CAXA_DRAFT_TXTSCALE
1041
1.0
  0
LINE
  5
53E
  8
_0-0_
  6
CONTINUOUS
 62
     7
 10
214.8813375084903
 20
219.3847726436087
 30
0.0
 11
214.8813375084903
 21
228.2475913615652
 31
0.0
  0
LINE
  5
53F
  8
_0-0_
  6
CONTINUOUS
 62
     7
 10
220.3661650269534
 20
219.3847726436087
 30
0.0
 11
220.3661650269534
 21
228.2475913615652
 31
0.0
  0
LINE
  5
540
  8
_0-0_
  6
CONTINUOUS
 62
     7
 10
231.3358200638797
 20
219.3847726436087
 30
0.0
 11
231.3358200638797
 21
228.2475913615652
 31
0.0
  0
LINE
  5
541
  8
_0-0_
  6
CONTINUOUS
 62
     7
 10
236.8206475823428
 20
219.3847726436087
 30
0.0
 11
236.8206475823428
 21
228.2475913615652
 31
0.0
  0
LINE
  5
542
  8
_0-0_
  6
CONTINUOUS
 62
     7
 10
217.6237510293033
 20
218.2475913615652
 30
0.0
 11
234.0782340615298
 21
218.2475913615652
 31
0.0
  0
ARC
  5
543
  8
_0-0_
  6
CONTINUOUS
 62
     7
 10
225.8509925454165
 20
232.0433355422446
 30
0.0
 40
13.79574394226074
 50
246.5733947753906
 51
293.4265899658204
  0
LINE
  5
544
  8
_0-0_
  6
CONTINUOUS
 62
     7
 10
214.8814678091726
 20
219.3847731457301
 30
0.0
 11
215.5488915913124
 21
218.8665176450257
 31
0.0
  0
LINE
  5
545
  8
_0-0_
  6
CONTINUOUS
 62
     7
 10
215.5488915913124
 20
218.8665176450257
 30
0.0
 11
216.2793589275461
 21
218.4986551911749
 31
0.0
  0
LINE
  5
546
  8
_0-0_
  6
CONTINUOUS
 62
     7
 10
216.2793589275461
 20
218.4986551911749
 30
0.0
 11
217.0506749374964
 21
218.2923630986904
 31
0.0
  0
LINE
  5
547
  8
_0-0_
  6
CONTINUOUS
 62
     7
 10
217.0506749374964
 20
218.2923630986904
 30
0.0
 11
217.8394035745056
 21
218.2539094484135
 31
0.0
  0
LINE
  5
548
  8
_0-0_
  6
CONTINUOUS
 62
     7
 10
217.8394035745056
 20
218.2539094484135
 30
0.0
 11
218.6215797180545
 21
218.3844626350495
 31
0.0
  0
LINE
  5
549
  8
_0-0_
  6
CONTINUOUS
 62
     7
 10
218.6215797180545
 20
218.3844626350495
 30
0.0
 11
219.3734373418213
 21
218.6800558660855
 31
0.0
  0
LINE
  5
54A
  8
_0-0_
  6
CONTINUOUS
 62
     7
 10
219.3734373418213
 20
218.6800558660855
 30
0.0
 11
220.0721316323663
 21
219.1317076907739
 31
0.0
  0
LINE
  5
54B
  8
_0-0_
  6
CONTINUOUS
 62
     7
 10
220.0721316323663
 20
219.1317076907739
 30
0.0
 11
220.3660332897313
 21
219.3847722476557
 31
0.0
  0
LINE
  5
54C
  8
_0-0_
  6
CONTINUOUS
 62
     7
 10
231.3359508413992
 20
219.3847731457301
 30
0.0
 11
232.0033746235389
 21
218.8665176450257
 31
0.0
  0
LINE
  5
54D
  8
_0-0_
  6
CONTINUOUS
 62
     7
 10
232.0033746235389
 20
218.8665176450257
 30
0.0
 11
232.7338419597726
 21
218.4986551911749
 31
0.0
  0
LINE
  5
54E
  8
_0-0_
  6
CONTINUOUS
 62
     7
 10
232.7338419597726
 20
218.4986551911749
 30
0.0
 11
233.5051579697229
 21
218.2923630986904
 31
0.0
  0
LINE
  5
54F
  8
_0-0_
  6
CONTINUOUS
 62
     7
 10
233.5051579697229
 20
218.2923630986904
 30
0.0
 11
234.2938866067322
 21
218.2539094484135
 31
0.0
  0
LINE
  5
550
  8
_0-0_
  6
CONTINUOUS
 62
     7
 10
234.2938866067322
 20
218.2539094484135
 30
0.0
 11
235.0760627502811
 21
218.3844626350495
 31
0.0
  0
LINE
  5
551
  8
_0-0_
  6
CONTINUOUS
 62
     7
 10
235.0760627502811
 20
218.3844626350495
 30
0.0
 11
235.8279203740479
 21
218.6800558660855
 31
0.0
  0
LINE
  5
552
  8
_0-0_
  6
CONTINUOUS
 62
     7
 10
235.8279203740479
 20
218.6800558660855
 30
0.0
 11
236.5266146645928
 21
219.1317076907739
 31
0.0
  0
LINE
  5
553
  8
_0-0_
  6
CONTINUOUS
 62
     7
 10
236.5266146645928
 20
219.1317076907739
 30
0.0
 11
236.8205163219579
 21
219.3847722476557
 31
0.0
  0
LINE
  5
554
  8
_0-0_
  6
CONTINUOUS
 62
     7
 10
214.8813375084903
 20
228.2475913615652
 30
0.0
 11
236.8206475823428
 21
228.2475913615652
 31
0.0
  0
LINE
  5
555
  8
ADD_LINE
  6
DOT
 62
   152
 10
225.8509925454165
 20
228.2475913615657
 30
0.0
 11
225.1438857642299
 21
228.9546981427519
 31
0.0
  0
LINE
  5
556
  8
ADD_LINE
  6
DOT
 62
   152
 10
225.8509925454165
 20
228.2475913615657
 30
0.0
 11
226.5580993266032
 21
228.9546981427519
 31
0.0
  0
LINE
  5
557
  8
_0-0_
  6
CONTINUOUS
 62
     7
 10
200.8509925454156
 20
183.0475913416864
 30
0.0
 11
200.8509925454156
 21
173.0475913416864
 31
0.0
  0
LINE
  5
558
  8
_0-0_
  6
CONTINUOUS
 62
     7
 10
250.8509925454165
 20
173.0475913416864
 30
0.0
 11
247.8509925454175
 21
170.0475913416864
 31
0.0
  0
LINE
  5
559
  8
_0-0_
  6
CONTINUOUS
 62
     7
 10
247.8509925454175
 20
170.0475913416864
 30
0.0
 11
203.8509925454165
 21
170.0475913416864
 31
0.0
  0
LINE
  5
55A
  8
_0-0_
  6
CONTINUOUS
 62
     7
 10
203.8509925454165
 20
170.0475913416864
 30
0.0
 11
200.8509925454156
 21
173.0475913416864
 31
0.0
  0
LINE
  5
55B
  8
_0-0_
  6
CONTINUOUS
 62
     7
 10
203.8509925454165
 20
186.0475913416864
 30
0.0
 11
247.8509925454175
 21
186.0475913416864
 31
0.0
  0
LINE
  5
55C
  8
_0-0_
  6
CONTINUOUS
 62
     7
 10
250.8509925454165
 20
183.0475913416864
 30
0.0
 11
250.8509925454165
 21
173.0475913416864
 31
0.0
  0
LINE
  5
55D
  8
_0-0_
  6
CONTINUOUS
 62
     7
 10
236.8206475892704
 20
186.0475913416864
 30
0.0
 11
236.8206475892704
 21
194.4104102980615
 31
0.0
  0
LINE
  5
55E
  8
_0-0_
  6
CONTINUOUS
 62
     7
 10
234.0782340684574
 20
195.5475915801055
 30
0.0
 11
217.62375103623
 21
195.5475915801055
 31
0.0
  0
LINE
  5
55F
  8
_0-0_
  6
CONTINUOUS
 62
     7
 10
219.8509925454175
 20
264.6475913416863
 30
0.0
 11
220.7509925454162
 21
265.5475913416864
 31
0.0
  0
LINE
  5
560
  8
_0-0_
  6
CONTINUOUS
 62
     7
 10
220.7509925454162
 20
265.5475913416864
 30
0.0
 11
230.950992545416
 21
265.5475913416864
 31
0.0
  0
LINE
  5
561
  8
_0-0_
  6
CONTINUOUS
 62
     7
 10
230.950992545416
 20
265.5475913416864
 30
0.0
 11
231.8509925454165
 21
264.6475913416863
 31
0.0
  0
LINE
  5
562
  8
_0-0_
  6
CONTINUOUS
 62
     7
 10
220.3661650338801
 20
194.4104102980615
 30
0.0
 11
220.3661650338801
 21
186.0475913416864
 31
0.0
  0
LINE
  5
563
  8
_0-0_
  6
CONTINUOUS
 62
     7
 10
214.881337515417
 20
186.0475913416864
 30
0.0
 11
214.881337515417
 21
194.4104102980615
 31
0.0
  0
LINE
  5
564
  8
_0-0_
  6
CONTINUOUS
 62
     7
 10
231.3358200708073
 20
194.4104102980615
 30
0.0
 11
231.3358200708073
 21
186.0475913416864
 31
0.0
  0
LINE
  5
565
  8
_0-0_
  6
CONTINUOUS
 62
     7
 10
220.3660342563606
 20
194.4104097959397
 30
0.0
 11
219.6986104742209
 21
194.9286652966441
 31
0.0
  0
LINE
  5
566
  8
_0-0_
  6
CONTINUOUS
 62
     7
 10
219.6986104742209
 20
194.9286652966441
 30
0.0
 11
218.9681431379872
 21
195.2965277504949
 31
0.0
  0
LINE
  5
567
  8
_0-0_
  6
CONTINUOUS
 62
     7
 10
218.9681431379872
 20
195.2965277504949
 30
0.0
 11
218.1968271280369
 21
195.5028198429794
 31
0.0
  0
LINE
  5
568
  8
_0-0_
  6
CONTINUOUS
 62
     7
 10
218.1968271280369
 20
195.5028198429794
 30
0.0
 11
217.4080984910276
 21
195.5412734932563
 31
0.0
  0
LINE
  5
569
  8
_0-0_
  6
CONTINUOUS
 62
     7
 10
217.4080984910276
 20
195.5412734932563
 30
0.0
 11
216.6259223474787
 21
195.4107203066202
 31
0.0
  0
LINE
  5
56A
  8
_0-0_
  6
CONTINUOUS
 62
     7
 10
216.6259223474787
 20
195.4107203066202
 30
0.0
 11
215.8740647237119
 21
195.1151270755843
 31
0.0
  0
LINE
  5
56B
  8
_0-0_
  6
CONTINUOUS
 62
     7
 10
215.8740647237119
 20
195.1151270755843
 30
0.0
 11
215.175370433167
 21
194.6634752508959
 31
0.0
  0
LINE
  5
56C
  8
_0-0_
  6
CONTINUOUS
 62
     7
 10
215.175370433167
 20
194.6634752508959
 30
0.0
 11
214.8814687758019
 21
194.410410694014
 31
0.0
  0
LINE
  5
56D
  8
_0-0_
  6
CONTINUOUS
 62
     7
 10
236.8205172885881
 20
194.4104097959397
 30
0.0
 11
236.1530935064483
 21
194.9286652966441
 31
0.0
  0
LINE
  5
56E
  8
_0-0_
  6
CONTINUOUS
 62
     7
 10
236.1530935064483
 20
194.9286652966441
 30
0.0
 11
235.4226261702146
 21
195.2965277504949
 31
0.0
  0
LINE
  5
56F
  8
_0-0_
  6
CONTINUOUS
 62
     7
 10
235.4226261702146
 20
195.2965277504949
 30
0.0
 11
234.6513101602644
 21
195.5028198429794
 31
0.0
  0
LINE
  5
570
  8
_0-0_
  6
CONTINUOUS
 62
     7
 10
234.6513101602644
 20
195.5028198429794
 30
0.0
 11
233.8625815232551
 21
195.5412734932563
 31
0.0
  0
LINE
  5
571
  8
_0-0_
  6
CONTINUOUS
 62
     7
 10
233.8625815232551
 20
195.5412734932563
 30
0.0
 11
233.0804053797062
 21
195.4107203066202
 31
0.0
  0
LINE
  5
572
  8
_0-0_
  6
CONTINUOUS
 62
     7
 10
233.0804053797062
 20
195.4107203066202
 30
0.0
 11
232.3285477559394
 21
195.1151270755843
 31
0.0
  0
LINE
  5
573
  8
_0-0_
  6
CONTINUOUS
 62
     7
 10
232.3285477559394
 20
195.1151270755843
 30
0.0
 11
231.6298534653944
 21
194.6634752508959
 31
0.0
  0
LINE
  5
574
  8
_0-0_
  6
CONTINUOUS
 62
     7
 10
231.6298534653944
 20
194.6634752508959
 30
0.0
 11
231.3359518080294
 21
194.410410694014
 31
0.0
  0
ARC
  5
575
  8
_0-0_
  6
CONTINUOUS
 62
     7
 10
225.8509925523442
 20
181.7518473994257
 30
0.0
 40
13.79574394226074
 50
66.5733947753906
 51
113.4265899658201
  0
ARC
  5
576
  8
_0-0_
  6
CONTINUOUS
 62
     7
 10
247.8509925454175
 20
183.0475913416864
 30
0.0
 40
3.0
 50
0.0
 51
90.0
  0
ARC
  5
577
  8
_0-0_
  6
CONTINUOUS
 62
     7
 10
203.8509925454165
 20
183.0475913416864
 30
0.0
 40
3.0
 50
90.0
 51
180.0000000000005
  0
LINE
  5
578
  8
_0-0_
  6
CONTINUOUS
 62
     7
 10
200.8509925454156
 20
173.0475913416864
 30
0.0
 11
250.8509925454165
 21
173.0475913416864
 31
0.0
  0
LINE
  5
579
  8
_0-0_
  6
CONTINUOUS
 62
     7
 10
219.8509925454175
 20
195.5475913416864
 30
0.0
 11
219.8509925454175
 21
218.2475913615652
 31
0.0
  0
LINE
  5
57A
  8
_0-0_
  6
CONTINUOUS
 62
     7
 10
231.8509925454165
 20
218.2475913615652
 30
0.0
 11
231.8509925454165
 21
195.5475913416864
 31
0.0
  0
LINE
  5
57B
  8
_0-1_
  6
CONTINUOUS
 62
   152
 10
231.8509925454165
 20
264.6475913416863
 30
0.0
 11
219.8509925454175
 21
264.6475913416863
 31
0.0
  0
LINE
  5
57C
  8
_0-1_
  6
CONTINUOUS
 62
   152
 10
220.7509925454162
 20
218.2475913615652
 30
0.0
 11
220.7509925454162
 21
195.5475913416864
 31
0.0
  0
LINE
  5
57D
  8
_0-1_
  6
CONTINUOUS
 62
   152
 10
230.950992545416
 20
195.5475913416864
 30
0.0
 11
230.950992545416
 21
218.2475913615652
 31
0.0
  0
LINE
  5
57E
  8
_0-0_
  6
CONTINUOUS
 62
     7
 10
219.8509925454175
 20
248.2475913615652
 30
0.0
 11
219.8509925454175
 21
264.6475913416863
 31
0.0
  0
LINE
  5
57F
  8
_0-1_
  6
CONTINUOUS
 62
   152
 10
220.7509925454162
 20
265.5475913416864
 30
0.0
 11
220.7509925454162
 21
248.2475913615652
 31
0.0
  0
LINE
  5
580
  8
_0-1_
  6
CONTINUOUS
 62
   152
 10
230.950992545416
 20
248.2475913615652
 30
0.0
 11
230.950992545416
 21
265.5475913416864
 31
0.0
  0
LINE
  5
581
  8
_0-0_
  6
CONTINUOUS
 62
     7
 10
231.8509925454165
 20
264.6475913416863
 30
0.0
 11
231.8509925454165
 21
248.2475913615652
 31
0.0
  0
LINE
  5
582
  8
_0-0_
  6
CONTINUOUS
 62
     7
 10
136.6463845618149
 20
219.3847726436087
 30
0.0
 11
136.6463845618149
 21
228.2475913615652
 31
0.0
  0
LINE
  5
583
  8
_0-0_
  6
CONTINUOUS
 62
     7
 10
142.131212080278
 20
219.3847726436087
 30
0.0
 11
142.131212080278
 21
228.2475913615652
 31
0.0
  0
LINE
  5
584
  8
_0-0_
  6
CONTINUOUS
 62
     7
 10
153.1008671172043
 20
219.3847726436087
 30
0.0
 11
153.1008671172043
 21
228.2475913615652
 31
0.0
  0
LINE
  5
585
  8
_0-0_
  6
CONTINUOUS
 62
     7
 10
158.5856946356674
 20
219.3847726436087
 30
0.0
 11
158.5856946356674
 21
228.2475913615652
 31
0.0
  0
LINE
  5
586
  8
_0-0_
  6
CONTINUOUS
 62
     7
 10
139.3887980826279
 20
218.2475913615652
 30
0.0
 11
155.8432811148544
 21
218.2475913615652
 31
0.0
  0
ARC
  5
587
  8
_0-0_
  6
CONTINUOUS
 62
     7
 10
147.6160395987412
 20
232.0433355422446
 30
0.0
 40
13.79574394226074
 50
246.5733947753905
 51
293.4265899658204
  0
LINE
  5
588
  8
_0-0_
  6
CONTINUOUS
 62
     7
 10
136.6465148624973
 20
219.3847731457301
 30
0.0
 11
137.313938644637
 21
218.8665176450257
 31
0.0
  0
LINE
  5
589
  8
_0-0_
  6
CONTINUOUS
 62
     7
 10
137.313938644637
 20
218.8665176450257
 30
0.0
 11
138.0444059808707
 21
218.4986551911749
 31
0.0
  0
LINE
  5
58A
  8
_0-0_
  6
CONTINUOUS
 62
     7
 10
138.0444059808707
 20
218.4986551911749
 30
0.0
 11
138.815721990821
 21
218.2923630986904
 31
0.0
  0
LINE
  5
58B
  8
_0-0_
  6
CONTINUOUS
 62
     7
 10
138.815721990821
 20
218.2923630986904
 30
0.0
 11
139.6044506278303
 21
218.2539094484135
 31
0.0
  0
LINE
  5
58C
  8
_0-0_
  6
CONTINUOUS
 62
     7
 10
139.6044506278303
 20
218.2539094484135
 30
0.0
 11
140.3866267713792
 21
218.3844626350495
 31
0.0
  0
LINE
  5
58D
  8
_0-0_
  6
CONTINUOUS
 62
     7
 10
140.3866267713792
 20
218.3844626350495
 30
0.0
 11
141.138484395146
 21
218.6800558660855
 31
0.0
  0
LINE
  5
58E
  8
_0-0_
  6
CONTINUOUS
 62
     7
 10
141.138484395146
 20
218.6800558660855
 30
0.0
 11
141.8371786856909
 21
219.1317076907739
 31
0.0
  0
LINE
  5
58F
  8
_0-0_
  6
CONTINUOUS
 62
     7
 10
141.8371786856909
 20
219.1317076907739
 30
0.0
 11
142.1310803430559
 21
219.3847722476557
 31
0.0
  0
LINE
  5
590
  8
_0-0_
  6
CONTINUOUS
 62
     7
 10
153.1009978947238
 20
219.3847731457301
 30
0.0
 11
153.7684216768636
 21
218.8665176450257
 31
0.0
  0
LINE
  5
591
  8
_0-0_
  6
CONTINUOUS
 62
     7
 10
153.7684216768636
 20
218.8665176450257
 30
0.0
 11
154.4988890130973
 21
218.4986551911749
 31
0.0
  0
LINE
  5
592
  8
_0-0_
  6
CONTINUOUS
 62
     7
 10
154.4988890130973
 20
218.4986551911749
 30
0.0
 11
155.2702050230475
 21
218.2923630986904
 31
0.0
  0
LINE
  5
593
  8
_0-0_
  6
CONTINUOUS
 62
     7
 10
155.2702050230475
 20
218.2923630986904
 30
0.0
 11
156.0589336600568
 21
218.2539094484135
 31
0.0
  0
LINE
  5
594
  8
_0-0_
  6
CONTINUOUS
 62
     7
 10
156.0589336600568
 20
218.2539094484135
 30
0.0
 11
156.8411098036057
 21
218.3844626350495
 31
0.0
  0
LINE
  5
595
  8
_0-0_
  6
CONTINUOUS
 62
     7
 10
156.8411098036057
 20
218.3844626350495
 30
0.0
 11
157.5929674273725
 21
218.6800558660855
 31
0.0
  0
LINE
  5
596
  8
_0-0_
  6
CONTINUOUS
 62
     7
 10
157.5929674273725
 20
218.6800558660855
 30
0.0
 11
158.2916617179175
 21
219.1317076907739
 31
0.0
  0
LINE
  5
597
  8
_0-0_
  6
CONTINUOUS
 62
     7
 10
158.2916617179175
 20
219.1317076907739
 30
0.0
 11
158.5855633752825
 21
219.3847722476557
 31
0.0
  0
LINE
  5
598
  8
_0-0_
  6
CONTINUOUS
 62
     7
 10
136.6463845618149
 20
228.2475913615652
 30
0.0
 11
158.5856946356674
 21
228.2475913615652
 31
0.0
  0
LINE
  5
599
  8
_0-0_
  6
CONTINUOUS
 62
     7
 10
122.6160395987403
 20
183.0475913416864
 30
0.0
 11
122.6160395987403
 21
173.0475913416864
 31
0.0
  0
LINE
  5
59A
  8
_0-0_
  6
CONTINUOUS
 62
     7
 10
172.6160395987412
 20
173.0475913416864
 30
0.0
 11
169.6160395987421
 21
170.0475913416864
 31
0.0
  0
LINE
  5
59B
  8
_0-0_
  6
CONTINUOUS
 62
     7
 10
169.6160395987421
 20
170.0475913416864
 30
0.0
 11
125.6160395987412
 21
170.0475913416864
 31
0.0
  0
LINE
  5
59C
  8
_0-0_
  6
CONTINUOUS
 62
     7
 10
125.6160395987412
 20
170.0475913416864
 30
0.0
 11
122.6160395987403
 21
173.0475913416864
 31
0.0
  0
LINE
  5
59D
  8
_0-0_
  6
CONTINUOUS
 62
     7
 10
125.6160395987412
 20
186.0475913416864
 30
0.0
 11
169.6160395987421
 21
186.0475913416864
 31
0.0
  0
LINE
  5
59E
  8
_0-0_
  6
CONTINUOUS
 62
     7
 10
172.6160395987412
 20
183.0475913416864
 30
0.0
 11
172.6160395987412
 21
173.0475913416864
 31
0.0
  0
LINE
  5
59F
  8
_0-0_
  6
CONTINUOUS
 62
     7
 10
158.5856946425951
 20
186.0475913416864
 30
0.0
 11
158.5856946425951
 21
194.4104102980615
 31
0.0
  0
LINE
  5
5A0
  8
_0-0_
  6
CONTINUOUS
 62
     7
 10
155.8432811217821
 20
195.5475915801055
 30
0.0
 11
139.3887980895546
 21
195.5475915801055
 31
0.0
  0
LINE
  5
5A1
  8
_0-0_
  6
CONTINUOUS
 62
     7
 10
141.6160395987421
 20
264.6475913416863
 30
0.0
 11
142.5160395987408
 21
265.5475913416864
 31
0.0
  0
LINE
  5
5A2
  8
_0-0_
  6
CONTINUOUS
 62
     7
 10
142.5160395987408
 20
265.5475913416864
 30
0.0
 11
152.7160395987406
 21
265.5475913416864
 31
0.0
  0
LINE
  5
5A3
  8
_0-0_
  6
CONTINUOUS
 62
     7
 10
152.7160395987406
 20
265.5475913416864
 30
0.0
 11
153.6160395987412
 21
264.6475913416863
 31
0.0
  0
LINE
  5
5A4
  8
_0-0_
  6
CONTINUOUS
 62
     7
 10
142.1312120872047
 20
194.4104102980615
 30
0.0
 11
142.1312120872047
 21
186.0475913416864
 31
0.0
  0
LINE
  5
5A5
  8
_0-0_
  6
CONTINUOUS
 62
     7
 10
136.6463845687416
 20
186.0475913416864
 30
0.0
 11
136.6463845687416
 21
194.4104102980615
 31
0.0
  0
LINE
  5
5A6
  8
_0-0_
  6
CONTINUOUS
 62
     7
 10
153.1008671241319
 20
194.4104102980615
 30
0.0
 11
153.1008671241319
 21
186.0475913416864
 31
0.0
  0
LINE
  5
5A7
  8
_0-0_
  6
CONTINUOUS
 62
     7
 10
142.1310813096852
 20
194.4104097959397
 30
0.0
 11
141.4636575275455
 21
194.9286652966441
 31
0.0
  0
LINE
  5
5A8
  8
_0-0_
  6
CONTINUOUS
 62
     7
 10
141.4636575275455
 20
194.9286652966441
 30
0.0
 11
140.7331901913118
 21
195.2965277504949
 31
0.0
  0
LINE
  5
5A9
  8
_0-0_
  6
CONTINUOUS
 62
     7
 10
140.7331901913118
 20
195.2965277504949
 30
0.0
 11
139.9618741813615
 21
195.5028198429794
 31
0.0
  0
LINE
  5
5AA
  8
_0-0_
  6
CONTINUOUS
 62
     7
 10
139.9618741813615
 20
195.5028198429794
 30
0.0
 11
139.1731455443522
 21
195.5412734932563
 31
0.0
  0
LINE
  5
5AB
  8
_0-0_
  6
CONTINUOUS
 62
     7
 10
139.1731455443522
 20
195.5412734932563
 30
0.0
 11
138.3909694008033
 21
195.4107203066202
 31
0.0
  0
LINE
  5
5AC
  8
_0-0_
  6
CONTINUOUS
 62
     7
 10
138.3909694008033
 20
195.4107203066202
 30
0.0
 11
137.6391117770365
 21
195.1151270755843
 31
0.0
  0
LINE
  5
5AD
  8
_0-0_
  6
CONTINUOUS
 62
     7
 10
137.6391117770365
 20
195.1151270755843
 30
0.0
 11
136.9404174864916
 21
194.6634752508959
 31
0.0
  0
LINE
  5
5AE
  8
_0-0_
  6
CONTINUOUS
 62
     7
 10
136.9404174864916
 20
194.6634752508959
 30
0.0
 11
136.6465158291265
 21
194.410410694014
 31
0.0
  0
LINE
  5
5AF
  8
_0-0_
  6
CONTINUOUS
 62
     7
 10
158.5855643419127
 20
194.4104097959397
 30
0.0
 11
157.918140559773
 21
194.9286652966441
 31
0.0
  0
LINE
  5
5B0
  8
_0-0_
  6
CONTINUOUS
 62
     7
 10
157.918140559773
 20
194.9286652966441
 30
0.0
 11
157.1876732235393
 21
195.2965277504949
 31
0.0
  0
LINE
  5
5B1
  8
_0-0_
  6
CONTINUOUS
 62
     7
 10
157.1876732235393
 20
195.2965277504949
 30
0.0
 11
156.416357213589
 21
195.5028198429794
 31
0.0
  0
LINE
  5
5B2
  8
_0-0_
  6
CONTINUOUS
 62
     7
 10
156.416357213589
 20
195.5028198429794
 30
0.0
 11
155.6276285765797
 21
195.5412734932563
 31
0.0
  0
LINE
  5
5B3
  8
_0-0_
  6
CONTINUOUS
 62
     7
 10
155.6276285765797
 20
195.5412734932563
 30
0.0
 11
154.8454524330308
 21
195.4107203066202
 31
0.0
  0
LINE
  5
5B4
  8
_0-0_
  6
CONTINUOUS
 62
     7
 10
154.8454524330308
 20
195.4107203066202
 30
0.0
 11
154.093594809264
 21
195.1151270755843
 31
0.0
  0
LINE
  5
5B5
  8
_0-0_
  6
CONTINUOUS
 62
     7
 10
154.093594809264
 20
195.1151270755843
 30
0.0
 11
153.3949005187191
 21
194.6634752508959
 31
0.0
  0
LINE
  5
5B6
  8
_0-0_
  6
CONTINUOUS
 62
     7
 10
153.3949005187191
 20
194.6634752508959
 30
0.0
 11
153.100998861354
 21
194.410410694014
 31
0.0
  0
ARC
  5
5B7
  8
_0-0_
  6
CONTINUOUS
 62
     7
 10
147.6160396056688
 20
181.7518473994257
 30
0.0
 40
13.79574394226074
 50
66.57339477539065
 51
113.4265899658201
  0
ARC
  5
5B8
  8
_0-0_
  6
CONTINUOUS
 62
     7
 10
169.6160395987421
 20
183.0475913416864
 30
0.0
 40
3.0
 50
0.0
 51
90.0
  0
ARC
  5
5B9
  8
_0-0_
  6
CONTINUOUS
 62
     7
 10
125.6160395987412
 20
183.0475913416864
 30
0.0
 40
3.0
 50
90.0
 51
180.0
  0
LINE
  5
5BA
  8
_0-0_
  6
CONTINUOUS
 62
     7
 10
122.6160395987403
 20
173.0475913416864
 30
0.0
 11
172.6160395987412
 21
173.0475913416864
 31
0.0
  0
LINE
  5
5BB
  8
_0-0_
  6
CONTINUOUS
 62
     7
 10
141.6160395987421
 20
195.5475913416864
 30
0.0
 11
141.6160395987421
 21
218.2475913615652
 31
0.0
  0
LINE
  5
5BC
  8
_0-0_
  6
CONTINUOUS
 62
     7
 10
153.6160395987412
 20
218.2475913615652
 30
0.0
 11
153.6160395987412
 21
195.5475913416864
 31
0.0
  0
LINE
  5
5BD
  8
_0-1_
  6
CONTINUOUS
 62
   152
 10
153.6160395987412
 20
264.6475913416863
 30
0.0
 11
141.6160395987421
 21
264.6475913416863
 31
0.0
  0
LINE
  5
5BE
  8
_0-1_
  6
CONTINUOUS
 62
   152
 10
142.5160395987408
 20
218.2475913615652
 30
0.0
 11
142.5160395987408
 21
195.5475913416864
 31
0.0
  0
LINE
  5
5BF
  8
_0-1_
  6
CONTINUOUS
 62
   152
 10
152.7160395987406
 20
195.5475913416864
 30
0.0
 11
152.7160395987406
 21
218.2475913615652
 31
0.0
  0
LINE
  5
5C0
  8
_0-0_
  6
CONTINUOUS
 62
     7
 10
141.6160395987421
 20
248.2475913615652
 30
0.0
 11
141.6160395987421
 21
264.6475913416863
 31
0.0
  0
LINE
  5
5C1
  8
_0-1_
  6
CONTINUOUS
 62
   152
 10
142.5160395987408
 20
265.5475913416864
 30
0.0
 11
142.5160395987408
 21
248.2475913615652
 31
0.0
  0
LINE
  5
5C2
  8
_0-1_
  6
CONTINUOUS
 62
   152
 10
152.7160395987406
 20
248.2475913615652
 30
0.0
 11
152.7160395987406
 21
265.5475913416864
 31
0.0
  0
LINE
  5
5C3
  8
_0-0_
  6
CONTINUOUS
 62
     7
 10
153.6160395987412
 20
264.6475913416863
 30
0.0
 11
153.6160395987412
 21
248.2475913615652
 31
0.0
  0
CIRCLE
  5
5C4
  8
_0-0_
  6
CONTINUOUS
 62
     7
 10
225.8601576927662
 20
109.3134548275211
 30
0.0
 40
25.00916514734968
  0
CIRCLE
  5
5C5
  8
_0-0_
  6
CONTINUOUS
 62
     7
 10
225.8601576927662
 20
109.3134548275211
 30
0.0
 40
22.00916514734968
  0
LINE
  5
5C6
  8
_0-0_
  6
CONTINUOUS
 62
     7
 10
342.3509925454165
 20
128.3134548275211
 30
0.0
 11
242.1223328660759
 21
128.3134548275211
 31
0.0
  0
LINE
  5
5C7
  8
_0-0_
  6
CONTINUOUS
 62
     7
 10
245.2461923921938
 20
125.1134548275211
 30
0.0
 11
342.3509925454165
 21
125.1134548275211
 31
0.0
  0
LINE
  5
5C8
  8
_0-0_
  6
CONTINUOUS
 62
     7
 10
216.0602094355565
 20
86.30434020910474
 30
0.0
 11
236.9561425454164
 21
28.8932548275211
 31
0.0
  0
LINE
  5
5C9
  8
_0-0_
  6
CONTINUOUS
 62
     7
 10
698.6750294382389
 20
221.1511181445547
 30
0.0
 11
698.6750294382389
 21
228.2475913615652
 31
0.0
  0
LINE
  5
5CA
  8
_0-0_
  6
CONTINUOUS
 62
     7
 10
701.1287681276615
 20
220.2475913615652
 30
0.0
 11
715.8512002641971
 21
220.2475913615652
 31
0.0
  0
LINE
  5
5CB
  8
_0-0_
  6
CONTINUOUS
 62
     7
 10
703.5825068170841
 20
221.1511181445547
 30
0.0
 11
703.5825068170841
 21
228.2475913615652
 31
0.0
  0
LINE
  5
5CC
  8
_0-0_
  6
CONTINUOUS
 62
     7
 10
713.3974615747745
 20
221.1511181445547
 30
0.0
 11
713.3974615747745
 21
228.2475913615652
 31
0.0
  0
LINE
  5
5CD
  8
_0-0_
  6
CONTINUOUS
 62
     7
 10
718.3049389536197
 20
221.1511181445547
 30
0.0
 11
718.3049389536197
 21
228.2475913615652
 31
0.0
  0
ARC
  5
5CE
  8
_0-0_
  6
CONTINUOUS
 62
     7
 10
708.4899841959293
 20
234.0267566295096
 30
0.0
 40
13.77916526794432
 50
249.1359252929692
 51
290.8640594482429
  0
LINE
  5
5CF
  8
_0-0_
  6
CONTINUOUS
 62
     7
 10
698.675211280636
 20
221.1511185555532
 30
0.0
 11
699.2747800207658
 21
220.7381650698021
 31
0.0
  0
LINE
  5
5D0
  8
_0-0_
  6
CONTINUOUS
 62
     7
 10
699.2747800207658
 20
220.7381650698021
 30
0.0
 11
699.9306812513605
 21
220.4455703281182
 31
0.0
  0
LINE
  5
5D1
  8
_0-0_
  6
CONTINUOUS
 62
     7
 10
699.9306812513605
 20
220.4455703281182
 30
0.0
 11
700.6229857454305
 21
220.2822246736673
 31
0.0
  0
LINE
  5
5D2
  8
_0-0_
  6
CONTINUOUS
 62
     7
 10
700.6229857454305
 20
220.2822246736673
 30
0.0
 11
701.3306581812462
 21
220.253091281503
 31
0.0
  0
LINE
  5
5D3
  8
_0-0_
  6
CONTINUOUS
 62
     7
 10
701.3306581812462
 20
220.253091281503
 30
0.0
 11
702.032196289945
 21
220.3590553550043
 31
0.0
  0
LINE
  5
5D4
  8
_0-0_
  6
CONTINUOUS
 62
     7
 10
702.032196289945
 20
220.3590553550043
 30
0.0
 11
702.7062841910897
 21
220.5968972294179
 31
0.0
  0
LINE
  5
5D5
  8
_0-0_
  6
CONTINUOUS
 62
     7
 10
702.7062841910897
 20
220.5968972294179
 30
0.0
 11
703.3324400649087
 21
220.9593901997437
 31
0.0
  0
LINE
  5
5D6
  8
_0-0_
  6
CONTINUOUS
 62
     7
 10
703.3324400649087
 20
220.9593901997437
 30
0.0
 11
703.5823241123235
 21
221.1511178395532
 31
0.0
  0
LINE
  5
5D7
  8
_0-0_
  6
CONTINUOUS
 62
     7
 10
713.3976434171716
 20
221.1511185555532
 30
0.0
 11
713.9972121573014
 21
220.7381650698021
 31
0.0
  0
LINE
  5
5D8
  8
_0-0_
  6
CONTINUOUS
 62
     7
 10
713.9972121573014
 20
220.7381650698021
 30
0.0
 11
714.6531133878962
 21
220.4455703281182
 31
0.0
  0
LINE
  5
5D9
  8
_0-0_
  6
CONTINUOUS
 62
     7
 10
714.6531133878962
 20
220.4455703281182
 30
0.0
 11
715.3454178819661
 21
220.2822246736673
 31
0.0
  0
LINE
  5
5DA
  8
_0-0_
  6
CONTINUOUS
 62
     7
 10
715.3454178819661
 20
220.2822246736673
 30
0.0
 11
716.0530903177819
 21
220.253091281503
 31
0.0
  0
LINE
  5
5DB
  8
_0-0_
  6
CONTINUOUS
 62
     7
 10
716.0530903177819
 20
220.253091281503
 30
0.0
 11
716.7546284264806
 21
220.3590553550043
 31
0.0
  0
LINE
  5
5DC
  8
_0-0_
  6
CONTINUOUS
 62
     7
 10
716.7546284264806
 20
220.3590553550043
 30
0.0
 11
717.4287163276254
 21
220.5968972294179
 31
0.0
  0
LINE
  5
5DD
  8
_0-0_
  6
CONTINUOUS
 62
     7
 10
717.4287163276254
 20
220.5968972294179
 30
0.0
 11
718.0548722014444
 21
220.9593901997437
 31
0.0
  0
LINE
  5
5DE
  8
_0-0_
  6
CONTINUOUS
 62
     7
 10
718.0548722014444
 20
220.9593901997437
 30
0.0
 11
718.3047562488591
 21
221.1511178395532
 31
0.0
  0
LINE
  5
5DF
  8
_0-0_
  6
CONTINUOUS
 62
     7
 10
698.6750294382389
 20
228.2475913615652
 30
0.0
 11
718.3049389536197
 21
228.2475913615652
 31
0.0
  0
LINE
  5
5E0
  8
ADD_LINE
  6
DOT
 62
   152
 10
708.4899841959293
 20
228.2475913615652
 30
0.0
 11
707.7828774147426
 21
228.9546981427515
 31
0.0
  0
LINE
  5
5E1
  8
ADD_LINE
  6
DOT
 62
   152
 10
708.4899841959293
 20
228.2475913615652
 30
0.0
 11
709.197090977116
 21
228.9546981427515
 31
0.0
  0
LINE
  5
5E2
  8
_0-1_
  6
CONTINUOUS
 62
   152
 10
703.4899841959293
 20
220.2475913615652
 30
0.0
 11
703.4899841959293
 21
190.0475913416864
 31
0.0
  0
LINE
  5
5E3
  8
_0-0_
  6
CONTINUOUS
 62
     7
 10
704.1899741959294
 20
220.2475913615652
 30
0.0
 11
704.1899741959294
 21
190.0475913416864
 31
0.0
  0
LINE
  5
5E4
  8
_0-1_
  6
CONTINUOUS
 62
   152
 10
712.7899841959295
 20
190.0475913416864
 30
0.0
 11
712.7899841959295
 21
220.2475913615652
 31
0.0
  0
LINE
  5
5E5
  8
_0-0_
  6
CONTINUOUS
 62
     7
 10
713.4899841959293
 20
190.0475913416864
 30
0.0
 11
713.4899841959293
 21
220.2475913615652
 31
0.0
  0
LINE
  5
5E6
  8
_0-0_
  6
CONTINUOUS
 62
     7
 10
620.4400764915634
 20
221.1511181445547
 30
0.0
 11
620.4400764915634
 21
228.2475913615652
 31
0.0
  0
LINE
  5
5E7
  8
_0-0_
  6
CONTINUOUS
 62
     7
 10
622.893815180986
 20
220.2475913615652
 30
0.0
 11
637.6162473175217
 21
220.2475913615652
 31
0.0
  0
LINE
  5
5E8
  8
_0-0_
  6
CONTINUOUS
 62
     7
 10
625.3475538704087
 20
221.1511181445547
 30
0.0
 11
625.3475538704087
 21
228.2475913615652
 31
0.0
  0
LINE
  5
5E9
  8
_0-0_
  6
CONTINUOUS
 62
     7
 10
635.1625086280991
 20
221.1511181445547
 30
0.0
 11
635.1625086280991
 21
228.2475913615652
 31
0.0
  0
LINE
  5
5EA
  8
_0-0_
  6
CONTINUOUS
 62
     7
 10
640.0699860069443
 20
221.1511181445547
 30
0.0
 11
640.0699860069443
 21
228.2475913615652
 31
0.0
  0
ARC
  5
5EB
  8
_0-0_
  6
CONTINUOUS
 62
     7
 10
630.2550312492539
 20
234.0267566295096
 30
0.0
 40
13.77916526794432
 50
249.1359252929689
 51
290.8640594482424
  0
LINE
  5
5EC
  8
_0-0_
  6
CONTINUOUS
 62
     7
 10
620.4402583339604
 20
221.1511185555532
 30
0.0
 11
621.0398270740903
 21
220.7381650698021
 31
0.0
  0
LINE
  5
5ED
  8
_0-0_
  6
CONTINUOUS
 62
     7
 10
621.0398270740903
 20
220.7381650698021
 30
0.0
 11
621.6957283046851
 21
220.4455703281182
 31
0.0
  0
LINE
  5
5EE
  8
_0-0_
  6
CONTINUOUS
 62
     7
 10
621.6957283046851
 20
220.4455703281182
 30
0.0
 11
622.3880327987549
 21
220.2822246736673
 31
0.0
  0
LINE
  5
5EF
  8
_0-0_
  6
CONTINUOUS
 62
     7
 10
622.3880327987549
 20
220.2822246736673
 30
0.0
 11
623.0957052345707
 21
220.253091281503
 31
0.0
  0
LINE
  5
5F0
  8
_0-0_
  6
CONTINUOUS
 62
     7
 10
623.0957052345707
 20
220.253091281503
 30
0.0
 11
623.7972433432697
 21
220.3590553550043
 31
0.0
  0
LINE
  5
5F1
  8
_0-0_
  6
CONTINUOUS
 62
     7
 10
623.7972433432697
 20
220.3590553550043
 30
0.0
 11
624.4713312444142
 21
220.5968972294179
 31
0.0
  0
LINE
  5
5F2
  8
_0-0_
  6
CONTINUOUS
 62
     7
 10
624.4713312444142
 20
220.5968972294179
 30
0.0
 11
625.0974871182332
 21
220.9593901997437
 31
0.0
  0
LINE
  5
5F3
  8
_0-0_
  6
CONTINUOUS
 62
     7
 10
625.0974871182332
 20
220.9593901997437
 30
0.0
 11
625.3473711656479
 21
221.1511178395532
 31
0.0
  0
LINE
  5
5F4
  8
_0-0_
  6
CONTINUOUS
 62
     7
 10
635.162690470496
 20
221.1511185555532
 30
0.0
 11
635.762259210626
 21
220.7381650698021
 31
0.0
  0
LINE
  5
5F5
  8
_0-0_
  6
CONTINUOUS
 62
     7
 10
635.762259210626
 20
220.7381650698021
 30
0.0
 11
636.4181604412207
 21
220.4455703281182
 31
0.0
  0
LINE
  5
5F6
  8
_0-0_
  6
CONTINUOUS
 62
     7
 10
636.4181604412207
 20
220.4455703281182
 30
0.0
 11
637.1104649352906
 21
220.2822246736673
 31
0.0
  0
LINE
  5
5F7
  8
_0-0_
  6
CONTINUOUS
 62
     7
 10
637.1104649352906
 20
220.2822246736673
 30
0.0
 11
637.8181373711063
 21
220.253091281503
 31
0.0
  0
LINE
  5
5F8
  8
_0-0_
  6
CONTINUOUS
 62
     7
 10
637.8181373711063
 20
220.253091281503
 30
0.0
 11
638.5196754798053
 21
220.3590553550043
 31
0.0
  0
LINE
  5
5F9
  8
_0-0_
  6
CONTINUOUS
 62
     7
 10
638.5196754798053
 20
220.3590553550043
 30
0.0
 11
639.1937633809498
 21
220.5968972294179
 31
0.0
  0
LINE
  5
5FA
  8
_0-0_
  6
CONTINUOUS
 62
     7
 10
639.1937633809498
 20
220.5968972294179
 30
0.0
 11
639.8199192547688
 21
220.9593901997437
 31
0.0
  0
LINE
  5
5FB
  8
_0-0_
  6
CONTINUOUS
 62
     7
 10
639.8199192547688
 20
220.9593901997437
 30
0.0
 11
640.0698033021836
 21
221.1511178395532
 31
0.0
  0
LINE
  5
5FC
  8
_0-0_
  6
CONTINUOUS
 62
     7
 10
620.4400764915634
 20
228.2475913615652
 30
0.0
 11
640.0699860069443
 21
228.2475913615652
 31
0.0
  0
LINE
  5
5FD
  8
_0-0_
  6
CONTINUOUS
 62
     7
 10
621.2550312492539
 20
229.2475913615652
 30
0.0
 11
639.2550312492539
 21
229.2475913615652
 31
0.0
  0
LINE
  5
5FE
  8
_0-0_
  6
CONTINUOUS
 62
     7
 10
138.6160395987412
 20
229.2475913615652
 30
0.0
 11
156.6160395987412
 21
229.2475913615652
 31
0.0
  0
LINE
  5
5FF
  8
_0-0_
  6
CONTINUOUS
 62
     7
 10
625.2550312492539
 20
220.2475913615652
 30
0.0
 11
625.2550312492539
 21
190.0475913416864
 31
0.0
  0
LINE
  5
600
  8
_0-1_
  6
CONTINUOUS
 62
   152
 10
625.955021249254
 20
220.2475913615652
 30
0.0
 11
625.955021249254
 21
190.0475913416864
 31
0.0
  0
LINE
  5
601
  8
_0-1_
  6
CONTINUOUS
 62
   152
 10
634.5550312492541
 20
190.0475913416864
 30
0.0
 11
634.5550312492541
 21
220.2475913615652
 31
0.0
  0
LINE
  5
602
  8
_0-0_
  6
CONTINUOUS
 62
     7
 10
635.2550312492539
 20
190.0475913416864
 30
0.0
 11
635.2550312492539
 21
220.2475913615652
 31
0.0
  0
LINE
  5
603
  8
_0-0_
  6
CONTINUOUS
 62
     7
 10
218.6687434380779
 20
371.2510481744775
 30
0.0
 11
218.6687434380779
 21
467.2510401744776
 31
0.0
  0
LINE
  5
604
  8
_0-0_
  6
CONTINUOUS
 62
     7
 10
218.6687434380779
 20
467.2510401744776
 30
0.0
 11
348.6687434380779
 21
467.2510401744776
 31
0.0
  0
LINE
  5
605
  8
_0-0_
  6
CONTINUOUS
 62
     7
 10
348.6687434380779
 20
467.2510401744776
 30
0.0
 11
348.6687434380779
 21
437.1962011744777
 31
0.0
  0
LINE
  5
606
  8
_0-0_
  6
CONTINUOUS
 62
     7
 10
348.0656734380782
 20
433.7759991744779
 30
0.0
 11
324.063593438078
 21
367.8308481744775
 31
0.0
  0
LINE
  5
607
  8
_0-0_
  6
CONTINUOUS
 62
     7
 10
314.6666734380779
 20
361.2510481744775
 30
0.0
 11
228.6687434380779
 21
361.2510481744775
 31
0.0
  0
ARC
  5
608
  8
_0-0_
  6
CONTINUOUS
 62
     7
 10
228.6687434380779
 20
371.2510481744775
 30
0.0
 40
10.0
 50
180.0
 51
270.0
  0
ARC
  5
609
  8
_0-0_
  6
CONTINUOUS
 62
     7
 10
338.6687434380779
 20
437.1962011744777
 30
0.0
 40
10.00000000000003
 50
339.9999999999986
 51
359.9999999999984
  0
ARC
  5
60A
  8
_0-0_
  6
CONTINUOUS
 62
     7
 10
314.6666734380779
 20
371.2510481744775
 30
0.0
 40
10.0
 50
270.0
 51
340.0000000000001
  0
CIRCLE
  5
60B
  8
_0-0_
  6
CONTINUOUS
 62
     7
 10
314.1687434380784
 20
435.2510401744776
 30
0.0
 40
2.75
  0
CIRCLE
  5
60C
  8
_0-0_
  6
CONTINUOUS
 62
     7
 10
314.1687434380784
 20
370.2510481744775
 30
0.0
 40
2.75
  0
CIRCLE
  5
60D
  8
_0-0_
  6
CONTINUOUS
 62
     7
 10
292.6687434380779
 20
456.7510401744776
 30
0.0
 40
2.75
  0
CIRCLE
  5
60E
  8
_0-0_
  6
CONTINUOUS
 62
     7
 10
227.6687434380779
 20
456.7510401744776
 30
0.0
 40
2.75
  0
CIRCLE
  5
60F
  8
_0-0_
  6
CONTINUOUS
 62
     7
 10
285.6687434380783
 20
428.2510401744776
 30
0.0
 40
4.1
  0
CIRCLE
  5
610
  8
_0-0_
  6
CONTINUOUS
 62
     7
 10
285.6687434380783
 20
376.2510481744775
 30
0.0
 40
4.1
  0
CIRCLE
  5
611
  8
_0-0_
  6
CONTINUOUS
 62
     7
 10
233.6687434380779
 20
376.2510481744775
 30
0.0
 40
4.1
  0
CIRCLE
  5
612
  8
_0-0_
  6
CONTINUOUS
 62
     7
 10
233.6687434380779
 20
428.2510401744776
 30
0.0
 40
4.1
  0
CIRCLE
  5
613
  8
_0-0_
  6
CONTINUOUS
 62
     7
 10
335.1687434380779
 20
448.2510401744776
 30
0.0
 40
5.05
  0
CIRCLE
  5
614
  8
_0-0_
  6
CONTINUOUS
 62
     7
 10
335.1687434380779
 20
448.2510401744776
 30
0.0
 40
8.0
  0
LINE
  5
615
  8
_0-1_
  6
CENTER1
 62
   152
 10
224.9187434380779
 20
456.7510401744776
 30
0.0
 11
230.4187434380783
 21
456.7510401744776
 31
0.0
  0
LINE
  5
616
  8
_0-1_
  6
CENTER1
 62
   152
 10
227.6687434380779
 20
454.1510401744777
 30
0.0
 11
227.6687434380779
 21
459.3510401744775
 31
0.0
  0
LINE
  5
617
  8
_0-1_
  6
CENTER1
 62
   152
 10
233.6687434380779
 20
435.7565941744779
 30
0.0
 11
233.6687434380779
 21
368.7454881744775
 31
0.0
  0
LINE
  5
618
  8
_0-1_
  6
CENTER1
 62
   152
 10
227.1687434380779
 20
376.2510481744775
 30
0.0
 11
292.1687434380779
 21
376.2510481744775
 31
0.0
  0
LINE
  5
619
  8
_0-1_
  6
CENTER1
 62
   152
 10
285.6687434380783
 20
368.7454881744775
 30
0.0
 11
285.6687434380783
 21
435.7565941744779
 31
0.0
  0
LINE
  5
61A
  8
_0-1_
  6
CENTER1
 62
   152
 10
292.1687434380779
 20
428.2510401744776
 30
0.0
 11
227.1687434380779
 21
428.2510401744776
 31
0.0
  0
LINE
  5
61B
  8
_0-1_
  6
CENTER1
 62
   152
 10
289.9187434380779
 20
456.7510401744776
 30
0.0
 11
295.4187434380784
 21
456.7510401744776
 31
0.0
  0
LINE
  5
61C
  8
_0-1_
  6
CENTER1
 62
   152
 10
292.6687434380779
 20
454.1510401744777
 30
0.0
 11
292.6687434380779
 21
459.3510401744775
 31
0.0
  0
LINE
  5
61D
  8
_0-1_
  6
CENTER1
 62
   152
 10
314.1687434380784
 20
438.0010401744776
 30
0.0
 11
314.1687434380784
 21
432.5010401744776
 31
0.0
  0
LINE
  5
61E
  8
_0-1_
  6
CENTER1
 62
   152
 10
316.7687434380783
 20
435.2510401744776
 30
0.0
 11
311.5687434380785
 21
435.2510401744776
 31
0.0
  0
LINE
  5
61F
  8
_0-1_
  6
CENTER1
 62
   152
 10
327.1687434380779
 20
448.2510401744776
 30
0.0
 11
343.1687434380784
 21
448.2510401744776
 31
0.0
  0
LINE
  5
620
  8
_0-1_
  6
CENTER1
 62
   152
 10
335.1687434380779
 20
440.2510401744776
 30
0.0
 11
335.1687434380779
 21
456.2510401744776
 31
0.0
  0
LINE
  5
621
  8
_0-1_
  6
CENTER1
 62
   152
 10
314.1687434380784
 20
373.0010481744775
 30
0.0
 11
314.1687434380784
 21
367.5010481744775
 31
0.0
  0
LINE
  5
622
  8
_0-1_
  6
CENTER1
 62
   152
 10
316.7687434380783
 20
370.2510481744775
 30
0.0
 11
311.5687434380785
 21
370.2510481744775
 31
0.0
  0
CIRCLE
  5
623
  8
_0-1_
  6
CONTINUOUS
 62
   152
 10
335.1687434380779
 20
448.2510401744776
 30
0.0
 40
6.000000000000001
  0
LINE
  5
624
  8
_0-1_
  6
DASHED2
 62
   152
 10
218.6687434380779
 20
464.0510401744775
 30
0.0
 11
348.6687434380779
 21
464.0510401744775
 31
0.0
  0
TEXT
  5
625
  8
_0-1_
 62
     7
 10
281.3424676155653
 20
480.449767824676
 30
0.0
 40
5.0
  1
(R)
1001
CAXA_DRAFT_TXTSCALE
1041
1.0
  0
LINE
  5
626
  8
_0-0_
  6
CONTINUOUS
 62
     7
 10
368.1588609082692
 20
361.2510401744776
 30
0.0
 11
371.3588609082693
 21
361.2510401744776
 31
0.0
  0
LINE
  5
627
  8
_0-0_
  6
CONTINUOUS
 62
     7
 10
371.3588609082693
 20
361.2510401744776
 30
0.0
 11
371.3588609082693
 21
463.5510401744775
 31
0.0
  0
LINE
  5
628
  8
_0-0_
  6
CONTINUOUS
 62
     7
 10
371.8588609082693
 20
464.0510401744775
 30
0.0
 11
383.1588609082692
 21
464.0510401744775
 31
0.0
  0
LINE
  5
629
  8
_0-0_
  6
CONTINUOUS
 62
     7
 10
383.1588609082692
 20
464.0510401744775
 30
0.0
 11
383.1588609082692
 21
467.2510401744776
 31
0.0
  0
LINE
  5
62A
  8
_0-0_
  6
CONTINUOUS
 62
     7
 10
383.1588609082692
 20
467.2510401744776
 30
0.0
 11
371.9088609082692
 21
467.2510401744776
 31
0.0
  0
LINE
  5
62B
  8
_0-0_
  6
CONTINUOUS
 62
     7
 10
368.1588609082692
 20
463.5010401744776
 30
0.0
 11
368.1588609082692
 21
361.2510401744776
 31
0.0
  0
LINE
  5
62C
  8
_0-0_
  6
CONTINUOUS
 62
     7
 10
371.3588609082693
 20
460.2510401744776
 30
0.0
 11
374.3588609082693
 21
457.2510401744776
 31
0.0
  0
LINE
  5
62D
  8
_0-0_
  6
CONTINUOUS
 62
     7
 10
371.3588609082693
 20
457.2510401744776
 30
0.0
 11
387.1588609082692
 21
457.2510401744776
 31
0.0
  0
LINE
  5
62E
  8
_0-0_
  6
CONTINUOUS
 62
     7
 10
387.1588609082692
 20
457.2510401744776
 30
0.0
 11
388.1588609082692
 21
456.2510401744776
 31
0.0
  0
LINE
  5
62F
  8
_0-0_
  6
CONTINUOUS
 62
     7
 10
388.1588609082692
 20
456.2510401744776
 30
0.0
 11
388.1588609082692
 21
440.2510401744776
 31
0.0
  0
LINE
  5
630
  8
_0-0_
  6
CONTINUOUS
 62
     7
 10
388.1588609082692
 20
440.2510401744776
 30
0.0
 11
387.1588609082692
 21
439.2510401744776
 31
0.0
  0
LINE
  5
631
  8
_0-0_
  6
CONTINUOUS
 62
     7
 10
387.1588609082692
 20
439.2510401744776
 30
0.0
 11
371.3588609082693
 21
439.2510401744776
 31
0.0
  0
LINE
  5
632
  8
_0-0_
  6
CONTINUOUS
 62
     7
 10
371.3588609082693
 20
440.2510401744776
 30
0.0
 11
368.1588609082692
 21
440.2510401744776
 31
0.0
  0
LINE
  5
633
  8
_0-0_
  6
CONTINUOUS
 62
     7
 10
371.3588609082693
 20
436.2510401744776
 30
0.0
 11
374.3588609082693
 21
439.2510401744776
 31
0.0
  0
LINE
  5
634
  8
_0-0_
  6
CONTINUOUS
 62
     7
 10
371.3588609082693
 20
456.2510401744776
 30
0.0
 11
368.1588609082692
 21
456.2510401744776
 31
0.0
  0
ARC
  5
635
  8
_0-0_
  6
CONTINUOUS
 62
     7
 10
371.9088609082692
 20
463.5010401744776
 30
0.0
 40
3.75
 50
90.0
 51
180.0
  0
ARC
  5
636
  8
_0-0_
  6
CONTINUOUS
 62
     7
 10
371.8588609082693
 20
463.5510401744775
 30
0.0
 40
0.5
 50
90.0
 51
180.0
  0
LINE
  5
637
  8
_0-1_
  6
CENTER1
 62
   152
 10
368.1588609082692
 20
448.2510401744776
 30
0.0
 11
388.1588609082692
 21
448.2510401744776
 31
0.0
  0
LINE
  5
638
  8
_0-0_
  6
CONTINUOUS
 62
     7
 10
192.6128776506308
 20
371.2510481744775
 30
0.0
 11
192.6128776506308
 21
467.2510401744776
 31
0.0
  0
LINE
  5
639
  8
_0-0_
  6
CONTINUOUS
 62
     7
 10
192.6128776506308
 20
467.2510401744776
 30
0.0
 11
62.61287765063071
 21
467.2510401744776
 31
0.0
  0
LINE
  5
63A
  8
_0-0_
  6
CONTINUOUS
 62
     7
 10
62.61287765063071
 20
467.2510401744776
 30
0.0
 11
62.61287765063071
 21
437.1962011744777
 31
0.0
  0
LINE
  5
63B
  8
_0-0_
  6
CONTINUOUS
 62
     7
 10
63.21594765063037
 20
433.7759991744779
 30
0.0
 11
87.21802765063057
 21
367.8308481744775
 31
0.0
  0
LINE
  5
63C
  8
_0-0_
  6
CONTINUOUS
 62
     7
 10
96.61494765063071
 20
361.2510481744775
 30
0.0
 11
182.6128776506308
 21
361.2510481744775
 31
0.0
  0
ARC
  5
63D
  8
_0-0_
  6
CONTINUOUS
 62
     7
 10
182.6128776506308
 20
371.2510481744775
 30
0.0
 40
10.0
 50
270.0
 51
0.0
  0
ARC
  5
63E
  8
_0-0_
  6
CONTINUOUS
 62
     7
 10
72.61287765063071
 20
437.1962011744777
 30
0.0
 40
10.0
 50
180.0000000000003
 51
200.0000000000003
  0
ARC
  5
63F
  8
_0-0_
  6
CONTINUOUS
 62
     7
 10
96.61494765063071
 20
371.2510481744775
 30
0.0
 40
10.0
 50
200.0
 51
270.0
  0
CIRCLE
  5
640
  8
_0-0_
  6
CONTINUOUS
 62
     7
 10
97.11287765063025
 20
435.2510401744776
 30
0.0
 40
2.75
  0
CIRCLE
  5
641
  8
_0-0_
  6
CONTINUOUS
 62
     7
 10
97.11287765063025
 20
370.2510481744775
 30
0.0
 40
2.75
  0
CIRCLE
  5
642
  8
_0-0_
  6
CONTINUOUS
 62
     7
 10
118.6128776506307
 20
456.7510401744776
 30
0.0
 40
2.75
  0
CIRCLE
  5
643
  8
_0-0_
  6
CONTINUOUS
 62
     7
 10
183.6128776506308
 20
456.7510401744776
 30
0.0
 40
2.75
  0
CIRCLE
  5
644
  8
_0-0_
  6
CONTINUOUS
 62
     7
 10
125.6128776506303
 20
428.2510401744776
 30
0.0
 40
4.1
  0
CIRCLE
  5
645
  8
_0-0_
  6
CONTINUOUS
 62
     7
 10
125.6128776506303
 20
376.2510481744775
 30
0.0
 40
4.1
  0
CIRCLE
  5
646
  8
_0-0_
  6
CONTINUOUS
 62
     7
 10
177.6128776506308
 20
376.2510481744775
 30
0.0
 40
4.1
  0
CIRCLE
  5
647
  8
_0-0_
  6
CONTINUOUS
 62
     7
 10
177.6128776506308
 20
428.2510401744776
 30
0.0
 40
4.1
  0
CIRCLE
  5
648
  8
_0-0_
  6
CONTINUOUS
 62
     7
 10
76.11287765063071
 20
448.2510401744776
 30
0.0
 40
5.05
  0
CIRCLE
  5
649
  8
_0-0_
  6
CONTINUOUS
 62
     7
 10
76.11287765063071
 20
448.2510401744776
 30
0.0
 40
8.0
  0
LINE
  5
64A
  8
_0-1_
  6
CENTER1
 62
   152
 10
186.3628776506308
 20
456.7510401744776
 30
0.0
 11
180.8628776506303
 21
456.7510401744776
 31
0.0
  0
LINE
  5
64B
  8
_0-1_
  6
CENTER1
 62
   152
 10
183.6128776506308
 20
454.1510401744777
 30
0.0
 11
183.6128776506308
 21
459.3510401744775
 31
0.0
  0
LINE
  5
64C
  8
_0-1_
  6
CENTER1
 62
   152
 10
177.6128776506308
 20
435.7565941744779
 30
0.0
 11
177.6128776506308
 21
368.7454881744775
 31
0.0
  0
LINE
  5
64D
  8
_0-1_
  6
CENTER1
 62
   152
 10
184.1128776506308
 20
376.2510481744775
 30
0.0
 11
119.1128776506307
 21
376.2510481744775
 31
0.0
  0
LINE
  5
64E
  8
_0-1_
  6
CENTER1
 62
   152
 10
125.6128776506303
 20
368.7454881744775
 30
0.0
 11
125.6128776506303
 21
435.7565941744779
 31
0.0
  0
LINE
  5
64F
  8
_0-1_
  6
CENTER1
 62
   152
 10
119.1128776506307
 20
428.2510401744776
 30
0.0
 11
184.1128776506308
 21
428.2510401744776
 31
0.0
  0
LINE
  5
650
  8
_0-1_
  6
CENTER1
 62
   152
 10
121.3628776506307
 20
456.7510401744776
 30
0.0
 11
115.8628776506303
 21
456.7510401744776
 31
0.0
  0
LINE
  5
651
  8
_0-1_
  6
CENTER1
 62
   152
 10
118.6128776506307
 20
454.1510401744777
 30
0.0
 11
118.6128776506307
 21
459.3510401744775
 31
0.0
  0
LINE
  5
652
  8
_0-1_
  6
CENTER1
 62
   152
 10
97.11287765063025
 20
438.0010401744776
 30
0.0
 11
97.11287765063025
 21
432.5010401744776
 31
0.0
  0
LINE
  5
653
  8
_0-1_
  6
CENTER1
 62
   152
 10
94.51287765063034
 20
435.2510401744776
 30
0.0
 11
99.71287765063016
 21
435.2510401744776
 31
0.0
  0
LINE
  5
654
  8
_0-1_
  6
CENTER1
 62
   152
 10
84.11287765063071
 20
448.2510401744776
 30
0.0
 11
68.11287765063025
 21
448.2510401744776
 31
0.0
  0
LINE
  5
655
  8
_0-1_
  6
CENTER1
 62
   152
 10
76.11287765063071
 20
440.2510401744776
 30
0.0
 11
76.11287765063071
 21
456.2510401744776
 31
0.0
  0
LINE
  5
656
  8
_0-1_
  6
CENTER1
 62
   152
 10
97.11287765063025
 20
373.0010481744775
 30
0.0
 11
97.11287765063025
 21
367.5010481744775
 31
0.0
  0
LINE
  5
657
  8
_0-1_
  6
CENTER1
 62
   152
 10
94.51287765063034
 20
370.2510481744775
 30
0.0
 11
99.71287765063016
 21
370.2510481744775
 31
0.0
  0
CIRCLE
  5
658
  8
_0-1_
  6
CONTINUOUS
 62
   152
 10
76.11287765063071
 20
448.2510401744776
 30
0.0
 40
6.000000000000001
  0
TEXT
  5
659
  8
_0-1_
 62
     7
 10
122.4391534731433
 20
480.449767824676
 30
0.0
 40
5.0
  1
(L)
1001
CAXA_DRAFT_TXTSCALE
1041
1.0
  0
LINE
  5
65A
  8
_0-1_
  6
DASHED2
 62
   152
 10
192.6128776506308
 20
464.0510401744775
 30
0.0
 11
62.61287765063071
 21
464.0510401744775
 31
0.0
  0
TEXT
  5
65B
  8
_0-1_
 62
     7
 10
40.337512487808
 20
484.5463153998278
 30
0.0
 40
5.0
  1
AP25-M12
1001
CAXA_DRAFT_TXTSCALE
1041
1.0
  0
LINE
  5
65C
  8
_0-0_
  6
CONTINUOUS
 62
     7
 10
37.92648713100823
 20
361.2510401744776
 30
0.0
 11
34.72648713100818
 21
361.2510401744776
 31
0.0
  0
LINE
  5
65D
  8
_0-0_
  6
CONTINUOUS
 62
     7
 10
34.72648713100818
 20
361.2510401744776
 30
0.0
 11
34.72648713100818
 21
463.5510401744775
 31
0.0
  0
LINE
  5
65E
  8
_0-0_
  6
CONTINUOUS
 62
     7
 10
34.22648713100818
 20
464.0510401744775
 30
0.0
 11
22.92648713100823
 21
464.0510401744775
 31
0.0
  0
LINE
  5
65F
  8
_0-0_
  6
CONTINUOUS
 62
     7
 10
22.92648713100823
 20
464.0510401744775
 30
0.0
 11
22.92648713100823
 21
467.2510401744776
 31
0.0
  0
LINE
  5
660
  8
_0-0_
  6
CONTINUOUS
 62
     7
 10
22.92648713100823
 20
467.2510401744776
 30
0.0
 11
34.17648713100823
 21
467.2510401744776
 31
0.0
  0
LINE
  5
661
  8
_0-0_
  6
CONTINUOUS
 62
     7
 10
37.92648713100823
 20
463.5010401744776
 30
0.0
 11
37.92648713100823
 21
361.2510401744776
 31
0.0
  0
LINE
  5
662
  8
_0-0_
  6
CONTINUOUS
 62
     7
 10
34.72648713100818
 20
460.2510401744776
 30
0.0
 11
31.72648713100818
 21
457.2510401744776
 31
0.0
  0
LINE
  5
663
  8
_0-0_
  6
CONTINUOUS
 62
     7
 10
34.72648713100818
 20
457.2510401744776
 30
0.0
 11
18.92648713100823
 21
457.2510401744776
 31
0.0
  0
LINE
  5
664
  8
_0-0_
  6
CONTINUOUS
 62
     7
 10
18.92648713100823
 20
457.2510401744776
 30
0.0
 11
17.92648713100823
 21
456.2510401744776
 31
0.0
  0
LINE
  5
665
  8
_0-0_
  6
CONTINUOUS
 62
     7
 10
17.92648713100823
 20
456.2510401744776
 30
0.0
 11
17.92648713100823
 21
440.2510401744776
 31
0.0
  0
LINE
  5
666
  8
_0-0_
  6
CONTINUOUS
 62
     7
 10
17.92648713100823
 20
440.2510401744776
 30
0.0
 11
18.92648713100823
 21
439.2510401744776
 31
0.0
  0
LINE
  5
667
  8
_0-0_
  6
CONTINUOUS
 62
     7
 10
18.92648713100823
 20
439.2510401744776
 30
0.0
 11
34.72648713100818
 21
439.2510401744776
 31
0.0
  0
LINE
  5
668
  8
_0-0_
  6
CONTINUOUS
 62
     7
 10
34.72648713100818
 20
440.2510401744776
 30
0.0
 11
37.92648713100823
 21
440.2510401744776
 31
0.0
  0
LINE
  5
669
  8
_0-0_
  6
CONTINUOUS
 62
     7
 10
34.72648713100818
 20
436.2510401744776
 30
0.0
 11
31.72648713100818
 21
439.2510401744776
 31
0.0
  0
LINE
  5
66A
  8
_0-0_
  6
CONTINUOUS
 62
     7
 10
34.72648713100818
 20
456.2510401744776
 30
0.0
 11
37.92648713100823
 21
456.2510401744776
 31
0.0
  0
ARC
  5
66B
  8
_0-0_
  6
CONTINUOUS
 62
     7
 10
34.17648713100823
 20
463.5010401744776
 30
0.0
 40
3.75
 50
0.0
 51
90.0
  0
ARC
  5
66C
  8
_0-0_
  6
CONTINUOUS
 62
     7
 10
34.22648713100818
 20
463.5510401744775
 30
0.0
 40
0.5
 50
0.0
 51
90.0
  0
LINE
  5
66D
  8
_0-1_
  6
CENTER1
 62
   152
 10
37.92648713100823
 20
448.2510401744776
 30
0.0
 11
17.92648713100823
 21
448.2510401744776
 31
0.0
  0
LINE
  5
66E
  8
_0-0_
  6
CONTINUOUS
 62
     7
 10
675.4592103455319
 20
371.2510481744775
 30
0.0
 11
675.4592103455319
 21
467.2510401744776
 31
0.0
  0
LINE
  5
66F
  8
_0-0_
  6
CONTINUOUS
 62
     7
 10
675.4592103455319
 20
467.2510401744776
 30
0.0
 11
545.4592103455319
 21
467.2510401744776
 31
0.0
  0
LINE
  5
670
  8
_0-0_
  6
CONTINUOUS
 62
     7
 10
545.4592103455319
 20
467.2510401744776
 30
0.0
 11
545.4592103455319
 21
437.1962011744777
 31
0.0
  0
LINE
  5
671
  8
_0-0_
  6
CONTINUOUS
 62
     7
 10
546.0622803455316
 20
433.7759991744779
 30
0.0
 11
570.0643603455318
 21
367.8308481744775
 31
0.0
  0
LINE
  5
672
  8
_0-0_
  6
CONTINUOUS
 62
     7
 10
579.4612803455319
 20
361.2510481744775
 30
0.0
 11
665.4592103455319
 21
361.2510481744775
 31
0.0
  0
ARC
  5
673
  8
_0-0_
  6
CONTINUOUS
 62
     7
 10
665.4592103455319
 20
371.2510481744775
 30
0.0
 40
10.0
 50
270.0
 51
0.0
  0
ARC
  5
674
  8
_0-0_
  6
CONTINUOUS
 62
     7
 10
555.4592103455319
 20
437.1962011744777
 30
0.0
 40
10.0
 50
180.0
 51
200.0000000000002
  0
ARC
  5
675
  8
_0-0_
  6
CONTINUOUS
 62
     7
 10
579.4612803455319
 20
371.2510481744775
 30
0.0
 40
10.00000000000003
 50
199.9999999999997
 51
270.0
  0
CIRCLE
  5
676
  8
_0-0_
  6
CONTINUOUS
 62
     7
 10
579.9592103455315
 20
435.2510401744776
 30
0.0
 40
2.75
  0
CIRCLE
  5
677
  8
_0-0_
  6
CONTINUOUS
 62
     7
 10
579.9592103455315
 20
370.2510481744775
 30
0.0
 40
2.75
  0
CIRCLE
  5
678
  8
_0-0_
  6
CONTINUOUS
 62
     7
 10
601.4592103455319
 20
456.7510401744776
 30
0.0
 40
2.75
  0
CIRCLE
  5
679
  8
_0-0_
  6
CONTINUOUS
 62
     7
 10
666.4592103455319
 20
456.7510401744776
 30
0.0
 40
2.75
  0
CIRCLE
  5
67A
  8
_0-0_
  6
CONTINUOUS
 62
     7
 10
608.4592103455315
 20
428.2510401744776
 30
0.0
 40
4.1
  0
CIRCLE
  5
67B
  8
_0-0_
  6
CONTINUOUS
 62
     7
 10
608.4592103455315
 20
376.2510481744775
 30
0.0
 40
4.1
  0
CIRCLE
  5
67C
  8
_0-0_
  6
CONTINUOUS
 62
     7
 10
660.4592103455319
 20
376.2510481744775
 30
0.0
 40
4.1
  0
CIRCLE
  5
67D
  8
_0-0_
  6
CONTINUOUS
 62
     7
 10
660.4592103455319
 20
428.2510401744776
 30
0.0
 40
4.1
  0
CIRCLE
  5
67E
  8
_0-0_
  6
CONTINUOUS
 62
     7
 10
558.9592103455319
 20
448.2510401744776
 30
0.0
 40
4.300000190734863
  0
CIRCLE
  5
67F
  8
_0-0_
  6
CONTINUOUS
 62
     7
 10
558.9592103455319
 20
448.2510401744776
 30
0.0
 40
8.0
  0
LINE
  5
680
  8
_0-1_
  6
CENTER1
 62
   152
 10
669.2092103455319
 20
456.7510401744776
 30
0.0
 11
663.7092103455315
 21
456.7510401744776
 31
0.0
  0
LINE
  5
681
  8
_0-1_
  6
CENTER1
 62
   152
 10
666.4592103455319
 20
454.1510401744777
 30
0.0
 11
666.4592103455319
 21
459.3510401744775
 31
0.0
  0
LINE
  5
682
  8
_0-1_
  6
CENTER1
 62
   152
 10
660.4592103455319
 20
435.7565941744779
 30
0.0
 11
660.4592103455319
 21
368.7454881744775
 31
0.0
  0
LINE
  5
683
  8
_0-1_
  6
CENTER1
 62
   152
 10
666.9592103455319
 20
376.2510481744775
 30
0.0
 11
601.9592103455319
 21
376.2510481744775
 31
0.0
  0
LINE
  5
684
  8
_0-1_
  6
CENTER1
 62
   152
 10
608.4592103455315
 20
368.7454881744775
 30
0.0
 11
608.4592103455315
 21
435.7565941744779
 31
0.0
  0
LINE
  5
685
  8
_0-1_
  6
CENTER1
 62
   152
 10
601.9592103455319
 20
428.2510401744776
 30
0.0
 11
666.9592103455319
 21
428.2510401744776
 31
0.0
  0
LINE
  5
686
  8
_0-1_
  6
CENTER1
 62
   152
 10
604.2092103455319
 20
456.7510401744776
 30
0.0
 11
598.7092103455315
 21
456.7510401744776
 31
0.0
  0
LINE
  5
687
  8
_0-1_
  6
CENTER1
 62
   152
 10
601.4592103455319
 20
454.1510401744777
 30
0.0
 11
601.4592103455319
 21
459.3510401744775
 31
0.0
  0
LINE
  5
688
  8
_0-1_
  6
CENTER1
 62
   152
 10
579.9592103455315
 20
438.0010401744776
 30
0.0
 11
579.9592103455315
 21
432.5010401744776
 31
0.0
  0
LINE
  5
689
  8
_0-1_
  6
CENTER1
 62
   152
 10
577.3592103455316
 20
435.2510401744776
 30
0.0
 11
582.5592103455314
 21
435.2510401744776
 31
0.0
  0
LINE
  5
68A
  8
_0-1_
  6
CENTER1
 62
   152
 10
566.9592103455319
 20
448.2510401744776
 30
0.0
 11
550.9592103455315
 21
448.2510401744776
 31
0.0
  0
LINE
  5
68B
  8
_0-1_
  6
CENTER1
 62
   152
 10
558.9592103455319
 20
440.2510401744776
 30
0.0
 11
558.9592103455319
 21
456.2510401744776
 31
0.0
  0
LINE
  5
68C
  8
_0-1_
  6
CENTER1
 62
   152
 10
579.9592103455315
 20
367.5010481744775
 30
0.0
 11
579.9592103455315
 21
373.0010481744775
 31
0.0
  0
LINE
  5
68D
  8
_0-1_
  6
CENTER1
 62
   152
 10
577.3592103455316
 20
370.2510481744775
 30
0.0
 11
582.5592103455314
 21
370.2510481744775
 31
0.0
  0
CIRCLE
  5
68E
  8
_0-1_
  6
CONTINUOUS
 62
   152
 10
558.9592103455319
 20
448.2510401744776
 30
0.0
 40
5.0
  0
TEXT
  5
68F
  8
_0-1_
 62
     7
 10
602.3679236872209
 20
480.449767824676
 30
0.0
 40
5.0
  1
(L)
1001
CAXA_DRAFT_TXTSCALE
1041
1.0
  0
LINE
  5
690
  8
_0-1_
  6
DASHED2
 62
   152
 10
675.4592103455319
 20
464.0510401744775
 30
0.0
 11
545.4592103455319
 21
464.0510401744775
 31
0.0
  0
TEXT
  5
691
  8
_0-1_
 62
     7
 10
526.0697251000175
 20
484.5463153998278
 30
0.0
 40
5.0
  1
AP25-M10
1001
CAXA_DRAFT_TXTSCALE
1041
1.0
  0
LINE
  5
692
  8
_0-0_
  6
CONTINUOUS
 62
     7
 10
520.8677839278276
 20
361.2510401744776
 30
0.0
 11
517.6677839278278
 21
361.2510401744776
 31
0.0
  0
LINE
  5
693
  8
_0-0_
  6
CONTINUOUS
 62
     7
 10
517.6677839278278
 20
361.2510401744776
 30
0.0
 11
517.6677839278278
 21
463.5510401744775
 31
0.0
  0
LINE
  5
694
  8
_0-0_
  6
CONTINUOUS
 62
     7
 10
517.1677839278278
 20
464.0510401744775
 30
0.0
 11
505.8677839278274
 21
464.0510401744775
 31
0.0
  0
LINE
  5
695
  8
_0-0_
  6
CONTINUOUS
 62
     7
 10
505.8677839278274
 20
464.0510401744775
 30
0.0
 11
505.8677839278274
 21
467.2510401744776
 31
0.0
  0
LINE
  5
696
  8
_0-0_
  6
CONTINUOUS
 62
     7
 10
505.8677839278274
 20
467.2510401744776
 30
0.0
 11
517.1177839278276
 21
467.2510401744776
 31
0.0
  0
LINE
  5
697
  8
_0-0_
  6
CONTINUOUS
 62
     7
 10
520.8677839278276
 20
463.5010401744776
 30
0.0
 11
520.8677839278276
 21
361.2510401744776
 31
0.0
  0
LINE
  5
698
  8
_0-0_
  6
CONTINUOUS
 62
     7
 10
500.8677839278274
 20
456.2510401744776
 30
0.0
 11
500.8677839278274
 21
440.2510401744776
 31
0.0
  0
LINE
  5
699
  8
_0-0_
  6
CONTINUOUS
 62
     7
 10
500.8677839278274
 20
440.2510401744776
 30
0.0
 11
501.8677839278274
 21
439.2510401744776
 31
0.0
  0
LINE
  5
69A
  8
_0-0_
  6
CONTINUOUS
 62
     7
 10
501.8677839278274
 20
439.2510401744776
 30
0.0
 11
517.6677839278278
 21
439.2510401744776
 31
0.0
  0
LINE
  5
69B
  8
_0-0_
  6
CONTINUOUS
 62
     7
 10
517.6677839278278
 20
440.2510401744776
 30
0.0
 11
520.8677839278276
 21
440.2510401744776
 31
0.0
  0
LINE
  5
69C
  8
_0-0_
  6
CONTINUOUS
 62
     7
 10
517.6677839278278
 20
436.2510401744776
 30
0.0
 11
514.6677839278278
 21
439.2510401744776
 31
0.0
  0
LINE
  5
69D
  8
_0-0_
  6
CONTINUOUS
 62
     7
 10
514.6677839278278
 20
457.2510401744776
 30
0.0
 11
517.6677839278278
 21
460.2510401744776
 31
0.0
  0
LINE
  5
69E
  8
_0-0_
  6
CONTINUOUS
 62
     7
 10
517.6677839278278
 20
457.2510401744776
 30
0.0
 11
501.8677839278274
 21
457.2510401744776
 31
0.0
  0
LINE
  5
69F
  8
_0-0_
  6
CONTINUOUS
 62
     7
 10
501.8677839278274
 20
457.2510401744776
 30
0.0
 11
500.8677839278274
 21
456.2510401744776
 31
0.0
  0
LINE
  5
6A0
  8
_0-0_
  6
CONTINUOUS
 62
     7
 10
517.6677839278278
 20
456.2510401744776
 30
0.0
 11
520.8677839278276
 21
456.2510401744776
 31
0.0
  0
ARC
  5
6A1
  8
_0-0_
  6
CONTINUOUS
 62
     7
 10
517.1177839278276
 20
463.5010401744776
 30
0.0
 40
3.75
 50
0.0
 51
90.0
  0
ARC
  5
6A2
  8
_0-0_
  6
CONTINUOUS
 62
     7
 10
517.1677839278278
 20
463.5510401744775
 30
0.0
 40
0.5
 50
0.0
 51
90.0
  0
LINE
  5
6A3
  8
_0-1_
  6
CENTER1
 62
   152
 10
520.8677839278276
 20
448.2510401744776
 30
0.0
 11
500.8677839278274
 21
448.2510401744776
 31
0.0
  0
LINE
  5
6A4
  8
_0-0_
  6
CONTINUOUS
 62
     7
 10
732.8802079852032
 20
371.2510481744775
 30
0.0
 11
732.8802079852032
 21
467.2510401744776
 31
0.0
  0
LINE
  5
6A5
  8
_0-0_
  6
CONTINUOUS
 62
     7
 10
732.8802079852032
 20
467.2510401744776
 30
0.0
 11
862.8802079852032
 21
467.2510401744776
 31
0.0
  0
LINE
  5
6A6
  8
_0-0_
  6
CONTINUOUS
 62
     7
 10
862.8802079852032
 20
467.2510401744776
 30
0.0
 11
862.8802079852032
 21
437.1962011744777
 31
0.0
  0
LINE
  5
6A7
  8
_0-0_
  6
CONTINUOUS
 62
     7
 10
862.2771379852036
 20
433.7759991744779
 30
0.0
 11
838.2750579852034
 21
367.8308481744775
 31
0.0
  0
LINE
  5
6A8
  8
_0-0_
  6
CONTINUOUS
 62
     7
 10
828.8781379852032
 20
361.2510481744775
 30
0.0
 11
742.8802079852032
 21
361.2510481744775
 31
0.0
  0
ARC
  5
6A9
  8
_0-0_
  6
CONTINUOUS
 62
     7
 10
742.8802079852032
 20
371.2510481744775
 30
0.0
 40
10.0
 50
180.0
 51
270.0
  0
ARC
  5
6AA
  8
_0-0_
  6
CONTINUOUS
 62
     7
 10
852.8802079852032
 20
437.1962011744777
 30
0.0
 40
10.00000000000003
 50
340.0000000000003
 51
0.0
  0
ARC
  5
6AB
  8
_0-0_
  6
CONTINUOUS
 62
     7
 10
828.8781379852032
 20
371.2510481744775
 30
0.0
 40
10.0
 50
270.0
 51
340.0000000000002
  0
CIRCLE
  5
6AC
  8
_0-0_
  6
CONTINUOUS
 62
     7
 10
828.3802079852037
 20
435.2510401744776
 30
0.0
 40
2.75
  0
CIRCLE
  5
6AD
  8
_0-0_
  6
CONTINUOUS
 62
     7
 10
828.3802079852037
 20
370.2510481744775
 30
0.0
 40
2.75
  0
CIRCLE
  5
6AE
  8
_0-0_
  6
CONTINUOUS
 62
     7
 10
806.8802079852032
 20
456.7510401744776
 30
0.0
 40
2.75
  0
CIRCLE
  5
6AF
  8
_0-0_
  6
CONTINUOUS
 62
     7
 10
741.8802079852032
 20
456.7510401744776
 30
0.0
 40
2.75
  0
CIRCLE
  5
6B0
  8
_0-0_
  6
CONTINUOUS
 62
     7
 10
799.8802079852037
 20
428.2510401744776
 30
0.0
 40
4.1
  0
CIRCLE
  5
6B1
  8
_0-0_
  6
CONTINUOUS
 62
     7
 10
799.8802079852037
 20
376.2510481744775
 30
0.0
 40
4.1
  0
CIRCLE
  5
6B2
  8
_0-0_
  6
CONTINUOUS
 62
     7
 10
747.8802079852032
 20
376.2510481744775
 30
0.0
 40
4.1
  0
CIRCLE
  5
6B3
  8
_0-0_
  6
CONTINUOUS
 62
     7
 10
747.8802079852032
 20
428.2510401744776
 30
0.0
 40
4.1
  0
CIRCLE
  5
6B4
  8
_0-0_
  6
CONTINUOUS
 62
     7
 10
849.3802079852032
 20
448.2510401744776
 30
0.0
 40
4.300000190734863
  0
CIRCLE
  5
6B5
  8
_0-0_
  6
CONTINUOUS
 62
     7
 10
849.3802079852032
 20
448.2510401744776
 30
0.0
 40
8.0
  0
LINE
  5
6B6
  8
_0-1_
  6
CENTER1
 62
   152
 10
739.1302079852032
 20
456.7510401744776
 30
0.0
 11
744.6302079852037
 21
456.7510401744776
 31
0.0
  0
LINE
  5
6B7
  8
_0-1_
  6
CENTER1
 62
   152
 10
741.8802079852032
 20
454.1510401744777
 30
0.0
 11
741.8802079852032
 21
459.3510401744775
 31
0.0
  0
LINE
  5
6B8
  8
_0-1_
  6
CENTER1
 62
   152
 10
747.8802079852032
 20
435.7565941744779
 30
0.0
 11
747.8802079852032
 21
368.7454881744775
 31
0.0
  0
LINE
  5
6B9
  8
_0-1_
  6
CENTER1
 62
   152
 10
741.3802079852032
 20
376.2510481744775
 30
0.0
 11
806.3802079852032
 21
376.2510481744775
 31
0.0
  0
LINE
  5
6BA
  8
_0-1_
  6
CENTER1
 62
   152
 10
799.8802079852037
 20
368.7454881744775
 30
0.0
 11
799.8802079852037
 21
435.7565941744779
 31
0.0
  0
LINE
  5
6BB
  8
_0-1_
  6
CENTER1
 62
   152
 10
806.3802079852032
 20
428.2510401744776
 30
0.0
 11
741.3802079852032
 21
428.2510401744776
 31
0.0
  0
LINE
  5
6BC
  8
_0-1_
  6
CENTER1
 62
   152
 10
804.1302079852032
 20
456.7510401744776
 30
0.0
 11
809.6302079852037
 21
456.7510401744776
 31
0.0
  0
LINE
  5
6BD
  8
_0-1_
  6
CENTER1
 62
   152
 10
806.8802079852032
 20
454.1510401744777
 30
0.0
 11
806.8802079852032
 21
459.3510401744775
 31
0.0
  0
LINE
  5
6BE
  8
_0-1_
  6
CENTER1
 62
   152
 10
828.3802079852037
 20
438.0010401744776
 30
0.0
 11
828.3802079852037
 21
432.5010401744776
 31
0.0
  0
LINE
  5
6BF
  8
_0-1_
  6
CENTER1
 62
   152
 10
830.9802079852036
 20
435.2510401744776
 30
0.0
 11
825.7802079852038
 21
435.2510401744776
 31
0.0
  0
LINE
  5
6C0
  8
_0-1_
  6
CENTER1
 62
   152
 10
841.3802079852032
 20
448.2510401744776
 30
0.0
 11
857.3802079852037
 21
448.2510401744776
 31
0.0
  0
LINE
  5
6C1
  8
_0-1_
  6
CENTER1
 62
   152
 10
849.3802079852032
 20
440.2510401744776
 30
0.0
 11
849.3802079852032
 21
456.2510401744776
 31
0.0
  0
LINE
  5
6C2
  8
_0-1_
  6
CENTER1
 62
   152
 10
828.3802079852037
 20
367.5010481744775
 30
0.0
 11
828.3802079852037
 21
373.0010481744775
 31
0.0
  0
LINE
  5
6C3
  8
_0-1_
  6
CENTER1
 62
   152
 10
830.9802079852036
 20
370.2510481744775
 30
0.0
 11
825.7802079852038
 21
370.2510481744775
 31
0.0
  0
CIRCLE
  5
6C4
  8
_0-1_
  6
CONTINUOUS
 62
   152
 10
849.3802079852032
 20
448.2510401744776
 30
0.0
 40
5.0
  0
TEXT
  5
6C5
  8
_0-1_
 62
     7
 10
862.2696932307176
 20
484.5463153998278
 30
0.0
 40
5.0
  1
AS25-M10
1001
CAXA_DRAFT_TXTSCALE
1041
1.0
  0
LINE
  5
6C6
  8
_0-1_
  6
DASHED2
 62
   152
 10
732.8802079852032
 20
464.0510401744775
 30
0.0
 11
862.8802079852032
 21
464.0510401744775
 31
0.0
  0
TEXT
  5
6C7
  8
_0-1_
 62
     7
 10
798.4714946435142
 20
480.449767824676
 30
0.0
 40
5.0
  1
(R)
1001
CAXA_DRAFT_TXTSCALE
1041
1.0
  0
LINE
  5
6C8
  8
_0-0_
  6
CONTINUOUS
 62
     7
 10
884.3836155005542
 20
361.2510401744776
 30
0.0
 11
887.5836155005541
 21
361.2510401744776
 31
0.0
  0
LINE
  5
6C9
  8
_0-0_
  6
CONTINUOUS
 62
     7
 10
887.5836155005541
 20
361.2510401744776
 30
0.0
 11
887.5836155005541
 21
463.5510401744775
 31
0.0
  0
LINE
  5
6CA
  8
_0-0_
  6
CONTINUOUS
 62
     7
 10
888.0836155005541
 20
464.0510401744775
 30
0.0
 11
899.3836155005545
 21
464.0510401744775
 31
0.0
  0
LINE
  5
6CB
  8
_0-0_
  6
CONTINUOUS
 62
     7
 10
899.3836155005545
 20
464.0510401744775
 30
0.0
 11
899.3836155005545
 21
467.2510401744776
 31
0.0
  0
LINE
  5
6CC
  8
_0-0_
  6
CONTINUOUS
 62
     7
 10
899.3836155005545
 20
467.2510401744776
 30
0.0
 11
888.1336155005542
 21
467.2510401744776
 31
0.0
  0
LINE
  5
6CD
  8
_0-0_
  6
CONTINUOUS
 62
     7
 10
884.3836155005542
 20
463.5010401744776
 30
0.0
 11
884.3836155005542
 21
361.2510401744776
 31
0.0
  0
LINE
  5
6CE
  8
_0-0_
  6
CONTINUOUS
 62
     7
 10
904.3836155005545
 20
456.2510401744776
 30
0.0
 11
904.3836155005545
 21
440.2510401744776
 31
0.0
  0
LINE
  5
6CF
  8
_0-0_
  6
CONTINUOUS
 62
     7
 10
904.3836155005545
 20
440.2510401744776
 30
0.0
 11
903.3836155005545
 21
439.2510401744776
 31
0.0
  0
LINE
  5
6D0
  8
_0-0_
  6
CONTINUOUS
 62
     7
 10
903.3836155005545
 20
439.2510401744776
 30
0.0
 11
887.5836155005541
 21
439.2510401744776
 31
0.0
  0
LINE
  5
6D1
  8
_0-0_
  6
CONTINUOUS
 62
     7
 10
887.5836155005541
 20
440.2510401744776
 30
0.0
 11
884.3836155005542
 21
440.2510401744776
 31
0.0
  0
LINE
  5
6D2
  8
_0-0_
  6
CONTINUOUS
 62
     7
 10
887.5836155005541
 20
436.2510401744776
 30
0.0
 11
890.5836155005541
 21
439.2510401744776
 31
0.0
  0
LINE
  5
6D3
  8
_0-0_
  6
CONTINUOUS
 62
     7
 10
890.5836155005541
 20
457.2510401744776
 30
0.0
 11
887.5836155005541
 21
460.2510401744776
 31
0.0
  0
LINE
  5
6D4
  8
_0-0_
  6
CONTINUOUS
 62
     7
 10
887.5836155005541
 20
457.2510401744776
 30
0.0
 11
903.3836155005545
 21
457.2510401744776
 31
0.0
  0
LINE
  5
6D5
  8
_0-0_
  6
CONTINUOUS
 62
     7
 10
903.3836155005545
 20
457.2510401744776
 30
0.0
 11
904.3836155005545
 21
456.2510401744776
 31
0.0
  0
LINE
  5
6D6
  8
_0-0_
  6
CONTINUOUS
 62
     7
 10
887.5836155005541
 20
456.2510401744776
 30
0.0
 11
884.3836155005542
 21
456.2510401744776
 31
0.0
  0
ARC
  5
6D7
  8
_0-0_
  6
CONTINUOUS
 62
     7
 10
888.1336155005542
 20
463.5010401744776
 30
0.0
 40
3.75
 50
90.0
 51
180.0
  0
ARC
  5
6D8
  8
_0-0_
  6
CONTINUOUS
 62
     7
 10
888.0836155005541
 20
463.5510401744775
 30
0.0
 40
0.5
 50
90.0
 51
179.9999999999935
  0
LINE
  5
6D9
  8
_0-1_
  6
CENTER1
 62
   152
 10
884.3836155005542
 20
448.2510401744776
 30
0.0
 11
904.3836155005545
 21
448.2510401744776
 31
0.0
  0
LINE
  5
6DA
  8
_0-0_
  6
CENTER1
 62
   152
 10
101.6160395987412
 20
170.0475913416864
 30
0.0
 11
101.6160395987412
 21
247.5475913615654
 31
0.0
  0
LINE
  5
6DB
  8
_0-0_
  6
CENTER1
 62
   152
 10
126.0060395987629
 20
195.0475913416864
 30
0.0
 11
73.61603959876288
 21
195.0475913416863
 31
0.0
  0
LINE
  5
6DC
  8
_0-1_
  6
CENTER1
 62
   152
 10
147.6160395987412
 20
170.0475913416864
 30
0.0
 11
147.6160395987412
 21
265.5475913416864
 31
0.0
  0
LINE
  5
6DD
  8
_0-1_
  6
CENTER1
 62
   152
 10
225.8509925454165
 20
170.0475913416864
 30
0.0
 11
225.8509925454165
 21
265.5475913416864
 31
0.0
  0
LINE
  5
6DE
  8
_0-0_
  6
CENTER1
 62
   152
 10
301.3509925283221
 20
195.0475913416864
 30
0.0
 11
251.3509925283221
 21
195.0475913416864
 31
0.0
  0
LINE
  5
6DF
  8
_0-0_
  6
CENTER1
 62
   152
 10
276.3509925283221
 20
170.0475913416864
 30
0.0
 11
276.3509925283221
 21
220.0475913416864
 31
0.0
  0
LINE
  5
6E0
  8
_0-1_
  6
CENTER1
 62
   152
 10
250.8693228401159
 20
109.3134548275211
 30
0.0
 11
200.8509925454165
 21
109.3134548275211
 31
0.0
  0
LINE
  5
6E1
  8
_0-1_
  6
CENTER1
 62
   152
 10
225.8601576927662
 20
134.3226199748708
 30
0.0
 11
225.8601576927662
 21
84.30428968017145
 31
0.0
  0
LINE
  5
6E2
  8
_0-0_
  6
CENTER1
 62
   152
 10
301.350992562511
 20
28.31345482752101
 30
0.0
 11
301.350992562511
 21
98.3134548275213
 31
0.0
  0
LINE
  5
6E3
  8
_0-0_
  6
CENTER1
 62
   152
 10
251.3509925454165
 20
63.31345482752113
 30
0.0
 11
336.3509925625098
 21
63.31345482752113
 31
0.0
  0
LINE
  5
6E4
  8
_0-0_
  6
CENTER1
 62
   152
 10
584.2550312492538
 20
170.0475913416864
 30
0.0
 11
584.2550312492538
 21
247.5475913615654
 31
0.0
  0
LINE
  5
6E5
  8
_0-0_
  6
CENTER1
 62
   152
 10
605.7550312492544
 20
195.0475913416864
 30
0.0
 11
556.2550312492756
 21
195.0475913416863
 31
0.0
  0
LINE
  5
6E6
  8
_0-0_
  6
CENTER1
 62
   152
 10
758.9899841788348
 20
170.0475913416864
 30
0.0
 11
758.9899841788348
 21
220.0475913416864
 31
0.0
  0
LINE
  5
6E7
  8
_0-1_
  6
CENTER1
 62
   152
 10
728.5083144906285
 20
109.3134548275211
 30
0.0
 11
688.4899841959292
 21
109.3134548275211
 31
0.0
  0
LINE
  5
6E8
  8
_0-1_
  6
CENTER1
 62
   152
 10
708.4991493432789
 20
129.3226199748708
 30
0.0
 11
708.4991493432789
 21
89.30428968017145
 31
0.0
  0
LINE
  5
6E9
  8
_0-1_
  6
CENTER1
 62
   152
 10
726.7399841959287
 20
96.31344682752115
 30
0.0
 11
732.2399841959287
 21
96.31344682752115
 31
0.0
  0
CIRCLE
  5
6EA
  8
_0-0_
  6
CONTINUOUS
 62
     7
 10
729.4899841959287
 20
96.31344682752115
 30
0.0
 40
2.75
  0
LINE
  5
6EB
  8
_0-0_
  6
CENTER1
 62
   152
 10
809.9899842130224
 20
79.8134548275213
 30
0.0
 11
809.9899842130224
 21
98.3134548275213
 31
0.0
  0
LINE
  5
6EC
  8
_0-0_
  6
CENTER1
 62
   152
 10
818.9899842130224
 20
89.3134548275213
 30
0.0
 11
800.4899842130224
 21
89.3134548275213
 31
0.0
  0
LINE
  5
6ED
  8
_0-0_
  6
CENTER1
 62
   152
 10
800.4899842130224
 20
37.31345482752101
 30
0.0
 11
818.9899842130224
 21
37.31345482752101
 31
0.0
  0
LINE
  5
6EE
  8
_0-0_
  6
CENTER1
 62
   152
 10
809.9899842130224
 20
46.81345482752101
 30
0.0
 11
809.9899842130224
 21
28.31345482752101
 31
0.0
  0
LINE
  5
6EF
  8
_0-0_
  6
CENTER1
 62
   152
 10
757.9899842130228
 20
28.31345482752101
 30
0.0
 11
757.9899842130228
 21
46.81345482752101
 31
0.0
  0
LINE
  5
6F0
  8
_0-0_
  6
CENTER1
 62
   152
 10
767.4899842130228
 20
37.31345482752101
 30
0.0
 11
748.9899842130228
 21
37.31345482752101
 31
0.0
  0
LINE
  5
6F1
  8
_0-0_
  6
CENTER1
 62
   152
 10
757.9899842130228
 20
98.3134548275213
 30
0.0
 11
757.9899842130228
 21
79.8134548275213
 31
0.0
  0
LINE
  5
6F2
  8
_0-0_
  6
CENTER1
 62
   152
 10
748.9899842130228
 20
89.3134548275213
 30
0.0
 11
767.4899842130228
 21
89.3134548275213
 31
0.0
  0
LINE
  5
6F3
  8
_0-0_
  6
CENTER1
 62
   152
 10
783.9899842130236
 20
38.81345482752107
 30
0.0
 11
783.9899842130236
 21
87.81345482752118
 31
0.0
  0
LINE
  5
6F4
  8
_0-0_
  6
CENTER1
 62
   152
 10
733.9899841959291
 20
63.31345482752113
 30
0.0
 11
808.4899842130237
 21
63.31345482752113
 31
0.0
  0
LINE
  5
6F5
  8
_0-A_
  6
PHANTOM1
 62
   152
 10
842.5160485677916
 20
248.2475913615652
 30
0.0
 11
741.9899841959287
 21
248.2475913615652
 31
0.0
  0
LINE
  5
6F6
  8
_0-A_
  6
PHANTOM1
 62
   152
 10
234.3509925454161
 20
298.9621224482136
 30
0.0
 11
234.3509925454161
 21
248.2475913615652
 31
0.0
  0
LINE
  5
6F7
  8
_0-A_
  6
PHANTOM1
 62
   152
 10
259.3509925454161
 20
298.9621224482136
 30
0.0
 11
259.3509925454161
 21
248.2475913615652
 31
0.0
  0
LINE
  5
6F8
  8
_0-A_
  6
PHANTOM1
 62
   152
 10
359.8770569172789
 20
273.2475913615652
 30
0.0
 11
259.3509925454161
 21
273.2475913615652
 31
0.0
  0
LINE
  5
6F9
  8
_0-A_
  6
PHANTOM1
 62
   152
 10
359.8770569172789
 20
248.2475913615652
 30
0.0
 11
259.3509925454161
 21
248.2475913615652
 31
0.0
  0
LINE
  5
6FA
  8
_0-A_
  6
PHANTOM1
 62
   152
 10
192.6128776506308
 20
469.2510401744776
 30
0.0
 11
106.1128776506307
 21
469.2510401744776
 31
0.0
  0
LINE
  5
6FB
  8
_0-A_
  6
PHANTOM1
 62
   152
 10
106.1128776506307
 20
361.2510481744775
 30
0.0
 11
106.1128776506307
 21
469.2510401744776
 31
0.0
  0
LINE
  5
6FC
  8
_0-A_
  6
PHANTOM1
 62
   152
 10
326.6687434380784
 20
469.2510401744776
 30
0.0
 11
326.6687434380784
 21
361.2510481744775
 31
0.0
  0
LINE
  5
6FD
  8
_0-A_
  6
PHANTOM1
 62
   152
 10
218.6687434380779
 20
469.2510401744776
 30
0.0
 11
326.6687434380784
 21
469.2510401744776
 31
0.0
  0
LINE
  5
6FE
  8
_0-A_
  6
PHANTOM1
 62
   152
 10
819.3802079852032
 20
361.2510481744775
 30
0.0
 11
819.3802079852032
 21
469.2510401744776
 31
0.0
  0
LINE
  5
6FF
  8
_0-A_
  6
PHANTOM1
 62
   152
 10
732.8802079852032
 20
469.2510401744776
 30
0.0
 11
819.3802079852032
 21
469.2510401744776
 31
0.0
  0
LINE
  5
700
  8
_0-A_
  6
PHANTOM1
 62
   152
 10
675.4592103455319
 20
469.2510401744776
 30
0.0
 11
588.9592103455319
 21
469.2510401744776
 31
0.0
  0
LINE
  5
701
  8
_0-A_
  6
PHANTOM1
 62
   152
 10
588.9592103455319
 20
361.2510481744775
 30
0.0
 11
588.9592103455319
 21
469.2510401744776
 31
0.0
  0
LINE
  5
702
  8
_0-A_
  6
PHANTOM1
 62
   152
 10
520.8677839278276
 20
463.5010401744776
 30
0.0
 11
520.8677839278276
 21
467.2510401744776
 31
0.0
  0
LINE
  5
703
  8
_0-A_
  6
PHANTOM1
 62
   152
 10
530.0199560629799
 20
467.2510401744776
 30
0.0
 11
520.8677839278276
 21
467.2510401744776
 31
0.0
  0
LINE
  5
704
  8
_0-0_
  6
CENTER1
 62
   152
 10
733.9899841788348
 20
195.0475913416864
 30
0.0
 11
783.9899841788348
 21
195.0475913416864
 31
0.0
  0
LINE
  5
705
  8
_0-A_
  6
PHANTOM1
 62
   152
 10
368.1588609082692
 20
463.5010401744776
 30
0.0
 11
368.1588609082692
 21
469.2510401744776
 31
0.0
  0
LINE
  5
706
  8
_0-A_
  6
PHANTOM1
 62
   152
 10
358.0827710207661
 20
469.2510401744776
 30
0.0
 11
368.1588609082692
 21
469.2510401744776
 31
0.0
  0
LINE
  5
707
  8
_0-A_
  6
PHANTOM1
 62
   152
 10
37.92648713100823
 20
463.5010401744776
 30
0.0
 11
37.92648713100823
 21
469.2510401744776
 31
0.0
  0
LINE
  5
708
  8
_0-A_
  6
PHANTOM1
 62
   152
 10
44.93192542013298
 20
469.2510401744776
 30
0.0
 11
37.92648713100823
 21
469.2510401744776
 31
0.0
  0
LINE
  5
709
  8
_0-A_
  6
PHANTOM1
 62
   152
 10
884.3836155005542
 20
463.5010401744776
 30
0.0
 11
884.3836155005542
 21
469.2510401744776
 31
0.0
  0
LINE
  5
70A
  8
_0-A_
  6
PHANTOM1
 62
   152
 10
878.1382802483006
 20
469.2510401744776
 30
0.0
 11
884.3836155005542
 21
469.2510401744776
 31
0.0
  0
LINE
  5
70B
  8
_0-A_
  6
PHANTOM1
 62
   152
 10
37.8575775005022
 20
273.2475913615652
 30
0.0
 11
143.6160395987412
 21
273.2475913615652
 31
0.0
  0
LINE
  5
70C
  8
_0-A_
  6
PHANTOM1
 62
   152
 10
168.6160395987412
 20
248.2475913615652
 30
0.0
 11
168.6160395987412
 21
299.3416787981106
 31
0.0
  0
LINE
  5
70D
  8
_0-A_
  6
PHANTOM1
 62
   152
 10
37.8575775005022
 20
248.2475913615652
 30
0.0
 11
168.6160395987412
 21
248.2475913615652
 31
0.0
  0
LINE
  5
70E
  8
_0-A_
  6
PHANTOM1
 62
   152
 10
143.6160395987412
 20
265.5475913416864
 30
0.0
 11
143.6160395987412
 21
299.3416787981106
 31
0.0
  0
LINE
  5
70F
  8
_0-A_
  6
PHANTOM1
 62
   152
 10
651.2550312492539
 20
248.2475913615652
 30
0.0
 11
651.2550312492539
 21
301.8531427014071
 31
0.0
  0
LINE
  5
710
  8
_0-A_
  6
PHANTOM1
 62
   152
 10
520.4965691510149
 20
248.2475913615652
 30
0.0
 11
651.2550312492539
 21
248.2475913615652
 31
0.0
  0
LINE
  5
711
  8
_0-A_
  6
PHANTOM1
 62
   152
 10
626.2550312492539
 20
270.0475913416864
 30
0.0
 11
626.2550312492539
 21
301.8531427014071
 31
0.0
  0
LINE
  5
712
  8
_0-A_
  6
PHANTOM1
 62
   152
 10
520.4965691510149
 20
273.2475913615652
 30
0.0
 11
626.2550312492539
 21
273.2475913615652
 31
0.0
  0
LINE
  5
713
  8
_0-A_
  6
PHANTOM1
 62
   152
 10
234.3509925454161
 20
130.3134548275211
 30
0.0
 11
342.3509925454165
 21
130.3134548275211
 31
0.0
  0
LINE
  5
714
  8
_0-A_
  6
PHANTOM1
 62
   152
 10
234.3509925454161
 20
130.3134548275211
 30
0.0
 11
234.3509925454161
 21
22.31345482752113
 31
0.0
  0
LINE
  5
715
  8
_0-A_
  6
PHANTOM1
 62
   152
 10
716.9899841959287
 20
130.3134548275211
 30
0.0
 11
824.9899841959292
 21
130.3134548275211
 31
0.0
  0
LINE
  5
716
  8
_0-A_
  6
PHANTOM1
 62
   152
 10
716.9899841959287
 20
22.31345482752113
 30
0.0
 11
716.9899841959287
 21
130.3134548275211
 31
0.0
  0
LINE
  5
717
  8
_0-2_
  6
DASHED2
 62
   152
 10
824.9899841959293
 20
245.0475913615653
 30
0.0
 11
694.9899841959293
 21
245.0475913615653
 31
0.0
  0
LINE
  5
718
  8
_0-2_
  6
DASHED2
 62
   152
 10
342.3509925454165
 20
245.0475913615653
 30
0.0
 11
212.3509925454165
 21
245.0475913615653
 31
0.0
  0
LINE
  5
719
  8
_0-2_
  6
DASHED2
 62
   152
 10
234.8509925454165
 20
233.2475913615652
 30
0.0
 11
234.8509925454165
 21
245.0475913615653
 31
0.0
  0
LINE
  5
71A
  8
_0-2_
  6
DASHED2
 62
   152
 10
216.8509925454161
 20
233.4381213615651
 30
0.0
 11
216.8509925454161
 21
245.0475913615653
 31
0.0
  0
LINE
  5
71B
  8
_0-2_
  6
DASHED2
 62
   152
 10
717.4899841959293
 20
233.2475913615652
 30
0.0
 11
717.4899841959293
 21
245.0475913615653
 31
0.0
  0
LINE
  5
71C
  8
_0-2_
  6
DASHED2
 62
   152
 10
699.4899841959289
 20
233.4381213615651
 30
0.0
 11
699.4899841959289
 21
245.0475913615653
 31
0.0
  0
LINE
  5
71D
  8
_0-0_
  6
CONTINUOUS
 62
     7
 10
246.3530625454165
 20
22.31345482752113
 30
0.0
 11
332.3509925454165
 21
22.31345482752113
 31
0.0
  0
VIEWPORT
  5
720
 67
     1
  8
0
 10
0.0
 20
0.0
 30
0.0
 40
300.0
 41
220.0
 68
     1
 69
     1
1001
ACAD
1000
MVIEW
1002
{
1070
    16
1010
0.0
1020
0.0
1030
0.0
1010
0.0
1020
0.0
1030
1.0
1040
0.0
1040
1.0
1040
0.0
1040
0.0
1040
50.0
1040
0.0
1040
0.0
1070
     0
1070
   100
1070
     0
1070
     3
1070
     0
1070
     0
1070
     0
1070
     0
1040
0.0
1040
0.0
1040
0.0
1040
0.5
1040
0.5
1040
0.0
1040
0.0
1070
     0
1002
{
1002
}
1002
}
  0
ENDSEC
  0
EOF
