  0
SECTION
  2
HEADER
  9
$ACADVER
  1
AC1009
  9
$DWGCODEPAGE
  3
ansi_932
  9
$INSBASE
 10
0.0
 20
0.0
 30
0.0
  9
$EXTMIN
 10
-868.1045541646948
 20
-137.6017034216771
 30
0.0
  9
$EXTMAX
 10
962.7969329298463
 20
640.8763239220729
 30
0.0
  9
$LIMMIN
 10
0.0
 20
0.0
  9
$LIMMAX
 10
1189.0
 20
841.0
  9
$ORTHOMODE
 70
     0
  9
$REGENMODE
 70
     1
  9
$FILLMODE
 70
     1
  9
$QTEXTMODE
 70
     0
  9
$MIRRTEXT
 70
     1
  9
$DRAGMODE
 70
     2
  9
$LTSCALE
 40
1.0
  9
$OSMODE
 70
    37
  9
$ATTMODE
 70
     1
  9
$TEXTSIZE
 40
0.2
  9
$TRACEWID
 40
0.05
  9
$TEXTSTYLE
  7
STANDARD
  9
$CLAYER
  8
0
  9
$CELTYPE
  6
BYBLOCK
  9
$CECOLOR
 62
   256
  9
$DIMSCALE
 40
1.0
  9
$DIMASZ
 40
0.18
  9
$DIMEXO
 40
0.0625
  9
$DIMDLI
 40
0.38
  9
$DIMRND
 40
0.0
  9
$DIMDLE
 40
0.36
  9
$DIMEXE
 40
0.18
  9
$DIMTP
 40
0.0
  9
$DIMTM
 40
0.0
  9
$DIMTXT
 40
0.18
  9
$DIMCEN
 40
0.09
  9
$DIMTSZ
 40
0.0
  9
$DIMTOL
 70
     0
  9
$DIMLIM
 70
     0
  9
$DIMTIH
 70
     1
  9
$DIMTOH
 70
     1
  9
$DIMSE1
 70
     0
  9
$DIMSE2
 70
     0
  9
$DIMTAD
 70
     0
  9
$DIMZIN
 70
     0
  9
$DIMBLK
  1

  9
$DIMASO
 70
     1
  9
$DIMSHO
 70
     1
  9
$DIMPOST
  1

  9
$DIMAPOST
  1

  9
$DIMALT
 70
     0
  9
$DIMALTD
 70
     2
  9
$DIMALTF
 40
25.4
  9
$DIMLFAC
 40
1.0
  9
$DIMTOFL
 70
     0
  9
$DIMTVP
 40
0.0
  9
$DIMTIX
 70
     0
  9
$DIMSOXD
 70
     0
  9
$DIMSAH
 70
     0
  9
$DIMBLK1
  1

  9
$DIMBLK2
  1

  9
$DIMSTYLE
  2
STANDARD
  9
$DIMCLRD
 70
     0
  9
$DIMCLRE
 70
     0
  9
$DIMCLRT
 70
     0
  9
$DIMTFAC
 40
1.0
  9
$DIMGAP
 40
0.09
  9
$LUNITS
 70
     2
  9
$LUPREC
 70
     4
  9
$SKETCHINC
 40
0.1
  9
$FILLETRAD
 40
0.0
  9
$AUNITS
 70
     0
  9
$AUPREC
 70
     0
  9
$MENU
  1
.
  9
$ELEVATION
 40
0.0
  9
$PELEVATION
 40
0.0
  9
$THICKNESS
 40
0.0
  9
$LIMCHECK
 70
     0
  9
$CHAMFERA
 40
0.0
  9
$CHAMFERB
 40
0.0
  9
$SKPOLY
 70
     0
  9
$TDCREATE
 40
2459845.560567129
  9
$TDUPDATE
 40
2459845.560568287
  9
$TDINDWG
 40
0.0000000116
  9
$TDUSRTIMER
 40
0.0000000116
  9
$USRTIMER
 70
     1
  9
$ANGBASE
 50
0.0
  9
$ANGDIR
 70
     0
  9
$PDMODE
 70
     0
  9
$PDSIZE
 40
-5.0
  9
$PLINEWID
 40
0.0
  9
$COORDS
 70
     1
  9
$SPLFRAME
 70
     0
  9
$SPLINETYPE
 70
     6
  9
$SPLINESEGS
 70
     8
  9
$ATTDIA
 70
     0
  9
$ATTREQ
 70
     1
  9
$HANDLING
 70
     1
  9
$HANDSEED
  5
4E5
  9
$SURFTAB1
 70
     6
  9
$SURFTAB2
 70
     6
  9
$SURFTYPE
 70
     6
  9
$SURFU
 70
     6
  9
$SURFV
 70
     6
  9
$UCSNAME
  2

  9
$UCSORG
 10
0.0
 20
0.0
 30
0.0
  9
$UCSXDIR
 10
1.0
 20
0.0
 30
0.0
  9
$UCSYDIR
 10
0.0
 20
1.0
 30
0.0
  9
$PUCSNAME
  2

  9
$PUCSORG
 10
0.0
 20
0.0
 30
0.0
  9
$PUCSXDIR
 10
1.0
 20
0.0
 30
0.0
  9
$PUCSYDIR
 10
0.0
 20
1.0
 30
0.0
  9
$USERI1
 70
     0
  9
$USERI2
 70
     0
  9
$USERI3
 70
     0
  9
$USERI4
 70
     0
  9
$USERI5
 70
     0
  9
$USERR1
 40
0.0
  9
$USERR2
 40
0.0
  9
$USERR3
 40
0.0
  9
$USERR4
 40
0.0
  9
$USERR5
 40
0.0
  9
$WORLDVIEW
 70
     1
  9
$SHADEDGE
 70
     3
  9
$SHADEDIF
 70
    70
  9
$TILEMODE
 70
     1
  9
$MAXACTVP
 70
    64
  9
$PLIMCHECK
 70
     0
  9
$PEXTMIN
 10
1.000000000000000E+20
 20
1.000000000000000E+20
 30
1.000000000000000E+20
  9
$PEXTMAX
 10
-1.000000000000000E+20
 20
-1.000000000000000E+20
 30
-1.000000000000000E+20
  9
$PLIMMIN
 10
0.0
 20
0.0
  9
$PLIMMAX
 10
12.0
 20
9.0
  9
$UNITMODE
 70
     0
  9
$VISRETAIN
 70
     1
  9
$PLINEGEN
 70
     0
  9
$PSLTSCALE
 70
     1
  0
ENDSEC
  0
SECTION
  2
TABLES
  0
TABLE
  2
VPORT
 70
     1
  0
VPORT
  2
*ACTIVE
 70
     0
 10
0.0
 20
0.0
 11
1.0
 21
1.0
 12
47.34618938257574
 22
251.6373102501979
 13
0.0
 23
0.0
 14
0.5
 24
0.5
 15
0.5
 25
0.5
 16
0.0
 26
0.0
 36
1.0
 17
0.0
 27
0.0
 37
0.0
 40
778.47802734375
 41
2.351898734177215
 42
50.0
 43
0.0
 44
0.0
 50
0.0
 51
0.0
 71
     0
 72
   100
 73
     1
 74
     3
 75
     0
 76
     0
 77
     0
 78
     0
  0
ENDTAB
  0
TABLE
  2
LTYPE
 70
    36
  0
LTYPE
  2
CONTINUOUS
 70
     0
  3
Solid line
 72
    65
 73
     0
 40
0.0
  0
LTYPE
  2
破線
 70
     0
  3
破線: __ __ __ __ __ __ __ __ __ __ __ __ __
 72
    65
 73
     2
 40
2.0
 49
1.0
 49
-1.0
  0
LTYPE
  2
一点鎖線
 70
     0
  3
一点鎖線: ____ . ____ . ____ . ____ . ____ . ____
 72
    65
 73
     4
 40
18.0
 49
12.0
 49
-2.0
 49
2.0
 49
-2.0
  0
LTYPE
  2
二点鎖線
 70
     0
  3
二点鎖線: ____ . . ____ . . ____ . . ____ . . ____ 
 72
    65
 73
     6
 40
22.0
 49
12.0
 49
-2.0
 49
2.0
 49
-2.0
 49
2.0
 49
-2.0
  0
LTYPE
  2
DASHED1
 70
     0
  3
--  --  --  --  --  --  --  --  
 72
    65
 73
     2
 40
2.5
 49
1.25
 49
-1.25
  0
LTYPE
  2
DASHED2
 70
     0
  3
----    ----    ----    ----    
 72
    65
 73
     2
 40
5.0
 49
2.5
 49
-2.5
  0
LTYPE
  2
DASHED3
 70
     0
  3
------  ------  ------  ------  
 72
    65
 73
     2
 40
5.0
 49
3.75
 49
-1.25
  0
LTYPE
  2
CENTER1
 70
     0
  3
----- - ----- - ----- - ----- - 
 72
    65
 73
     4
 40
10.0
 49
6.25
 49
-1.25
 49
1.25
 49
-1.25
  0
LTYPE
  2
CENTER2
 70
     0
  3
----------  --  ----------  --  
 72
    65
 73
     4
 40
20.0
 49
12.5
 49
-2.5
 49
2.5
 49
-2.5
  0
LTYPE
  2
PHANTOM1
 70
     0
  3
--- - - --- - - --- - - --- - - 
 72
    65
 73
     6
 40
9.5
 49
3.25
 49
-1.25
 49
1.25
 49
-1.25
 49
1.25
 49
-1.25
  0
LTYPE
  2
PHANTOM2
 70
     0
  3
--------  -  -  --------  -  -  
 72
    65
 73
     6
 40
20.0
 49
10.0
 49
-2.5
 49
1.25
 49
-2.5
 49
1.25
 49
-2.5
  0
LTYPE
  2
DOT
 70
     0
  3
-   -   -   -   -   -   -   -   
 72
    65
 73
     2
 40
2.5
 49
0.625
 49
-1.875
  0
LTYPE
  2
RAND1
 70
     0
  3
ランダム線1
 72
    65
 73
     4
 40
10.0
 49
1.0
 49
-2.0
 49
3.0
 49
-4.0
  0
LTYPE
  2
RAND2
 70
     0
  3
ランダム線2
 72
    65
 73
     4
 40
14.0
 49
2.0
 49
-3.0
 49
4.0
 49
-5.0
  0
LTYPE
  2
RAND3
 70
     0
  3
ランダム線3
 72
    65
 73
     4
 40
18.0
 49
3.0
 49
-4.0
 49
5.0
 49
-6.0
  0
LTYPE
  2
RAND4
 70
     0
  3
ランダム線4
 72
    65
 73
     4
 40
22.0
 49
4.0
 49
-5.0
 49
6.0
 49
-7.0
  0
LTYPE
  2
RAND5
 70
     0
  3
ランダム線5
 72
    65
 73
     4
 40
26.0
 49
5.0
 49
-6.0
 49
7.0
 49
-8.0
  0
LTYPE
  2
LONG1
 70
     0
  3
----------  --  ----------  --  
 72
    65
 73
     4
 40
40.0
 49
32.5
 49
-2.5
 49
2.5
 49
-2.5
  0
LTYPE
  2
LONG2
 70
     0
  3
--------  -  -  --------  -  -  
 72
    65
 73
     6
 40
40.0
 49
30.0
 49
-2.5
 49
1.25
 49
-2.5
 49
1.25
 49
-2.5
  0
LTYPE
  2
LONG3
 70
     0
  3
+++++++++++++++..+++++++++++++++
 72
    65
 73
     2
 40
40.0
 49
37.5
 49
-2.5
  0
LTYPE
  2
LONG4
 70
     0
  3
+++++++++++++++..+++++++++++++++
 72
    65
 73
     2
 40
80.0
 49
75.0
 49
-5.0
  0
LTYPE
  2
LONG5
 70
     0
  3
----------  --  ----------  --  
 72
    65
 73
     4
 40
60.0
 49
37.5
 49
-7.5
 49
7.5
 49
-7.5
  0
LTYPE
  2
DASHED
 70
     0
  3
-------   -------------   ------
 72
    65
 73
     2
 40
7.5
 49
6.0
 49
-1.5
  0
LTYPE
  2
DASHED_SPACED
 70
     0
  3
----        --------        ----
 72
    65
 73
     2
 40
12.0
 49
6.0
 49
-6.0
  0
LTYPE
  2
LONG_DASHED_DOTTED
 70
     0
  3
------------- --- --------------
 72
    65
 73
     4
 40
15.25
 49
12.0
 49
-1.5
 49
0.25
 49
-1.5
  0
LTYPE
  2
LONG_DASHED_DOUBLE-DOTTED
 70
     0
  3
----------- --- --- ------------
 72
    65
 73
     6
 40
17.0
 49
12.0
 49
-1.5
 49
0.25
 49
-1.5
 49
0.25
 49
-1.5
  0
LTYPE
  2
LONG_DASHED_TRIPLICATE-DOT
 70
     0
  3
--------- --- --- --- ----------
 72
    65
 73
     8
 40
18.75
 49
12.0
 49
-1.5
 49
0.25
 49
-1.5
 49
0.25
 49
-1.5
 49
0.25
 49
-1.5
  0
LTYPE
  2
DOTTED
 70
     0
  3
   -       -       -       -    
 72
    65
 73
     2
 40
1.75
 49
0.25
 49
-1.5
  0
LTYPE
  2
CHAIN
 70
     0
  3
-------------- -- --------------
 72
    65
 73
     4
 40
18.5
 49
12.0
 49
-1.5
 49
3.5
 49
-1.5
  0
LTYPE
  2
CHAIN_DOUBLE_DASH
 70
     0
  3
------------ -- -- -------------
 72
    65
 73
     6
 40
23.5
 49
12.0
 49
-1.5
 49
3.5
 49
-1.5
 49
3.5
 49
-1.5
  0
LTYPE
  2
DASHED_DOTTED
 70
     0
  3
-----------     -     ----------
 72
    65
 73
     4
 40
9.25
 49
6.0
 49
-1.5
 49
0.25
 49
-1.5
  0
LTYPE
  2
DOUBLE-DASHED_DOTTED
 70
     0
  3
------   -----------   -   -----
 72
    65
 73
     6
 40
16.75
 49
6.0
 49
-1.5
 49
6.0
 49
-1.5
 49
0.25
 49
-1.5
  0
LTYPE
  2
DASHED_DOUBLE-DOTTED
 70
     0
  3
---------    -    -    ---------
 72
    65
 73
     6
 40
11.0
 49
6.0
 49
-1.5
 49
0.25
 49
-1.5
 49
0.25
 49
-1.5
  0
LTYPE
  2
DOUBLE-DASHED_DOUBLE-DOTTE
 70
     0
  3
-----   ---------   -   -   ----
 72
    65
 73
     8
 40
18.5
 49
6.0
 49
-1.5
 49
6.0
 49
-1.5
 49
0.25
 49
-1.5
 49
0.25
 49
-1.5
  0
LTYPE
  2
DASHED_TRIPLICATE-DOTTED
 70
     0
  3
-------    -    -    -    ------
 72
    65
 73
     8
 40
12.75
 49
6.0
 49
-1.5
 49
0.25
 49
-1.5
 49
0.25
 49
-1.5
 49
0.25
 49
-1.5
  0
LTYPE
  2
DOUBLE-DASHED_TRIPLICATE-D
 70
     0
  3
-----  ---------  -  -  -  -----
 72
    65
 73
    10
 40
20.25
 49
6.0
 49
-1.5
 49
6.0
 49
-1.5
 49
0.25
 49
-1.5
 49
0.25
 49
-1.5
 49
0.25
 49
-1.5
  0
ENDTAB
  0
TABLE
  2
LAYER
 70
    13
  0
LAYER
  2
0
 70
     0
 62
     7
  6
CONTINUOUS
  0
LAYER
  2
CENTERLINE_LAYER
 70
     0
 62
     1
  6
一点鎖線
  0
LAYER
  2
DASH_LAYER
 70
     0
 62
     6
  6
破線
  0
LAYER
  2
SOLID_LAYER
 70
     0
 62
     7
  6
CONTINUOUS
  0
LAYER
  2
THICK_SOLID_LAYER
 70
     0
 62
     7
  6
CONTINUOUS
  0
LAYER
  2
DIMENSION_LAYER
 70
     0
 62
     3
  6
CONTINUOUS
  0
LAYER
  2
HATCH_LAYER
 70
     0
 62
     4
  6
CONTINUOUS
  0
LAYER
  2
HIDDEN_LAYER
 70
     0
 62
    -7
  6
CONTINUOUS
  0
LAYER
  2
_0-0_
 70
     0
 62
     7
  6
CONTINUOUS
  0
LAYER
  2
_0-1_
 70
     0
 62
     7
  6
CONTINUOUS
  0
LAYER
  2
_0-8_
 70
     0
 62
     7
  6
CONTINUOUS
  0
LAYER
  2
_0-9_
 70
     0
 62
     7
  6
CONTINUOUS
  0
LAYER
  2
ADD_LINE
 70
     0
 62
     7
  6
CONTINUOUS
  0
ENDTAB
  0
TABLE
  2
STYLE
 70
     3
  0
STYLE
  2
STANDARD
 70
     0
 40
0.0
 41
1.0
 50
0.0
 71
     0
 42
3.5
  3
txt
  4

  0
STYLE
  2
標準
 70
     0
 40
0.0
 41
0.667
 50
0.0
 71
     0
 42
0.2
  3

  4

  0
STYLE
  2
TATEGAKI
 70
     0
 40
0.0
 41
1.0
 50
0.0
 71
     0
 42
0.2
  3

  4

  0
ENDTAB
  0
TABLE
  2
VIEW
 70
     0
  0
ENDTAB
  0
TABLE
  2
UCS
 70
     0
  0
ENDTAB
  0
TABLE
  2
APPID
 70
   116
  0
APPID
  2
ACAD
 70
     0
  0
APPID
  2
CAXA_DRAFT_PAPERORDER
 70
     0
  0
APPID
  2
CAXA_DRAFT_ROUGH
 70
     0
  0
APPID
  2
CAXA_DRAFT_ROUGH_STD
 70
     0
  0
APPID
  2
CAXA_DRAFT_FORMATED_TXT
 70
     0
  0
APPID
  2
CAXA_DRAFT_DATUM
 70
     0
  0
APPID
  2
CAXA_DRAFT_WELD
 70
     0
  0
APPID
  2
CAXA_DRAFT_GEOTOL
 70
     0
  0
APPID
  2
CAXA_DRAFT_CUTS
 70
     0
  0
APPID
  2
CAXA_DRAFT_DIMHALF
 70
     0
  0
APPID
  2
CAXA_DRAFT_DIMRAY
 70
     0
  0
APPID
  2
CAXA_DRAFT_DIMARCLEN
 70
     0
  0
APPID
  2
CAXA_DRAFT_DIMTAPER
 70
     0
  0
APPID
  2
CAXA_DRAFT_DIMPITCH
 70
     0
  0
APPID
  2
CAXA_DRAFT_DIMCOORD
 70
     0
  0
APPID
  2
CAXA_DRAFT_DIMORIALIGN
 70
     0
  0
APPID
  2
CAXA_DRAFT_DIMHOLEPOS
 70
     0
  0
APPID
  2
CAXA_DRAFT_DIMCRDLEADER
 70
     0
  0
APPID
  2
CAXA_DRAFT_DIMCHAMFER
 70
     0
  0
APPID
  2
CAXA_DRAFT_DIMCENTERHOLE
 70
     0
  0
APPID
  2
CAXA_DRAFT_DIMLEADER
 70
     0
  0
APPID
  2
CAXA_DRAFT_DIMCRDLIST
 70
     0
  0
APPID
  2
CAXA_DRAFT_PAPERSCALE
 70
     0
  0
APPID
  2
CAXA_DRAFT_FILEVERSION
 70
     0
  0
APPID
  2
CAXA_DRAFT_PRODUCTVERSION
 70
     0
  0
APPID
  2
CAXA_DRAFT_DATATABLE
 70
     0
  0
APPID
  2
CAXA_DRAFT_PAPERINFO
 70
     0
  0
APPID
  2
CAXA_DRAFT_PAPERFRAME
 70
     0
  0
APPID
  2
CAXA_DRAFT_PAPERTITLE
 70
     0
  0
APPID
  2
CAXA_DRAFT_PAPERPAREATABLE
 70
     0
  0
APPID
  2
CAXA_DRAFT_PARTNO
 70
     0
  0
APPID
  2
CAXA_DRAFT_BOMTABLE
 70
     0
  0
APPID
  2
CAXA_DRAFT_BLKREF_EXTATT
 70
     0
  0
APPID
  2
CAXA_DRAFT_DBVIEWDATA
 70
     0
  0
APPID
  2
CAXA_DRAFT_DIMSYMTOL
 70
     0
  0
APPID
  2
CAXA_DRAFT_DIMASSEMTOL
 70
     0
  0
APPID
  2
CAXA_DRAFT_DIMANGLETOL
 70
     0
  0
APPID
  2
CAXA_DRAFT_DRAFTDATA
 70
     0
  0
APPID
  2
CAXA_DRAFT_DIMORIGIN
 70
     0
  0
APPID
  2
CAXA_DRAFT_ENLARGE_EDGE
 70
     0
  0
APPID
  2
CAXA_DRAFT_DIMSTY_T_VPOS
 70
     0
  0
APPID
  2
CAXA_DRAFT_DIMSTY_AT_VPOS
 70
     0
  0
APPID
  2
CAXA_DRAFT_BLKHIDE
 70
     0
  0
APPID
  2
CAXA_DRAFT_DIMARROWREVERSE
 70
     0
  0
APPID
  2
CAXA_DRAFT_TXTSTYLE
 70
     0
  0
APPID
  2
CAXA_DRAFT_ATTRIBUTE_2PT
 70
     0
  0
APPID
  2
CAXA_DRAFT_ATTDEF_2PT
 70
     0
  0
APPID
  2
CAXA_DRAFT_DIMBIGARC
 70
     0
  0
APPID
  2
CAXA_DRAFT_ISNEB09R3
 70
     0
  0
APPID
  2
CAXA_DRAFT_WIPEOUT_B_HIDE
 70
     0
  0
APPID
  2
CAXA_DRAFT_BLKREF_SYMBOL
 70
     0
  0
APPID
  2
CAXA_DRAFT_ENL_COMMENTS
 70
     0
  0
APPID
  2
CAXA_DRAFT_ENL_TSCALE
 70
     0
  0
APPID
  2
CAXA_DRAFT_TXTSCALE
 70
     0
  0
APPID
  2
CAXA_DRAFT_KEEPLTSEG_ZOOM
 70
     0
  0
APPID
  2
CAXA_DRAFT_SPECLIB
 70
     0
  0
APPID
  2
CAXA_DRAFT_DATUM_2011R2
 70
     0
  0
APPID
  2
CAXA_DRAFT_ROUGH_2011R2
 70
     0
  0
APPID
  2
CAXA_DRAFT_GEOTOL_2011R2
 70
     0
  0
APPID
  2
CAXA_DRAFT_DMOVMAP_2011R3
 70
     0
  0
APPID
  2
CAXA_DRAFT_DDTSTY_2011R3
 70
     0
  0
APPID
  2
CAXA_DRAFT_SDTSTY_2011R3
 70
     0
  0
APPID
  2
CDRAFT_TXTROT_2011R3
 70
     0
  0
APPID
  2
CDRAFT_TOLOUT_2011R3
 70
     0
  0
APPID
  2
CAXA_DRAFT_DIMARCLENSTYLE
 70
     0
  0
APPID
  2
CAXA_DRAFT_DMOVMAP_2013
 70
     0
  0
APPID
  2
CAXA_DRAFT_DS_DLLNTYPE
 70
     0
  0
APPID
  2
CAXA_DRAFT_DS_LBLLNTYPE
 70
     0
  0
APPID
  2
CAXA_DRAFT_DS_RBLLNTYPE
 70
     0
  0
APPID
  2
CAXA_DRAFT_DS_ISFILLDFM
 70
     0
  0
APPID
  2
CAXA_DRAFT_DS_DISPZTOOL
 70
     0
  0
APPID
  2
CAXA_DRAFT_DS_SYMCOLOR
 70
     0
  0
APPID
  2
CAXA_DRAFT_HATCH_SCALE_ANG
 70
     0
  0
APPID
  2
CAXA_DRAFT_GEOTOL_ISFROMDW
 70
     0
  0
APPID
  2
CXDRAGDIADIMLNSTYLE
 70
     0
  0
APPID
  2
CXDRAGRADDIMLNSTYLE
 70
     0
  0
APPID
  2
CX_DBANNOTATE_SIMDIMORITXT
 70
     0
  0
APPID
  2
CX_DBANNOTATE_TXTLOCPARA
 70
     0
  0
APPID
  2
CX_DBANNOTATE_DRAGTXTLOC
 70
     0
  0
APPID
  2
USERSETTXTLOC
 70
     0
  0
APPID
  2
USERSETTXTLOCTYPE
 70
     0
  0
APPID
  2
USERSETTXTLOCPT
 70
     0
  0
APPID
  2
CAXA_DRAFT_IMAGE_BINARY
 70
     0
  0
APPID
  2
DIMTXTFRMSTYLE_2015R1
 70
     0
  0
APPID
  2
CAXA_DRAFT_GEOTOL_ISSHX
 70
     0
  0
APPID
  2
CAXA_SUPGRAPHICDIM
 70
     0
  0
APPID
  2
CAXA_GRAPHICARCLEN_HASLN
 70
     0
  0
APPID
  2
CAXA_GRAPHICDIM_OUT
 70
     0
  0
APPID
  2
CAXA_DATUM_LEADLNBKMODE
 70
     0
  0
APPID
  2
CX_DBDIM_CRDDIMLINEANDARRO
 70
     0
  0
APPID
  2
CX_DBDIM_TAPERANGLESTD
 70
     0
  0
APPID
  2
CX_DBATTRIBDEF_OPTIONALVAL
 70
     0
  0
APPID
  2
CAXA_DRAFT_LEADER_MLEADERL
 70
     0
  0
APPID
  2
CAXA_DRAFT_WELD_MLEADERLIN
 70
     0
  0
APPID
  2
CAXA_DRAFT_GEOTOL_MLEADERL
 70
     0
  0
APPID
  2
CAXA_DRAFT_ROUGH_MLEADERLI
 70
     0
  0
APPID
  2
CAXA_DRAFT_DATUM_MLEADERLI
 70
     0
  0
APPID
  2
CAXA_DRAFT_ROUGH_STDSPTDAT
 70
     0
  0
APPID
  2
CAXA_DRAFT_CUTS_LABLEDATA
 70
     0
  0
APPID
  2
CAXA_DRAFT_LEADER_DISPREFL
 70
     0
  0
APPID
  2
CAXA_DRAFT_TAPER_TEXTTYPE
 70
     0
  0
APPID
  2
CAXA_DRAFT_TAPER_RATEFORMA
 70
     0
  0
APPID
  2
CAXA_DRAFT_TAPER_RATESEPAR
 70
     0
  0
APPID
  2
CX_DIMSTYLE_TXTFRAME
 70
     0
  0
APPID
  2
CX_DBDIM_TXTFRAME
 70
     0
  0
APPID
  2
CAXA_DRAFT_TABLEENT
 70
     0
  0
APPID
  2
CDRAFT_DIM_STD_REV_NAME
 70
     0
  0
APPID
  2
CAXA_DRAFT_BOM_STDSPTDATA
 70
     0
  0
APPID
  2
CAXA_DRAFT_PARTNO_STDSPTDA
 70
     0
  0
APPID
  2
CAXA_DRAFT_DATUM_LOCPTEDIT
 70
     0
  0
APPID
  2
CAXA_DRAFT_INFO_WMFLAG
 70
     0
  0
APPID
  2
CX_DBDIM_CRDDIMTYPEANDDATA
 70
     0
  0
APPID
  2
CX_DBDIM_DIMORIGINBITEXT
 70
     0
  0
APPID
  2
CX_DBDIM_DIMCRDLEADERPTS
 70
     0
  0
APPID
  2
CAXA_SOLID_FLAG
 70
     0
  0
APPID
  2
ACAECLAYERSTANDARD
 70
     0
  0
ENDTAB
  0
TABLE
  2
DIMSTYLE
 70
     5
  0
DIMSTYLE
  2
STANDARD
 70
     0
  3

  4

  5

  6

  7

 40
1.0
 41
0.18
 42
0.0625
 43
0.38
 44
0.18
 45
0.0
 46
0.36
 47
0.0
 48
0.0
140
0.18
141
0.09
142
0.0
143
25.4
144
1.0
145
0.0
146
1.0
147
0.09
 71
     0
 72
     0
 73
     1
 74
     1
 75
     0
 76
     0
 77
     0
 78
     0
170
     0
171
     2
172
     0
173
     0
174
     0
175
     0
176
     0
177
     0
178
     0
  0
DIMSTYLE
  2
標準
 70
     0
  3

  4

  5
CAXARROW
  6

  7

 40
1.0
 41
4.0
 42
0.0
 43
10.0
 44
2.0
 45
0.0
 46
6.0
 47
0.0
 48
0.0
140
3.5
141
0.0
142
0.0
143
1.0
144
1.0
145
0.0
146
0.7071067811865475
147
0.625
 71
     0
 72
     0
 73
     0
 74
     0
 75
     0
 76
     0
 77
     1
 78
     8
170
     0
171
     2
172
     1
173
     0
174
     0
175
     0
176
     0
177
     0
178
     0
  0
DIMSTYLE
  2
ANSI_DIM
 70
     0
  3

  4

  5
CAXARROW
  6

  7

 40
1.0
 41
4.0
 42
0.0
 43
10.0
 44
2.0
 45
0.0
 46
6.0
 47
0.0
 48
0.0
140
3.5
141
0.0
142
0.0
143
1.0
144
1.0
145
0.0
146
0.7071067811865475
147
0.625
 71
     0
 72
     0
 73
     0
 74
     0
 75
     0
 76
     0
 77
     1
 78
     8
170
     0
171
     2
172
     1
173
     0
174
     0
175
     0
176
     0
177
     0
178
     0
  0
DIMSTYLE
  2
ANSI_DIMLEADER_1994_
 70
     0
  3

  4

  5
CAXARROW
  6

  7

 40
1.0
 41
4.0
 42
0.0
 43
10.0
 44
2.0
 45
0.0
 46
6.0
 47
0.0
 48
0.0
140
3.5
141
0.0
142
0.0
143
1.0
144
1.0
145
0.0
146
0.7071067811865475
147
0.625
 71
     0
 72
     0
 73
     0
 74
     0
 75
     0
 76
     0
 77
     1
 78
     8
170
     0
171
     2
172
     1
173
     0
174
     0
175
     0
176
     0
177
     0
178
     0
  0
DIMSTYLE
  2
ANSI_TAPER_1994_
 70
     0
  3

  4

  5
CAXARROW
  6

  7

 40
1.0
 41
4.0
 42
0.0
 43
10.0
 44
2.0
 45
0.0
 46
6.0
 47
0.0
 48
0.0
140
3.5
141
0.0
142
0.0
143
1.0
144
1.0
145
0.0
146
0.7071067811865475
147
0.625
 71
     0
 72
     0
 73
     0
 74
     0
 75
     0
 76
     0
 77
     1
 78
     8
170
     0
171
     2
172
     1
173
     0
174
     0
175
     0
176
     0
177
     0
178
     0
  0
ENDTAB
  0
ENDSEC
  0
SECTION
  2
BLOCKS
  0
BLOCK
  8
0
  2
$MODEL_SPACE
 70
     0
 10
0.0
 20
0.0
 30
0.0
  3
$MODEL_SPACE
  1

  0
ENDBLK
  5
21
  8
0
  0
BLOCK
 67
     1
  8
0
  2
$PAPER_SPACE
 70
     0
 10
0.0
 20
0.0
 30
0.0
  3
$PAPER_SPACE
  1

  0
ENDBLK
  5
1D
 67
     1
  8
0
  0
BLOCK
  8
0
  2
_CAXARROW
 70
     0
 10
0.0
 20
0.0
 30
0.0
  3
_CAXARROW
  1

  0
INSERT
  5
106
  8
0
 62
     0
  2
*U2
 10
0.0
 20
0.0
 30
0.0
1001
ACAD
1002
{
1000
R14_HATCH_DATA
1000
106
1011
1.0
1021
0.0
1031
0.0
1021
0.0
1031
0.0
1011
0.0
1021
1.0
1031
0.0
1021
1.0
1031
0.0
1011
0.0
1021
0.0
1031
1.0
1021
0.0
1031
1.0
1040
0.0
1010
0.0
1020
0.0
1030
1.0
1000
SOLID
1070
     1
1070
     1
1071
        1
1071
        0
1071
        3
1070
     1
1040
0.0
1040
0.0
1040
-1.0
1040
0.125
1070
     1
1040
-1.0
1040
0.125
1040
-1.0
1040
-0.125
1070
     1
1040
-1.0
1040
-0.125
1040
0.0
1040
0.0
1071
        0
1070
     0
1070
     1
1071
        1
1040
0.0
1040
0.0
1040
0.0
1002
}
  0
ENDBLK
  5
108
  8
0
  0
BLOCK
  8
0
  2
*U2
 70
     1
 10
0.0
 20
0.0
 30
0.0
  3
*U2
  1

  0
SOLID
  5
4E2
  8
0
  6
CONTINUOUS
 62
     0
 10
-1.0
 20
-0.125
 30
0.0
 11
-1.0
 21
0.125
 31
0.0
 12
0.0
 22
0.0
 32
0.0
 13
0.0
 23
0.0
 33
0.0
  0
ENDBLK
  5
4E4
  8
0
  0
ENDSEC
  0
SECTION
  2
ENTITIES
  0
LINE
  5
13B
  8
_0-0_
  6
CONTINUOUS
 62
     7
 10
11.39935708077769
 20
492.878767689113
 30
0.0
 11
141.3993570807777
 21
492.878767689113
 31
0.0
  0
LINE
  5
13C
  8
_0-0_
  6
CONTINUOUS
 62
     7
 10
141.3993570807777
 20
492.878767689113
 30
0.0
 11
141.3993570807777
 21
396.878775689113
 31
0.0
  0
LINE
  5
13D
  8
_0-1_
  6
CENTER1
 62
   152
 10
132.8993570807777
 20
401.878775689113
 30
0.0
 11
67.89935708077769
 21
401.878775689113
 31
0.0
  0
LINE
  5
13E
  8
_0-1_
  6
CENTER1
 62
   152
 10
74.39935708077724
 20
394.373215689113
 30
0.0
 11
74.39935708077724
 21
461.3843216891133
 31
0.0
  0
LINE
  5
13F
  8
_0-1_
  6
CENTER1
 62
   152
 10
67.89935708077769
 20
453.878767689113
 30
0.0
 11
132.8993570807777
 21
453.878767689113
 31
0.0
  0
LINE
  5
140
  8
_0-1_
  6
CENTER1
 62
   152
 10
126.3993570807777
 20
461.3843216891133
 30
0.0
 11
126.3993570807777
 21
394.373215689113
 31
0.0
  0
LINE
  5
141
  8
_0-0_
  6
CONTINUOUS
 62
     7
 10
131.3993570807777
 20
386.878775689113
 30
0.0
 11
45.40142708077769
 21
386.878775689113
 31
0.0
  0
LINE
  5
142
  8
_0-1_
  6
CENTER1
 62
   152
 10
45.89935708077724
 20
393.128775689113
 30
0.0
 11
45.89935708077724
 21
398.628775689113
 31
0.0
  0
LINE
  5
143
  8
_0-1_
  6
CENTER1
 62
   152
 10
43.29935708077733
 20
395.878775689113
 30
0.0
 11
48.49935708077714
 21
395.878775689113
 31
0.0
  0
LINE
  5
144
  8
_0-0_
  6
CONTINUOUS
 62
     7
 10
36.00450708077756
 20
393.458575689113
 30
0.0
 11
12.00242708077735
 21
459.4037266891133
 31
0.0
  0
LINE
  5
145
  8
_0-0_
  6
CONTINUOUS
 62
     7
 10
11.39935708077769
 20
462.8239286891131
 30
0.0
 11
11.39935708077769
 21
492.878767689113
 31
0.0
  0
LINE
  5
146
  8
_0-1_
  6
DASHED2
 62
   152
 10
11.39935708077769
 20
489.678767689113
 30
0.0
 11
141.3993570807777
 21
489.678767689113
 31
0.0
  0
LINE
  5
147
  8
_0-1_
  6
CENTER1
 62
   152
 10
135.1493570807777
 20
482.378767689113
 30
0.0
 11
129.6493570807773
 21
482.378767689113
 31
0.0
  0
LINE
  5
148
  8
_0-1_
  6
CENTER1
 62
   152
 10
132.3993570807777
 20
479.7787676891131
 30
0.0
 11
132.3993570807777
 21
484.9787676891129
 31
0.0
  0
LINE
  5
149
  8
_0-0_
  6
CONTINUOUS
 62
     7
 10
170.3658958111803
 20
482.878767689113
 30
0.0
 11
186.1658958111803
 21
482.878767689113
 31
0.0
  0
LINE
  5
14A
  8
_0-0_
  6
CONTINUOUS
 62
     7
 10
186.1658958111803
 20
481.878767689113
 30
0.0
 11
189.3658958111803
 21
481.878767689113
 31
0.0
  0
LINE
  5
14B
  8
_0-0_
  6
CONTINUOUS
 62
     7
 10
186.1658958111803
 20
485.878767689113
 30
0.0
 11
183.1658958111803
 21
482.878767689113
 31
0.0
  0
LINE
  5
14C
  8
_0-0_
  6
CONTINUOUS
 62
     7
 10
186.1658958111803
 20
489.178767689113
 30
0.0
 11
186.1658958111803
 21
386.878767689113
 31
0.0
  0
LINE
  5
14D
  8
_0-0_
  6
CONTINUOUS
 62
     7
 10
186.1658958111803
 20
386.878767689113
 30
0.0
 11
189.3658958111803
 21
386.878767689113
 31
0.0
  0
LINE
  5
14E
  8
_0-0_
  6
CONTINUOUS
 62
     7
 10
189.3658958111803
 20
386.878767689113
 30
0.0
 11
191.259102713784
 21
387.5235681419151
 31
0.0
  0
LINE
  5
14F
  8
_0-0_
  6
CONTINUOUS
 62
     7
 10
190.683060857054
 20
388.3837847129132
 30
0.0
 11
189.3658958111803
 21
386.878767689113
 31
0.0
  0
LINE
  5
150
  8
_0-0_
  6
CONTINUOUS
 62
     7
 10
189.3658958111803
 20
386.878767689113
 30
0.0
 11
189.3658958111803
 21
489.128767689113
 31
0.0
  0
LINE
  5
151
  8
_0-0_
  6
CONTINUOUS
 62
     7
 10
185.6658958111803
 20
489.678767689113
 30
0.0
 11
174.3658958111803
 21
489.678767689113
 31
0.0
  0
LINE
  5
152
  8
_0-0_
  6
CONTINUOUS
 62
     7
 10
174.3658958111803
 20
489.678767689113
 30
0.0
 11
174.3658958111803
 21
492.878767689113
 31
0.0
  0
LINE
  5
153
  8
_0-0_
  6
CONTINUOUS
 62
     7
 10
174.3658958111803
 20
492.878767689113
 30
0.0
 11
185.6158958111803
 21
492.878767689113
 31
0.0
  0
LINE
  5
154
  8
_0-1_
  6
CENTER1
 62
   152
 10
189.3658958111803
 20
473.878767689113
 30
0.0
 11
169.3658958111803
 21
473.878767689113
 31
0.0
  0
LINE
  5
155
  8
_0-0_
  6
CONTINUOUS
 62
     7
 10
169.3658958111803
 20
481.878767689113
 30
0.0
 11
170.3658958111803
 21
482.878767689113
 31
0.0
  0
LINE
  5
156
  8
_0-0_
  6
CONTINUOUS
 62
     7
 10
169.3658958111803
 20
481.878767689113
 30
0.0
 11
169.3658958111803
 21
465.878767689113
 31
0.0
  0
LINE
  5
157
  8
_0-0_
  6
CONTINUOUS
 62
     7
 10
169.3658958111803
 20
465.878767689113
 30
0.0
 11
170.3658958111803
 21
464.878767689113
 31
0.0
  0
LINE
  5
158
  8
_0-0_
  6
CONTINUOUS
 62
     7
 10
170.3658958111803
 20
464.878767689113
 30
0.0
 11
186.1658958111803
 21
464.878767689113
 31
0.0
  0
LINE
  5
159
  8
_0-0_
  6
CONTINUOUS
 62
     7
 10
186.1658958111803
 20
465.878767689113
 30
0.0
 11
189.3658958111803
 21
465.878767689113
 31
0.0
  0
LINE
  5
15A
  8
_0-0_
  6
CONTINUOUS
 62
     7
 10
186.1658958111803
 20
461.878767689113
 30
0.0
 11
183.1658958111803
 21
464.878767689113
 31
0.0
  0
LINE
  5
15B
  8
_0-0_
  6
CONTINUOUS
 62
     7
 10
239.3658958111804
 20
465.878767689113
 30
0.0
 11
242.5658958111804
 21
465.878767689113
 31
0.0
  0
LINE
  5
15C
  8
_0-0_
  6
CONTINUOUS
 62
     7
 10
242.5658958111804
 20
464.878767689113
 30
0.0
 11
258.3658958111804
 21
464.878767689113
 31
0.0
  0
LINE
  5
15D
  8
_0-0_
  6
CONTINUOUS
 62
     7
 10
258.3658958111804
 20
464.878767689113
 30
0.0
 11
259.3658958111804
 21
465.878767689113
 31
0.0
  0
LINE
  5
15E
  8
_0-0_
  6
CONTINUOUS
 62
     7
 10
259.3658958111804
 20
465.878767689113
 30
0.0
 11
259.3658958111804
 21
481.878767689113
 31
0.0
  0
LINE
  5
15F
  8
_0-0_
  6
CONTINUOUS
 62
     7
 10
259.3658958111804
 20
481.878767689113
 30
0.0
 11
258.3658958111804
 21
482.878767689113
 31
0.0
  0
LINE
  5
160
  8
_0-0_
  6
CONTINUOUS
 62
     7
 10
258.3658958111804
 20
482.878767689113
 30
0.0
 11
242.5658958111804
 21
482.878767689113
 31
0.0
  0
LINE
  5
161
  8
_0-0_
  6
CONTINUOUS
 62
     7
 10
242.5658958111804
 20
481.878767689113
 30
0.0
 11
239.3658958111804
 21
481.878767689113
 31
0.0
  0
LINE
  5
162
  8
_0-0_
  6
CONTINUOUS
 62
     7
 10
242.5658958111804
 20
485.878767689113
 30
0.0
 11
245.5658958111804
 21
482.878767689113
 31
0.0
  0
LINE
  5
163
  8
_0-0_
  6
CONTINUOUS
 62
     7
 10
242.5658958111804
 20
489.178767689113
 30
0.0
 11
242.5658958111804
 21
386.878767689113
 31
0.0
  0
LINE
  5
164
  8
_0-0_
  6
CONTINUOUS
 62
     7
 10
242.5658958111804
 20
386.878767689113
 30
0.0
 11
239.3658958111804
 21
386.878767689113
 31
0.0
  0
LINE
  5
165
  8
_0-0_
  6
CONTINUOUS
 62
     7
 10
239.3658958111804
 20
386.878767689113
 30
0.0
 11
237.4726889085767
 21
387.5235681419151
 31
0.0
  0
LINE
  5
166
  8
_0-0_
  6
CONTINUOUS
 62
     7
 10
238.0487307653067
 20
388.3837847129132
 30
0.0
 11
239.3658958111804
 21
386.878767689113
 31
0.0
  0
LINE
  5
167
  8
_0-0_
  6
CONTINUOUS
 62
     7
 10
239.3658958111804
 20
386.878767689113
 30
0.0
 11
239.3658958111804
 21
489.128767689113
 31
0.0
  0
LINE
  5
168
  8
_0-0_
  6
CONTINUOUS
 62
     7
 10
243.0658958111804
 20
489.678767689113
 30
0.0
 11
254.3658958111804
 21
489.678767689113
 31
0.0
  0
LINE
  5
169
  8
_0-0_
  6
CONTINUOUS
 62
     7
 10
254.3658958111804
 20
489.678767689113
 30
0.0
 11
254.3658958111804
 21
492.878767689113
 31
0.0
  0
LINE
  5
16A
  8
_0-0_
  6
CONTINUOUS
 62
     7
 10
254.3658958111804
 20
492.878767689113
 30
0.0
 11
243.1158958111804
 21
492.878767689113
 31
0.0
  0
LINE
  5
16B
  8
_0-1_
  6
CENTER1
 62
   152
 10
239.3658958111804
 20
473.878767689113
 30
0.0
 11
259.3658958111804
 21
473.878767689113
 31
0.0
  0
LINE
  5
16C
  8
_0-0_
  6
CONTINUOUS
 62
     7
 10
245.5658958111804
 20
464.878767689113
 30
0.0
 11
242.5658958111804
 21
461.878767689113
 31
0.0
  0
LINE
  5
16D
  8
_0-1_
  6
CENTER1
 62
   152
 10
302.3324345415829
 20
461.3843216891133
 30
0.0
 11
302.3324345415829
 21
394.373215689113
 31
0.0
  0
LINE
  5
16E
  8
_0-0_
  6
CONTINUOUS
 62
     7
 10
297.3324345415829
 20
386.878775689113
 30
0.0
 11
383.330364541583
 21
386.878775689113
 31
0.0
  0
LINE
  5
16F
  8
_0-1_
  6
CENTER1
 62
   152
 10
382.8324345415834
 20
393.128775689113
 30
0.0
 11
382.8324345415834
 21
398.628775689113
 31
0.0
  0
LINE
  5
170
  8
_0-1_
  6
CENTER1
 62
   152
 10
385.4324345415833
 20
395.878775689113
 30
0.0
 11
380.2324345415835
 21
395.878775689113
 31
0.0
  0
LINE
  5
171
  8
_0-0_
  6
CONTINUOUS
 62
     7
 10
392.7272845415831
 20
393.458575689113
 30
0.0
 11
416.7293645415833
 21
459.4037266891133
 31
0.0
  0
LINE
  5
172
  8
_0-0_
  6
CONTINUOUS
 62
     7
 10
417.332434541583
 20
462.8239286891131
 30
0.0
 11
417.332434541583
 21
492.878767689113
 31
0.0
  0
LINE
  5
173
  8
_0-0_
  6
CONTINUOUS
 62
     7
 10
417.332434541583
 20
492.878767689113
 30
0.0
 11
287.3324345415829
 21
492.878767689113
 31
0.0
  0
LINE
  5
174
  8
_0-0_
  6
CONTINUOUS
 62
     7
 10
287.3324345415829
 20
492.878767689113
 30
0.0
 11
287.3324345415829
 21
396.878775689113
 31
0.0
  0
LINE
  5
175
  8
_0-1_
  6
CENTER1
 62
   152
 10
295.8324345415829
 20
401.878775689113
 30
0.0
 11
360.832434541583
 21
401.878775689113
 31
0.0
  0
LINE
  5
176
  8
_0-1_
  6
CENTER1
 62
   152
 10
354.3324345415834
 20
394.373215689113
 30
0.0
 11
354.3324345415834
 21
461.3843216891133
 31
0.0
  0
LINE
  5
177
  8
_0-1_
  6
CENTER1
 62
   152
 10
360.832434541583
 20
453.878767689113
 30
0.0
 11
295.8324345415829
 21
453.878767689113
 31
0.0
  0
LINE
  5
178
  8
_0-1_
  6
CENTER1
 62
   152
 10
296.3324345415829
 20
479.7787676891131
 30
0.0
 11
296.3324345415829
 21
484.9787676891129
 31
0.0
  0
LINE
  5
179
  8
_0-1_
  6
CENTER1
 62
   152
 10
293.5824345415829
 20
482.378767689113
 30
0.0
 11
299.0824345415834
 21
482.378767689113
 31
0.0
  0
LINE
  5
17A
  8
_0-1_
  6
DASHED2
 62
   152
 10
287.3324345415829
 20
489.678767689113
 30
0.0
 11
417.332434541583
 21
489.678767689113
 31
0.0
  0
LINE
  5
17B
  8
_0-1_
  6
CENTER1
 62
   152
 10
411.8324345415834
 20
473.878767689113
 30
0.0
 11
395.832434541583
 21
473.878767689113
 31
0.0
  0
LINE
  5
17C
  8
_0-1_
  6
CENTER1
 62
   152
 10
403.832434541583
 20
465.878767689113
 30
0.0
 11
403.832434541583
 21
481.878767689113
 31
0.0
  0
LINE
  5
17D
  8
_0-1_
  6
CENTER1
 62
   152
 10
382.8324345415834
 20
463.628767689113
 30
0.0
 11
382.8324345415834
 21
458.128767689113
 31
0.0
  0
LINE
  5
17E
  8
_0-1_
  6
CENTER1
 62
   152
 10
385.4324345415833
 20
460.878767689113
 30
0.0
 11
380.2324345415835
 21
460.878767689113
 31
0.0
  0
LINE
  5
17F
  8
_0-1_
  6
CENTER1
 62
   152
 10
364.0824345415834
 20
482.378767689113
 30
0.0
 11
358.582434541583
 21
482.378767689113
 31
0.0
  0
LINE
  5
180
  8
_0-1_
  6
CENTER1
 62
   152
 10
361.332434541583
 20
479.7787676891131
 30
0.0
 11
361.332434541583
 21
484.9787676891129
 31
0.0
  0
LINE
  5
181
  8
_0-1_
  6
PHANTOM1
 62
   152
 10
349.9107184393653
 20
298.8753188762007
 30
0.0
 11
249.3846540675025
 21
298.8753188762007
 31
0.0
  0
LINE
  5
182
  8
_0-1_
  6
PHANTOM1
 62
   152
 10
249.3846540675025
 20
273.8753188762007
 30
0.0
 11
349.9107184393653
 21
273.8753188762007
 31
0.0
  0
LINE
  5
183
  8
_0-0_
  6
CONTINUOUS
 62
     7
 10
332.3846540675029
 20
273.8753188762007
 30
0.0
 11
332.3846540675029
 21
264.8753188762007
 31
0.0
  0
LINE
  5
184
  8
_0-0_
  6
CONTINUOUS
 62
     7
 10
332.3846540675029
 20
273.8753188762007
 30
0.0
 11
202.3846540675029
 21
273.8753188762007
 31
0.0
  0
LINE
  5
185
  8
_0-0_
  6
CONTINUOUS
 62
     7
 10
202.3846540675029
 20
273.8753188762007
 30
0.0
 11
202.3846540675029
 21
264.8753188762007
 31
0.0
  0
LINE
  5
186
  8
_0-0_
  6
CONTINUOUS
 62
     7
 10
206.8846540675025
 20
259.0658488762006
 30
0.0
 11
206.8846540675025
 21
254.8753188762007
 31
0.0
  0
LINE
  5
187
  8
_0-0_
  6
CONTINUOUS
 62
     7
 10
206.8846540675025
 20
254.8753188762007
 30
0.0
 11
207.8846540675025
 21
253.8753188762007
 31
0.0
  0
LINE
  5
188
  8
_0-0_
  6
CONTINUOUS
 62
     7
 10
207.8846540675025
 20
253.8753188762007
 30
0.0
 11
223.8846540675029
 21
253.8753188762007
 31
0.0
  0
LINE
  5
189
  8
_0-0_
  6
CONTINUOUS
 62
     7
 10
223.8846540675029
 20
253.8753188762007
 30
0.0
 11
224.8846540675029
 21
254.8753188762007
 31
0.0
  0
LINE
  5
18A
  8
_0-0_
  6
CONTINUOUS
 62
     7
 10
224.8846540675029
 20
254.8753188762007
 30
0.0
 11
206.8846540675025
 21
254.8753188762007
 31
0.0
  0
LINE
  5
18B
  8
_0-0_
  6
CONTINUOUS
 62
     7
 10
224.8846540675029
 20
254.8753188762007
 30
0.0
 11
224.8846540675029
 21
258.8753188762007
 31
0.0
  0
LINE
  5
18C
  8
_0-1_
  6
PHANTOM1
 62
   152
 10
224.3846540675025
 20
273.8753188762007
 30
0.0
 11
224.3846540675025
 21
324.5898499628491
 31
0.0
  0
LINE
  5
18D
  8
_0-1_
  6
PHANTOM1
 62
   152
 10
249.3846540675025
 20
324.5898499628491
 30
0.0
 11
249.3846540675025
 21
273.8753188762007
 31
0.0
  0
LINE
  5
18E
  8
_0-0_
  6
CONTINUOUS
 62
     7
 10
258.8846540675032
 20
253.6753188762011
 30
0.0
 11
272.4109881064931
 21
255.8733481575368
 31
0.0
  0
LINE
  5
18F
  8
_0-0_
  6
CONTINUOUS
 62
     7
 10
272.4109881064931
 20
255.8733481575368
 30
0.0
 11
272.6518836720027
 21
255.9002762587754
 31
0.0
  0
LINE
  5
190
  8
_0-0_
  6
CONTINUOUS
 62
     7
 10
272.6518836720027
 20
255.9002762587754
 30
0.0
 11
273.202480408959
 21
255.8769198583017
 31
0.0
  0
LINE
  5
191
  8
_0-0_
  6
CONTINUOUS
 62
     7
 10
273.202480408959
 20
255.8769198583017
 30
0.0
 11
273.7663477241312
 21
255.7393815785136
 31
0.0
  0
LINE
  5
192
  8
_0-0_
  6
CONTINUOUS
 62
     7
 10
273.7663477241312
 20
255.7393815785136
 30
0.0
 11
274.3127283608089
 21
255.4939617968
 31
0.0
  0
LINE
  5
193
  8
_0-0_
  6
CONTINUOUS
 62
     7
 10
274.3127283608089
 20
255.4939617968
 30
0.0
 11
274.8393538412583
 21
255.1298178149415
 31
0.0
  0
LINE
  5
194
  8
_0-0_
  6
CONTINUOUS
 62
     7
 10
274.8393538412583
 20
255.1298178149415
 30
0.0
 11
275.1787901763458
 21
254.8002282475275
 31
0.0
  0
LINE
  5
195
  8
_0-0_
  6
CONTINUOUS
 62
     7
 10
275.1787901763458
 20
254.8002282475275
 30
0.0
 11
275.4789246866555
 21
254.4028947613241
 31
0.0
  0
LINE
  5
196
  8
_0-0_
  6
CONTINUOUS
 62
     7
 10
275.4789246866555
 20
254.4028947613241
 30
0.0
 11
275.6605927781803
 21
254.069207523661
 31
0.0
  0
LINE
  5
197
  8
_0-0_
  6
CONTINUOUS
 62
     7
 10
275.6605927781803
 20
254.069207523661
 30
0.0
 11
275.7999950031216
 21
253.7021407183146
 31
0.0
  0
LINE
  5
198
  8
_0-0_
  6
CONTINUOUS
 62
     7
 10
275.7999950031216
 20
253.7021407183146
 30
0.0
 11
275.8870974370351
 21
253.306607311198
 31
0.0
  0
LINE
  5
199
  8
_0-0_
  6
CONTINUOUS
 62
     7
 10
275.8870974370351
 20
253.306607311198
 30
0.0
 11
275.9169457692454
 21
252.8971564420923
 31
0.0
  0
LINE
  5
19A
  8
_0-0_
  6
CONTINUOUS
 62
     7
 10
275.9169457692454
 20
252.8971564420923
 30
0.0
 11
275.9169457692454
 21
212.7468802536039
 31
0.0
  0
LINE
  5
19B
  8
_0-0_
  6
CONTINUOUS
 62
     7
 10
275.9169457692454
 20
212.7468802536039
 30
0.0
 11
276.5939516987419
 21
213.0539192592238
 31
0.0
  0
LINE
  5
19C
  8
_0-0_
  6
CONTINUOUS
 62
     7
 10
276.5939516987419
 20
213.0539192592238
 30
0.0
 11
277.2730522465509
 21
213.4264103895409
 31
0.0
  0
LINE
  5
19D
  8
_0-0_
  6
CONTINUOUS
 62
     7
 10
277.2730522465509
 20
213.4264103895409
 30
0.0
 11
277.9826088541301
 21
213.8944121283806
 31
0.0
  0
LINE
  5
19E
  8
_0-0_
  6
CONTINUOUS
 62
     7
 10
277.9826088541301
 20
213.8944121283806
 30
0.0
 11
278.6694414913107
 21
214.437589575476
 31
0.0
  0
LINE
  5
19F
  8
_0-0_
  6
CONTINUOUS
 62
     7
 10
278.6694414913107
 20
214.437589575476
 30
0.0
 11
279.347627317138
 21
215.0822169186759
 31
0.0
  0
LINE
  5
1A0
  8
_0-0_
  6
CONTINUOUS
 62
     7
 10
279.347627317138
 20
215.0822169186759
 30
0.0
 11
279.9760069619734
 21
215.8038151039643
 31
0.0
  0
LINE
  5
1A1
  8
_0-0_
  6
CONTINUOUS
 62
     7
 10
279.9760069619734
 20
215.8038151039643
 30
0.0
 11
280.4002044642056
 21
216.382526822372
 31
0.0
  0
LINE
  5
1A2
  8
_0-0_
  6
CONTINUOUS
 62
     7
 10
280.4002044642056
 20
216.382526822372
 30
0.0
 11
280.788232182293
 21
217.0012697168928
 31
0.0
  0
LINE
  5
1A3
  8
_0-0_
  6
CONTINUOUS
 62
     7
 10
280.788232182293
 20
217.0012697168935
 30
0.0
 11
298.4979027215553
 21
247.6753188762011
 31
0.0
  0
LINE
  5
1A4
  8
_0-0_
  6
CONTINUOUS
 62
     7
 10
298.4979027215544
 20
247.6753188762013
 30
0.0
 11
299.0827799995716
 21
248.5719193587521
 31
0.0
  0
LINE
  5
1A5
  8
_0-0_
  6
CONTINUOUS
 62
     7
 10
299.0827799995716
 20
248.5719193587521
 30
0.0
 11
299.7555454246272
 21
249.3971379710507
 31
0.0
  0
LINE
  5
1A6
  8
_0-0_
  6
CONTINUOUS
 62
     7
 10
299.7555454246272
 20
249.3971379710507
 30
0.0
 11
300.4996036367842
 21
250.1361278345728
 31
0.0
  0
LINE
  5
1A7
  8
_0-0_
  6
CONTINUOUS
 62
     7
 10
300.4996036367842
 20
250.1361278345728
 30
0.0
 11
301.3034836836563
 21
250.7812989188953
 31
0.0
  0
LINE
  5
1A8
  8
_0-0_
  6
CONTINUOUS
 62
     7
 10
301.3034836836563
 20
250.7812989188953
 30
0.0
 11
302.154460963983
 21
251.3325111324454
 31
0.0
  0
LINE
  5
1A9
  8
_0-0_
  6
CONTINUOUS
 62
     7
 10
302.154460963983
 20
251.3325111324454
 30
0.0
 11
303.0322654209809
 21
251.7844912131131
 31
0.0
  0
LINE
  5
1AA
  8
_0-0_
  6
CONTINUOUS
 62
     7
 10
303.0322654209809
 20
251.7844912131131
 30
0.0
 11
303.9473418469087
 21
252.1453332453609
 31
0.0
  0
LINE
  5
1AB
  8
_0-0_
  6
CONTINUOUS
 62
     7
 10
303.9473418469087
 20
252.1453332453609
 30
0.0
 11
304.8659592903238
 21
252.4085661308821
 31
0.0
  0
LINE
  5
1AC
  8
_0-0_
  6
CONTINUOUS
 62
     7
 10
304.8659592903238
 20
252.4085661308821
 30
0.0
 11
305.7714199735828
 21
252.5787001718427
 31
0.0
  0
LINE
  5
1AD
  8
_0-0_
  6
CONTINUOUS
 62
     7
 10
305.7714199735828
 20
252.5787001718427
 30
0.0
 11
306.4734047905373
 21
252.6518266915763
 31
0.0
  0
LINE
  5
1AE
  8
_0-0_
  6
CONTINUOUS
 62
     7
 10
306.4734047905373
 20
252.6518266915763
 30
0.0
 11
307.1581567593993
 21
252.675318876201
 31
0.0
  0
LINE
  5
1AF
  8
_0-0_
  6
CONTINUOUS
 62
     7
 10
307.1581567593993
 20
252.6753188762012
 30
0.0
 11
315.8846540675027
 21
252.6753188762012
 31
0.0
  0
LINE
  5
1B0
  8
_0-0_
  6
CONTINUOUS
 62
     7
 10
315.8846540675027
 20
252.6753188762012
 30
0.0
 11
315.8846540675027
 21
257.6753188762009
 31
0.0
  0
LINE
  5
1B1
  8
_0-0_
  6
CONTINUOUS
 62
     7
 10
326.3846540675029
 20
258.8753188762007
 30
0.0
 11
208.3846540675029
 21
258.8753188762007
 31
0.0
  0
LINE
  5
1B2
  8
_0-0_
  6
CENTER1
 62
   152
 10
236.3846540504085
 20
220.6753188563219
 30
0.0
 11
296.3846540504085
 21
220.6753188563219
 31
0.0
  0
LINE
  5
1B3
  8
_0-0_
  6
CONTINUOUS
 62
     7
 10
272.7771540504086
 20
216.9846072605272
 30
0.0
 11
266.3846540504086
 21
213.2938956647324
 31
0.0
  0
LINE
  5
1B4
  8
_0-0_
  6
CONTINUOUS
 62
     7
 10
266.3846540504086
 20
213.2938956647324
 30
0.0
 11
259.9921540504085
 21
216.9846072605272
 31
0.0
  0
LINE
  5
1B5
  8
_0-0_
  6
CONTINUOUS
 62
     7
 10
259.9921540504085
 20
216.9846072605272
 30
0.0
 11
259.9921540504085
 21
224.3660304521166
 31
0.0
  0
LINE
  5
1B6
  8
_0-0_
  6
CONTINUOUS
 62
     7
 10
259.9921540504085
 20
224.3660304521166
 30
0.0
 11
266.3846540504084
 21
228.0567420479113
 31
0.0
  0
LINE
  5
1B7
  8
_0-0_
  6
CONTINUOUS
 62
     7
 10
266.3846540504084
 20
228.0567420479113
 30
0.0
 11
272.7771540504085
 21
224.3660304521166
 31
0.0
  0
LINE
  5
1B8
  8
_0-0_
  6
CONTINUOUS
 62
     7
 10
272.7771540504085
 20
224.3660304521166
 30
0.0
 11
272.7771540504086
 21
216.9846072605272
 31
0.0
  0
LINE
  5
1B9
  8
_0-0_
  6
CONTINUOUS
 62
     7
 10
274.3774886878876
 20
212.2575690690412
 30
0.0
 11
268.634164610942
 21
210.9316182283487
 31
0.0
  0
LINE
  5
1BA
  8
_0-0_
  6
CENTER1
 62
   152
 10
266.3846540504085
 20
190.6753188563219
 30
0.0
 11
266.3846540504085
 21
250.6753188563219
 31
0.0
  0
LINE
  5
1BB
  8
_0-0_
  6
CONTINUOUS
 62
     7
 10
266.8846540675032
 20
254.975318876201
 30
0.0
 11
266.8846540675032
 21
257.6753188762009
 31
0.0
  0
LINE
  5
1BC
  8
_0-0_
  6
CONTINUOUS
 62
     7
 10
258.8846540675032
 20
253.6753188762011
 30
0.0
 11
256.4138986084205
 21
221.4395410789516
 31
0.0
  0
LINE
  5
1BD
  8
ADD_LINE
  6
DOT
 62
   152
 10
216.5917608486896
 20
254.5824256573874
 30
0.0
 11
215.8846540675029
 21
253.8753188762012
 31
0.0
  0
LINE
  5
1BE
  8
ADD_LINE
  6
DOT
 62
   152
 10
215.8846540675029
 20
253.8753188762012
 30
0.0
 11
215.1775472863163
 21
254.5824256573874
 31
0.0
  0
LINE
  5
1BF
  8
_0-0_
  6
CONTINUOUS
 62
     7
 10
129.6497011208276
 20
253.8753188762007
 30
0.0
 11
145.6497011208276
 21
253.8753188762007
 31
0.0
  0
LINE
  5
1C0
  8
_0-0_
  6
CONTINUOUS
 62
     7
 10
145.6497011208276
 20
253.8753188762007
 30
0.0
 11
146.6497011208276
 21
254.8753188762007
 31
0.0
  0
LINE
  5
1C1
  8
_0-0_
  6
CONTINUOUS
 62
     7
 10
146.6497011208276
 20
254.8753188762007
 30
0.0
 11
146.6497011208276
 21
270.6753188762007
 31
0.0
  0
LINE
  5
1C2
  8
ADD_LINE
  6
DOT
 62
     9
 10
146.1497011208276
 20
270.6753188762007
 30
0.0
 11
145.4425943396409
 21
271.3824256573872
 31
0.0
  0
LINE
  5
1C3
  8
_0-0_
  6
CONTINUOUS
 62
    56
 10
145.7744234525899
 20
270.6753188762007
 30
0.0
 11
146.5249787890652
 21
269.3753186854658
 31
0.0
  0
LINE
  5
1C4
  8
_0-0_
  6
CONTINUOUS
 62
   152
 10
144.9354153895119
 20
269.3753186854658
 30
0.0
 11
144.9354153895119
 21
264.8753186854658
 31
0.0
  0
LINE
  5
1C5
  8
_0-0_
  6
CONTINUOUS
 62
   152
 10
144.3282725834588
 20
264.8753186854658
 30
0.0
 11
144.3282725834588
 21
269.3753186854658
 31
0.0
  0
LINE
  5
1C6
  8
_0-0_
  6
CONTINUOUS
 62
   152
 10
143.7211296581963
 20
269.3753186854658
 30
0.0
 11
143.7211296581963
 21
264.8753186854658
 31
0.0
  0
LINE
  5
1C7
  8
_0-0_
  6
CONTINUOUS
 62
   152
 10
143.1139867329339
 20
264.8753186854658
 30
0.0
 11
143.1139867329339
 21
269.3753186854658
 31
0.0
  0
LINE
  5
1C8
  8
_0-0_
  6
CONTINUOUS
 62
   152
 10
142.50684404609
 20
269.3753186854658
 30
0.0
 11
142.50684404609
 21
264.8753186854658
 31
0.0
  0
LINE
  5
1C9
  8
_0-0_
  6
CONTINUOUS
 62
    56
 10
142.3997011208276
 20
264.3753186854658
 30
0.0
 11
149.8997011208276
 21
264.3753186854658
 31
0.0
  0
LINE
  5
1CA
  8
_0-0_
  6
CONTINUOUS
 62
    56
 10
149.8997011208276
 20
264.3753186854658
 30
0.0
 11
150.3997011208276
 21
264.8753186854658
 31
0.0
  0
LINE
  5
1CB
  8
_0-0_
  6
CONTINUOUS
 62
    56
 10
150.3997011208276
 20
264.8753186854658
 30
0.0
 11
141.8997011208276
 21
264.8753186854658
 31
0.0
  0
LINE
  5
1CC
  8
_0-0_
  6
CONTINUOUS
 62
    56
 10
141.8997011208276
 20
264.8753186854658
 30
0.0
 11
142.3997011208276
 21
264.3753186854658
 31
0.0
  0
LINE
  5
1CD
  8
_0-0_
  6
CONTINUOUS
 62
    56
 10
141.8997011208276
 20
264.8753186854658
 30
0.0
 11
141.8997011208276
 21
270.6753188762007
 31
0.0
  0
LINE
  5
1CE
  8
_0-0_
  6
CONTINUOUS
 62
    56
 10
141.8997011208276
 20
269.3753186854658
 30
0.0
 11
150.3997011208276
 21
269.3753186854658
 31
0.0
  0
LINE
  5
1CF
  8
_0-0_
  6
CONTINUOUS
 62
    56
 10
150.3997011208276
 20
270.6753188762007
 30
0.0
 11
150.3997011208276
 21
264.8753186854658
 31
0.0
  0
LINE
  5
1D0
  8
_0-0_
  6
CONTINUOUS
 62
     7
 10
149.6497011208276
 20
270.6753188762007
 30
0.0
 11
146.6497011208276
 21
267.6753188762007
 31
0.0
  0
LINE
  5
1D1
  8
ADD_LINE
  6
DOT
 62
     9
 10
146.1497011208276
 20
270.6753188762007
 30
0.0
 11
146.8568079020142
 21
271.3824256573872
 31
0.0
  0
LINE
  5
1D2
  8
_0-0_
  6
CONTINUOUS
 62
     7
 10
152.8997011208276
 20
273.8753188762007
 30
0.0
 11
50.64970112082756
 21
273.8753188762007
 31
0.0
  0
LINE
  5
1D3
  8
_0-0_
  6
CONTINUOUS
 62
     7
 10
50.64970112082756
 20
273.8753188762007
 30
0.0
 11
50.64970112082756
 21
270.6753188762007
 31
0.0
  0
LINE
  5
1D4
  8
_0-0_
  6
CONTINUOUS
 62
     7
 10
50.64970112082756
 20
270.6753188762007
 30
0.0
 11
152.9497011208275
 21
270.6753188762007
 31
0.0
  0
LINE
  5
1D5
  8
_0-0_
  6
CONTINUOUS
 62
     7
 10
153.4497011208275
 20
270.1753188762007
 30
0.0
 11
153.4497011208275
 21
258.8753188762007
 31
0.0
  0
LINE
  5
1D6
  8
_0-0_
  6
CONTINUOUS
 62
     7
 10
153.4497011208275
 20
258.8753188762007
 30
0.0
 11
156.6497011208276
 21
258.8753188762007
 31
0.0
  0
LINE
  5
1D7
  8
_0-0_
  6
CONTINUOUS
 62
     7
 10
156.6497011208276
 20
258.8753188762007
 30
0.0
 11
156.6497011208276
 21
270.1253188762007
 31
0.0
  0
LINE
  5
1D8
  8
_0-0_
  6
CONTINUOUS
 62
     7
 10
146.6497011208276
 20
254.8753188762007
 30
0.0
 11
128.6497011208276
 21
254.8753188762007
 31
0.0
  0
LINE
  5
1D9
  8
_0-0_
  6
CONTINUOUS
 62
     7
 10
128.6497011208276
 20
254.8753188762007
 30
0.0
 11
129.6497011208276
 21
253.8753188762007
 31
0.0
  0
LINE
  5
1DA
  8
_0-0_
  6
CONTINUOUS
 62
     7
 10
128.6497011208276
 20
254.8753188762007
 30
0.0
 11
128.6497011208276
 21
270.6753188762007
 31
0.0
  0
LINE
  5
1DB
  8
_0-0_
  6
CONTINUOUS
 62
     7
 10
126.6497011208278
 20
270.6753188762007
 30
0.0
 11
126.6497011208278
 21
268.1753188762007
 31
0.0
  0
LINE
  5
1DC
  8
_0-0_
  6
CONTINUOUS
 62
     7
 10
126.6497011208278
 20
268.1753188762007
 30
0.0
 11
56.64970112082744
 21
268.1753188762007
 31
0.0
  0
LINE
  5
1DD
  8
_0-0_
  6
CONTINUOUS
 62
     7
 10
56.64970112082744
 20
268.1753188762007
 30
0.0
 11
56.64970112082744
 21
270.6753188762007
 31
0.0
  0
LINE
  5
1DE
  8
_0-0_
  6
CONTINUOUS
 62
    56
 10
56.75470066306389
 20
268.1753188762007
 30
0.0
 11
56.75470066306389
 21
266.9453188571272
 31
0.0
  0
LINE
  5
1DF
  8
_0-0_
  6
CONTINUOUS
 62
    56
 10
56.75470066306389
 20
266.9453188571272
 30
0.0
 11
74.54470157859123
 21
266.9453188571272
 31
0.0
  0
LINE
  5
1E0
  8
_0-0_
  6
CONTINUOUS
 62
    56
 10
74.54470157859123
 20
266.9453188571272
 30
0.0
 11
74.54470157859123
 21
268.1753188762007
 31
0.0
  0
LINE
  5
1E1
  8
_0-0_
  6
CONTINUOUS
 62
    56
 10
72.14970112082756
 20
266.9453188571272
 30
0.0
 11
72.14970112082756
 21
257.9453193339643
 31
0.0
  0
LINE
  5
1E2
  8
_0-0_
  6
CONTINUOUS
 62
    56
 10
72.14970112082756
 20
257.9453193339643
 30
0.0
 11
71.14970112082756
 21
256.9453193339643
 31
0.0
  0
LINE
  5
1E3
  8
_0-0_
  6
CONTINUOUS
 62
    56
 10
71.14970112082756
 20
256.9453193339643
 30
0.0
 11
60.14970112082756
 21
256.9453193339643
 31
0.0
  0
LINE
  5
1E4
  8
_0-0_
  6
CONTINUOUS
 62
    56
 10
60.14970112082756
 20
256.9453193339643
 30
0.0
 11
59.14970112082756
 21
257.9453193339643
 31
0.0
  0
LINE
  5
1E5
  8
_0-0_
  6
CONTINUOUS
 62
    56
 10
59.14970112082756
 20
257.9453193339643
 30
0.0
 11
72.14970112082756
 21
257.9453193339643
 31
0.0
  0
LINE
  5
1E6
  8
_0-0_
  6
CONTINUOUS
 62
     7
 10
73.51751394518783
 20
255.0703506075587
 30
0.0
 11
73.25036557836404
 21
254.7680923108686
 31
0.0
  0
LINE
  5
1E7
  8
_0-0_
  6
CONTINUOUS
 62
     7
 10
73.25036557836404
 20
254.7680923108686
 30
0.0
 11
73.01488370617597
 21
254.4029619118322
 31
0.0
  0
LINE
  5
1E8
  8
_0-0_
  6
CONTINUOUS
 62
     7
 10
73.01488370617597
 20
254.4029619118322
 30
0.0
 11
72.86085618468383
 21
254.0685790029402
 31
0.0
  0
LINE
  5
1E9
  8
_0-0_
  6
CONTINUOUS
 62
     7
 10
72.86085618468383
 20
254.0685790029402
 30
0.0
 11
72.74248102998604
 21
253.6897818268951
 31
0.0
  0
LINE
  5
1EA
  8
_0-0_
  6
CONTINUOUS
 62
     7
 10
72.74248102998604
 20
253.6897818268951
 30
0.0
 11
72.67370304866245
 21
253.3069315652665
 31
0.0
  0
LINE
  5
1EB
  8
_0-0_
  6
CONTINUOUS
 62
     7
 10
72.67370304866245
 20
253.3069315652665
 30
0.0
 11
72.6497011208279
 21
252.8971564420923
 31
0.0
  0
LINE
  5
1EC
  8
_0-0_
  6
CONTINUOUS
 62
     7
 10
72.6497011208279
 20
252.8971564420923
 30
0.0
 11
72.6497011208279
 21
210.6753188718462
 31
0.0
  0
LINE
  5
1ED
  8
_0-0_
  6
CONTINUOUS
 62
     7
 10
72.6497011208279
 20
210.6753188718462
 30
0.0
 11
75.14970112082779
 21
210.6753188718462
 31
0.0
  0
LINE
  5
1EE
  8
_0-0_
  6
CONTINUOUS
 62
     7
 10
75.14970112082779
 20
210.6753188718462
 30
0.0
 11
75.14970112082779
 21
251.1105822503146
 31
0.0
  0
LINE
  5
1EF
  8
_0-0_
  6
CONTINUOUS
 62
     7
 10
75.14970112082779
 20
251.1105822503146
 30
0.0
 11
108.1497011208278
 21
251.1105822503146
 31
0.0
  0
LINE
  5
1F0
  8
_0-0_
  6
CONTINUOUS
 62
     7
 10
108.1497011208278
 20
251.1105822503146
 30
0.0
 11
108.1497011208278
 21
210.6753188718462
 31
0.0
  0
LINE
  5
1F1
  8
_0-0_
  6
CONTINUOUS
 62
     7
 10
108.1497011208278
 20
210.6753188718462
 30
0.0
 11
110.6497011208279
 21
210.6753188718462
 31
0.0
  0
LINE
  5
1F2
  8
_0-0_
  6
CONTINUOUS
 62
     7
 10
110.6497011208279
 20
210.6753188718462
 30
0.0
 11
110.6497011208279
 21
252.8971564420923
 31
0.0
  0
LINE
  5
1F3
  8
_0-0_
  6
CONTINUOUS
 62
     7
 10
110.6497011208279
 20
252.8971564420923
 30
0.0
 11
110.6265573895237
 21
253.2996485802035
 31
0.0
  0
LINE
  5
1F4
  8
_0-0_
  6
CONTINUOUS
 62
     7
 10
110.6265573895237
 20
253.2996485802035
 30
0.0
 11
110.5538911814199
 21
253.7021407183146
 31
0.0
  0
LINE
  5
1F5
  8
_0-0_
  6
CONTINUOUS
 62
     7
 10
110.5538911814199
 20
253.7021407183146
 30
0.0
 11
110.440040478308
 21
254.0647022249694
 31
0.0
  0
LINE
  5
1F6
  8
_0-0_
  6
CONTINUOUS
 62
     7
 10
110.440040478308
 20
254.0647022249694
 30
0.0
 11
110.2845548327097
 21
254.4028947613241
 31
0.0
  0
LINE
  5
1F7
  8
_0-0_
  6
CONTINUOUS
 62
     7
 10
110.2845548327097
 20
254.4028947613241
 30
0.0
 11
110.0278610788622
 21
254.7955460338354
 31
0.0
  0
LINE
  5
1F8
  8
_0-0_
  6
CONTINUOUS
 62
     7
 10
110.0278610788622
 20
254.7955460338354
 30
0.0
 11
109.7190962524701
 21
255.1298178149415
 31
0.0
  0
LINE
  5
1F9
  8
_0-0_
  6
CONTINUOUS
 62
     7
 10
109.7190962524701
 20
255.1298178149415
 30
0.0
 11
109.2291382980098
 21
255.4898339298663
 31
0.0
  0
LINE
  5
1FA
  8
_0-0_
  6
CONTINUOUS
 62
     7
 10
109.2291382980098
 20
255.4898339298663
 30
0.0
 11
108.6745441917962
 21
255.7393815785136
 31
0.0
  0
LINE
  5
1FB
  8
_0-0_
  6
CONTINUOUS
 62
     7
 10
108.6745441917962
 20
255.7393815785136
 30
0.0
 11
108.077103008976
 21
255.8761192762951
 31
0.0
  0
LINE
  5
1FC
  8
_0-0_
  6
CONTINUOUS
 62
     7
 10
108.077103008976
 20
255.8761192762951
 30
0.0
 11
107.4399928632072
 21
255.9002762587754
 31
0.0
  0
LINE
  5
1FD
  8
_0-0_
  6
CONTINUOUS
 62
     7
 10
107.4399928632072
 20
255.9002762587754
 30
0.0
 11
107.1497011208277
 21
255.8733481575368
 31
0.0
  0
LINE
  5
1FE
  8
_0-0_
  6
CONTINUOUS
 62
     7
 10
107.1497011208281
 20
255.8733481575368
 30
0.0
 11
103.1641936859652
 21
255.4424093059878
 31
0.0
  0
LINE
  5
1FF
  8
_0-0_
  6
CONTINUOUS
 62
     7
 10
103.1641936859652
 20
255.4424093059878
 30
0.0
 11
98.73907319482583
 21
255.1456379325248
 31
0.0
  0
LINE
  5
200
  8
_0-0_
  6
CONTINUOUS
 62
     7
 10
98.73907319482583
 20
255.1456379325248
 30
0.0
 11
94.04328680096432
 21
254.9943645034941
 31
0.0
  0
LINE
  5
201
  8
_0-0_
  6
CONTINUOUS
 62
     7
 10
94.04328680096432
 20
254.9943645034941
 30
0.0
 11
89.25611544069181
 21
254.9943645034941
 31
0.0
  0
LINE
  5
202
  8
_0-0_
  6
CONTINUOUS
 62
     7
 10
89.25611544069181
 20
254.9943645034941
 30
0.0
 11
84.56032904683025
 21
255.1456379325248
 31
0.0
  0
LINE
  5
203
  8
_0-0_
  6
CONTINUOUS
 62
     7
 10
84.56032904683025
 20
255.1456379325248
 30
0.0
 11
80.13520855569095
 21
255.4424093059877
 31
0.0
  0
LINE
  5
204
  8
_0-0_
  6
CONTINUOUS
 62
     7
 10
80.13520855569095
 20
255.4424093059877
 30
0.0
 11
76.14970112082779
 21
255.8733481575367
 31
0.0
  0
LINE
  5
205
  8
_0-0_
  6
CONTINUOUS
 62
     7
 10
76.14970112082779
 20
255.8733481575368
 30
0.0
 11
75.48055618618105
 21
255.9000633753805
 31
0.0
  0
LINE
  5
206
  8
_0-0_
  6
CONTINUOUS
 62
     7
 10
75.48055618618105
 20
255.9000633753805
 30
0.0
 11
74.82165015746045
 21
255.7978536109409
 31
0.0
  0
LINE
  5
207
  8
_0-0_
  6
CONTINUOUS
 62
     7
 10
74.82165015746045
 20
255.7978536109409
 30
0.0
 11
74.14442836563285
 21
255.5314696066961
 31
0.0
  0
LINE
  5
208
  8
_0-0_
  6
CONTINUOUS
 62
     7
 10
74.14442836563285
 20
255.5314696066961
 30
0.0
 11
73.81918633068847
 21
255.3257873719681
 31
0.0
  0
LINE
  5
209
  8
_0-0_
  6
CONTINUOUS
 62
     7
 10
73.81918633068847
 20
255.3257873719681
 30
0.0
 11
73.51751394518783
 21
255.0703506075587
 31
0.0
  0
LINE
  5
20A
  8
_0-0_
  6
CONTINUOUS
 62
     7
 10
73.6748273866749
 20
252.6236473241305
 30
0.0
 11
73.23955747776893
 21
252.0795354547886
 31
0.0
  0
LINE
  5
20B
  8
_0-0_
  6
CONTINUOUS
 62
     7
 10
73.23955747776893
 20
252.0795354547886
 30
0.0
 11
72.91612275703835
 21
251.4587627011093
 31
0.0
  0
LINE
  5
20C
  8
_0-0_
  6
CONTINUOUS
 62
     7
 10
72.91612275703835
 20
251.4587627011093
 30
0.0
 11
72.71695263941649
 21
250.7851850118829
 31
0.0
  0
LINE
  5
20D
  8
_0-0_
  6
CONTINUOUS
 62
     7
 10
72.71695263941649
 20
250.7851850118829
 30
0.0
 11
72.64970112082779
 21
250.0846875999598
 31
0.0
  0
LINE
  5
20E
  8
_0-0_
  6
CONTINUOUS
 62
     7
 10
73.6748273866749
 20
252.6236473241305
 30
0.0
 11
74.20520530525926
 21
253.0701883951375
 31
0.0
  0
LINE
  5
20F
  8
_0-0_
  6
CONTINUOUS
 62
     7
 10
74.20520530525926
 20
253.0701883951375
 30
0.0
 11
74.81030910754998
 21
253.401998344874
 31
0.0
  0
LINE
  5
210
  8
_0-0_
  6
CONTINUOUS
 62
     7
 10
74.81030910754998
 20
253.401998344874
 30
0.0
 11
75.46688499377137
 21
253.6063259030527
 31
0.0
  0
LINE
  5
211
  8
_0-0_
  6
CONTINUOUS
 62
     7
 10
75.46688499377137
 20
253.6063259030527
 30
0.0
 11
76.14970112082779
 21
253.675318876201
 31
0.0
  0
LINE
  5
212
  8
_0-0_
  6
CONTINUOUS
 62
     7
 10
76.14970112082779
 20
253.6753188762011
 30
0.0
 11
107.149701120828
 21
253.6753188762011
 31
0.0
  0
LINE
  5
213
  8
_0-0_
  6
CONTINUOUS
 62
     7
 10
107.149701120828
 20
253.675318876201
 30
0.0
 11
107.8325172478844
 21
253.6063259030527
 31
0.0
  0
LINE
  5
214
  8
_0-0_
  6
CONTINUOUS
 62
     7
 10
107.8325172478844
 20
253.6063259030527
 30
0.0
 11
108.4890931341058
 21
253.4019983448739
 31
0.0
  0
LINE
  5
215
  8
_0-0_
  6
CONTINUOUS
 62
     7
 10
108.4890931341058
 20
253.4019983448739
 30
0.0
 11
109.0941969363967
 21
253.0701883951374
 31
0.0
  0
LINE
  5
216
  8
_0-0_
  6
CONTINUOUS
 62
     7
 10
109.0941969363967
 20
253.0701883951374
 30
0.0
 11
109.6245748549809
 21
252.6236473241304
 31
0.0
  0
LINE
  5
217
  8
_0-0_
  6
CONTINUOUS
 62
     7
 10
109.6245748549809
 20
252.6236473241304
 30
0.0
 11
110.059844763887
 21
252.0795354547885
 31
0.0
  0
LINE
  5
218
  8
_0-0_
  6
CONTINUOUS
 62
     7
 10
110.059844763887
 20
252.0795354547885
 30
0.0
 11
110.3832794846176
 21
251.4587627011091
 31
0.0
  0
LINE
  5
219
  8
_0-0_
  6
CONTINUOUS
 62
     7
 10
110.3832794846176
 20
251.4587627011091
 30
0.0
 11
110.5824496022393
 21
250.7851850118827
 31
0.0
  0
LINE
  5
21A
  8
_0-0_
  6
CONTINUOUS
 62
     7
 10
110.5824496022393
 20
250.7851850118827
 30
0.0
 11
110.649701120828
 21
250.0846875999596
 31
0.0
  0
LINE
  5
21B
  8
_0-0_
  6
CONTINUOUS
 62
    56
 10
112.1497011208276
 20
256.9453193339643
 30
0.0
 11
123.1497011208276
 21
256.9453193339643
 31
0.0
  0
LINE
  5
21C
  8
_0-0_
  6
CONTINUOUS
 62
    56
 10
123.1497011208276
 20
256.9453193339643
 30
0.0
 11
124.1497011208276
 21
257.9453193339643
 31
0.0
  0
LINE
  5
21D
  8
_0-0_
  6
CONTINUOUS
 62
    56
 10
124.1497011208276
 20
257.9453193339643
 30
0.0
 11
111.1497011208276
 21
257.9453193339643
 31
0.0
  0
LINE
  5
21E
  8
_0-0_
  6
CONTINUOUS
 62
    56
 10
111.1497011208276
 20
257.9453193339643
 30
0.0
 11
112.1497011208276
 21
256.9453193339643
 31
0.0
  0
LINE
  5
21F
  8
_0-0_
  6
CONTINUOUS
 62
   152
 10
111.9622011208276
 20
257.9453193339643
 30
0.0
 11
111.9622011208276
 21
264.9453188571272
 31
0.0
  0
LINE
  5
220
  8
_0-0_
  6
CONTINUOUS
 62
   152
 10
112.7747011208276
 20
264.9453188571272
 30
0.0
 11
112.7747011208276
 21
257.9453193339643
 31
0.0
  0
LINE
  5
221
  8
_0-0_
  6
CONTINUOUS
 62
   152
 10
113.5872011208276
 20
257.9453193339643
 30
0.0
 11
113.5872011208276
 21
264.9453188571272
 31
0.0
  0
LINE
  5
222
  8
_0-0_
  6
CONTINUOUS
 62
   152
 10
114.3997011208276
 20
264.9453188571272
 30
0.0
 11
114.3997011208276
 21
257.9453193339643
 31
0.0
  0
LINE
  5
223
  8
_0-0_
  6
CONTINUOUS
 62
   152
 10
115.2122011208276
 20
257.9453193339643
 30
0.0
 11
115.2122011208276
 21
264.9453188571272
 31
0.0
  0
LINE
  5
224
  8
_0-0_
  6
CONTINUOUS
 62
     7
 10
115.1497011208277
 20
264.9753188762007
 30
0.0
 11
112.7497011208276
 21
267.3753188762009
 31
0.0
  0
LINE
  5
225
  8
_0-0_
  6
CONTINUOUS
 62
    56
 10
111.1497011208276
 20
266.9453188571272
 30
0.0
 11
111.1497011208276
 21
257.9453193339643
 31
0.0
  0
LINE
  5
226
  8
_0-0_
  6
CONTINUOUS
 62
   152
 10
116.0247011208276
 20
257.9453193339643
 30
0.0
 11
116.0247011208276
 21
264.9453188571272
 31
0.0
  0
LINE
  5
227
  8
_0-0_
  6
CONTINUOUS
 62
     7
 10
115.1497011208277
 20
264.9753188762007
 30
0.0
 11
68.14970112082756
 21
264.9753188762007
 31
0.0
  0
LINE
  5
228
  8
_0-0_
  6
CONTINUOUS
 62
     7
 10
68.14970112082756
 20
264.9753188762007
 30
0.0
 11
68.14970112082756
 21
260.6753188762008
 31
0.0
  0
LINE
  5
229
  8
_0-0_
  6
CONTINUOUS
 62
     7
 10
68.14970112082756
 20
260.6753188762008
 30
0.0
 11
115.1497011208276
 21
260.6753188762008
 31
0.0
  0
LINE
  5
22A
  8
_0-0_
  6
CONTINUOUS
 62
     7
 10
115.1497011208276
 20
260.6753188762008
 30
0.0
 11
115.1497011208276
 21
264.9753188762007
 31
0.0
  0
LINE
  5
22B
  8
_0-0_
  6
CONTINUOUS
 62
     7
 10
114.8497011207695
 20
267.3753188762009
 30
0.0
 11
68.44970112082729
 21
267.3753188762009
 31
0.0
  0
LINE
  5
22C
  8
_0-0_
  6
CONTINUOUS
 62
     7
 10
70.54970112082754
 20
267.3753188762009
 30
0.0
 11
68.14970112082744
 21
264.9753188762007
 31
0.0
  0
LINE
  5
22D
  8
_0-0_
  6
CONTINUOUS
 62
    56
 10
66.22705137965477
 20
264.9453188571272
 30
0.0
 11
65.07235086200035
 21
266.9453188571272
 31
0.0
  0
LINE
  5
22E
  8
ADD_LINE
  6
DOT
 62
     9
 10
65.64970112082756
 20
268.1753188762007
 30
0.0
 11
64.94259433964089
 21
268.8824256573872
 31
0.0
  0
LINE
  5
22F
  8
ADD_LINE
  6
DOT
 62
     9
 10
65.64970112082756
 20
268.1753188762007
 30
0.0
 11
66.35680790201422
 21
268.8824256573872
 31
0.0
  0
LINE
  5
230
  8
_0-0_
  6
CONTINUOUS
 62
   152
 10
64.02470112082756
 20
264.9453188571272
 30
0.0
 11
64.02470112082756
 21
257.9453193339643
 31
0.0
  0
LINE
  5
231
  8
_0-0_
  6
CONTINUOUS
 62
   152
 10
63.21220112082756
 20
257.9453193339643
 30
0.0
 11
63.21220112082756
 21
264.9453188571272
 31
0.0
  0
LINE
  5
232
  8
_0-0_
  6
CONTINUOUS
 62
   152
 10
62.39970112082756
 20
264.9453188571272
 30
0.0
 11
62.39970112082756
 21
257.9453193339643
 31
0.0
  0
LINE
  5
233
  8
_0-0_
  6
CONTINUOUS
 62
   152
 10
61.58720112082756
 20
257.9453193339643
 30
0.0
 11
61.58720112082756
 21
264.9453188571272
 31
0.0
  0
LINE
  5
234
  8
_0-0_
  6
CONTINUOUS
 62
   152
 10
60.77470112082756
 20
264.9453188571272
 30
0.0
 11
60.77470112082756
 21
257.9453193339643
 31
0.0
  0
LINE
  5
235
  8
_0-0_
  6
CONTINUOUS
 62
   152
 10
59.96220112082756
 20
257.9453193339643
 30
0.0
 11
59.96220112082756
 21
264.9453188571272
 31
0.0
  0
LINE
  5
236
  8
_0-0_
  6
CONTINUOUS
 62
    56
 10
59.14970112082756
 20
264.9453188571272
 30
0.0
 11
72.14970112082756
 21
264.9453188571272
 31
0.0
  0
LINE
  5
237
  8
_0-0_
  6
CENTER1
 62
   152
 10
65.64970112082756
 20
262.5253199302352
 30
0.0
 11
65.64970112082756
 21
275.7798510571068
 31
0.0
  0
LINE
  5
238
  8
_0-0_
  6
CONTINUOUS
 62
    56
 10
59.14970112082756
 20
266.9453188571272
 30
0.0
 11
59.14970112082756
 21
257.9453193339643
 31
0.0
  0
LINE
  5
239
  8
_0-0_
  6
CONTINUOUS
 62
     7
 10
67.14970112082744
 20
257.6753188762009
 30
0.0
 11
67.14970112082744
 21
235.3548108005121
 31
0.0
  0
LINE
  5
23A
  8
_0-0_
  6
CONTINUOUS
 62
     7
 10
67.14970112082744
 20
235.3548108005121
 30
0.0
 11
67.5101055300255
 21
228.1029300694464
 31
0.0
  0
LINE
  5
23B
  8
_0-0_
  6
CONTINUOUS
 62
     7
 10
66.60422884759873
 20
228.1029300694462
 30
0.0
 11
66.37951104797958
 21
227.6744754947972
 31
0.0
  0
LINE
  5
23C
  8
_0-0_
  6
CONTINUOUS
 62
     7
 10
66.37951104797958
 20
227.6744754947972
 30
0.0
 11
66.20364162044632
 21
227.2418501806903
 31
0.0
  0
LINE
  5
23D
  8
_0-0_
  6
CONTINUOUS
 62
     7
 10
66.20364162044632
 20
227.2418501806903
 30
0.0
 11
66.08643000573875
 21
226.8103265671057
 31
0.0
  0
LINE
  5
23E
  8
_0-0_
  6
CONTINUOUS
 62
     7
 10
66.08643000573875
 20
226.8103265671057
 30
0.0
 11
66.03282866197537
 21
226.3780498244967
 31
0.0
  0
LINE
  5
23F
  8
_0-0_
  6
CONTINUOUS
 62
     7
 10
66.03282866197537
 20
226.3780498244967
 30
0.0
 11
66.02970112082767
 21
226.2460272661651
 31
0.0
  0
LINE
  5
240
  8
_0-0_
  6
CONTINUOUS
 62
     7
 10
66.02970112082767
 20
226.2460272661651
 30
0.0
 11
66.07027165530735
 21
225.7693291501439
 31
0.0
  0
LINE
  5
241
  8
_0-0_
  6
CONTINUOUS
 62
     7
 10
66.07027165530735
 20
225.7693291501439
 30
0.0
 11
66.18739205291422
 21
225.2988736228333
 31
0.0
  0
LINE
  5
242
  8
_0-0_
  6
CONTINUOUS
 62
     7
 10
66.18739205291422
 20
225.2988736228333
 30
0.0
 11
66.36901097972873
 21
224.8401308724779
 31
0.0
  0
LINE
  5
243
  8
_0-0_
  6
CONTINUOUS
 62
     7
 10
66.36901097972873
 20
224.8401308724779
 30
0.0
 11
66.60422884759873
 21
224.3891244628841
 31
0.0
  0
LINE
  5
244
  8
_0-0_
  6
CONTINUOUS
 62
     7
 10
66.60422884759873
 20
224.3891244628841
 30
0.0
 11
66.36062683655359
 21
223.4506563418353
 31
0.0
  0
LINE
  5
245
  8
_0-0_
  6
CONTINUOUS
 62
     7
 10
66.36062683655359
 20
223.4506563418353
 30
0.0
 11
66.11513582383725
 21
222.0629875990786
 31
0.0
  0
LINE
  5
246
  8
_0-0_
  6
CONTINUOUS
 62
     7
 10
66.11513582383725
 20
222.0629875990786
 30
0.0
 11
66.02970112082767
 21
220.6753188563218
 31
0.0
  0
LINE
  5
247
  8
_0-0_
  6
CONTINUOUS
 62
     7
 10
66.02970112082767
 20
220.6753188563218
 30
0.0
 11
66.07526249360762
 21
219.6646438313487
 31
0.0
  0
LINE
  5
248
  8
_0-0_
  6
CONTINUOUS
 62
     7
 10
66.07526249360762
 20
219.6646438313487
 30
0.0
 11
66.27588981288204
 21
218.294644942232
 31
0.0
  0
LINE
  5
249
  8
_0-0_
  6
CONTINUOUS
 62
     7
 10
66.27588981288204
 20
218.294644942232
 30
0.0
 11
66.60422884759873
 21
216.9615132497598
 31
0.0
  0
LINE
  5
24A
  8
_0-0_
  6
CONTINUOUS
 62
     7
 10
66.60422884759873
 20
216.9615132497598
 30
0.0
 11
66.37951104797958
 21
216.5330586751105
 31
0.0
  0
LINE
  5
24B
  8
_0-0_
  6
CONTINUOUS
 62
     7
 10
66.37951104797958
 20
216.5330586751105
 30
0.0
 11
66.20364162044643
 21
216.1004333610036
 31
0.0
  0
LINE
  5
24C
  8
_0-0_
  6
CONTINUOUS
 62
     7
 10
66.20364162044643
 20
216.1004333610036
 30
0.0
 11
66.08643000573875
 21
215.668909747419
 31
0.0
  0
LINE
  5
24D
  8
_0-0_
  6
CONTINUOUS
 62
     7
 10
66.08643000573875
 20
215.668909747419
 30
0.0
 11
66.03282866197537
 21
215.2366330048099
 31
0.0
  0
LINE
  5
24E
  8
_0-0_
  6
CONTINUOUS
 62
     7
 10
66.03282866197537
 20
215.2366330048099
 30
0.0
 11
66.02970112082767
 21
215.1046104464785
 31
0.0
  0
LINE
  5
24F
  8
_0-0_
  6
CONTINUOUS
 62
     7
 10
66.02970112082767
 20
215.1046104464785
 30
0.0
 11
66.07027165530735
 21
214.6279123304571
 31
0.0
  0
LINE
  5
250
  8
_0-0_
  6
CONTINUOUS
 62
     7
 10
66.07027165530735
 20
214.6279123304571
 30
0.0
 11
66.18739205291422
 21
214.1574568031465
 31
0.0
  0
LINE
  5
251
  8
_0-0_
  6
CONTINUOUS
 62
     7
 10
66.18739205291422
 20
214.1574568031465
 30
0.0
 11
66.36901097972873
 21
213.698714052791
 31
0.0
  0
LINE
  5
252
  8
_0-0_
  6
CONTINUOUS
 62
     7
 10
66.36901097972873
 20
213.698714052791
 30
0.0
 11
66.60422884759873
 21
213.2477076431974
 31
0.0
  0
LINE
  5
253
  8
_0-0_
  6
CONTINUOUS
 62
     7
 10
66.60422884759873
 20
213.2477076431974
 30
0.0
 11
66.02970112082767
 21
214.242818856322
 31
0.0
  0
LINE
  5
254
  8
_0-0_
  6
CONTINUOUS
 62
     7
 10
66.02970112082767
 20
214.242818856322
 30
0.0
 11
66.02970112082767
 21
227.1078188563216
 31
0.0
  0
LINE
  5
255
  8
_0-0_
  6
CONTINUOUS
 62
     7
 10
66.02970112082767
 20
227.1078188563216
 30
0.0
 11
66.60422884759873
 21
228.1029300694462
 31
0.0
  0
LINE
  5
256
  8
_0-0_
  6
CONTINUOUS
 62
     7
 10
66.60422884759873
 20
228.1029300694462
 30
0.0
 11
72.07517339405672
 21
228.1029300694462
 31
0.0
  0
LINE
  5
257
  8
_0-0_
  6
CONTINUOUS
 62
     7
 10
72.07517339405672
 20
228.1029300694462
 30
0.0
 11
72.31039126192672
 21
227.6519236598524
 31
0.0
  0
LINE
  5
258
  8
_0-0_
  6
CONTINUOUS
 62
     7
 10
72.31039126192672
 20
227.6519236598524
 30
0.0
 11
72.49201018874123
 21
227.193180909497
 31
0.0
  0
LINE
  5
259
  8
_0-0_
  6
CONTINUOUS
 62
     7
 10
72.49201018874123
 20
227.193180909497
 30
0.0
 11
72.6091305863481
 21
226.7227253821865
 31
0.0
  0
LINE
  5
25A
  8
_0-0_
  6
CONTINUOUS
 62
     7
 10
72.6091305863481
 20
226.7227253821865
 30
0.0
 11
72.64970112082779
 21
226.2460272661651
 31
0.0
  0
LINE
  5
25B
  8
_0-0_
  6
CONTINUOUS
 62
     7
 10
72.64970112082779
 20
226.2460272661651
 30
0.0
 11
72.64657357968008
 21
226.1140047078337
 31
0.0
  0
LINE
  5
25C
  8
_0-0_
  6
CONTINUOUS
 62
     7
 10
72.64657357968008
 20
226.1140047078337
 30
0.0
 11
72.5929722359167
 21
225.6817279652246
 31
0.0
  0
LINE
  5
25D
  8
_0-0_
  6
CONTINUOUS
 62
     7
 10
72.5929722359167
 20
225.6817279652246
 30
0.0
 11
72.47576062120902
 21
225.25020435164
 31
0.0
  0
LINE
  5
25E
  8
_0-0_
  6
CONTINUOUS
 62
     7
 10
72.47576062120902
 20
225.25020435164
 30
0.0
 11
72.29989119367576
 21
224.8175790375331
 31
0.0
  0
LINE
  5
25F
  8
_0-0_
  6
CONTINUOUS
 62
     7
 10
72.29989119367576
 20
224.8175790375331
 30
0.0
 11
72.07517339405672
 21
224.3891244628838
 31
0.0
  0
LINE
  5
260
  8
_0-0_
  6
CONTINUOUS
 62
     7
 10
72.07517339405672
 20
224.3891244628838
 30
0.0
 11
66.60422884759873
 21
224.3891244628841
 31
0.0
  0
LINE
  5
261
  8
_0-0_
  6
CONTINUOUS
 62
     7
 10
64.02970112082778
 20
224.6733534017765
 30
0.0
 11
63.64970112084927
 21
224.6733188563219
 31
0.0
  0
LINE
  5
262
  8
_0-0_
  6
CONTINUOUS
 62
     7
 10
63.64970112084927
 20
224.6733188563219
 30
0.0
 11
63.64970112084927
 21
216.6773188563216
 31
0.0
  0
LINE
  5
263
  8
_0-0_
  6
CONTINUOUS
 62
     7
 10
63.64970112084927
 20
216.6773188563216
 30
0.0
 11
64.02970112082778
 21
216.677284310867
 31
0.0
  0
LINE
  5
264
  8
_0-0_
  6
CONTINUOUS
 62
     7
 10
64.02970112082778
 20
216.1753188563219
 30
0.0
 11
64.02970112082778
 21
225.1753188563219
 31
0.0
  0
LINE
  5
265
  8
_0-0_
  6
CONTINUOUS
 62
     7
 10
65.52970112082778
 20
226.6753188563219
 30
0.0
 11
66.02970112082767
 21
226.6753188563219
 31
0.0
  0
LINE
  5
266
  8
_0-0_
  6
CONTINUOUS
 62
     7
 10
72.64970112082779
 20
227.1078188563217
 30
0.0
 11
72.07517339405672
 21
228.1029300694462
 31
0.0
  0
LINE
  5
267
  8
_0-0_
  6
CONTINUOUS
 62
     7
 10
72.07517339405672
 20
224.3891244628838
 30
0.0
 11
72.31877540510186
 21
223.4506563418353
 31
0.0
  0
LINE
  5
268
  8
_0-0_
  6
CONTINUOUS
 62
     7
 10
72.31877540510186
 20
223.4506563418353
 30
0.0
 11
72.56208535716485
 21
222.080792816241
 31
0.0
  0
LINE
  5
269
  8
_0-0_
  6
CONTINUOUS
 62
     7
 10
72.56208535716485
 20
222.080792816241
 30
0.0
 11
72.64970112082779
 21
220.6753188563218
 31
0.0
  0
LINE
  5
26A
  8
_0-0_
  6
CONTINUOUS
 62
     7
 10
72.64970112082779
 20
220.6753188563218
 30
0.0
 11
72.60413974804783
 21
219.6646438313487
 31
0.0
  0
LINE
  5
26B
  8
_0-0_
  6
CONTINUOUS
 62
     7
 10
72.60413974804783
 20
219.6646438313487
 30
0.0
 11
72.40600906726718
 21
218.3071324321501
 31
0.0
  0
LINE
  5
26C
  8
_0-0_
  6
CONTINUOUS
 62
     7
 10
72.40600906726718
 20
218.3071324321501
 30
0.0
 11
72.07517339405672
 21
216.9615132497595
 31
0.0
  0
LINE
  5
26D
  8
_0-0_
  6
CONTINUOUS
 62
     7
 10
72.07517339405672
 20
216.9615132497595
 30
0.0
 11
66.60422884759873
 21
216.9615132497598
 31
0.0
  0
LINE
  5
26E
  8
_0-0_
  6
CONTINUOUS
 62
     7
 10
66.02970112082767
 20
214.6753188563219
 30
0.0
 11
65.52970112082778
 21
214.6753188563219
 31
0.0
  0
LINE
  5
26F
  8
_0-0_
  6
CONTINUOUS
 62
     7
 10
66.60422884759873
 20
213.2477076431974
 30
0.0
 11
72.07517339405672
 21
213.2477076431974
 31
0.0
  0
LINE
  5
270
  8
_0-0_
  6
CONTINUOUS
 62
     7
 10
72.07517339405672
 20
213.2477076431974
 30
0.0
 11
72.29989119367576
 21
213.6761622178463
 31
0.0
  0
LINE
  5
271
  8
_0-0_
  6
CONTINUOUS
 62
     7
 10
72.29989119367576
 20
213.6761622178463
 30
0.0
 11
72.47576062120902
 21
214.1087875319532
 31
0.0
  0
LINE
  5
272
  8
_0-0_
  6
CONTINUOUS
 62
     7
 10
72.47576062120902
 20
214.1087875319532
 30
0.0
 11
72.5929722359167
 21
214.5403111455379
 31
0.0
  0
LINE
  5
273
  8
_0-0_
  6
CONTINUOUS
 62
     7
 10
72.5929722359167
 20
214.5403111455379
 30
0.0
 11
72.64657357968008
 21
214.9725878881469
 31
0.0
  0
LINE
  5
274
  8
_0-0_
  6
CONTINUOUS
 62
     7
 10
72.64657357968008
 20
214.9725878881469
 30
0.0
 11
72.64970112082779
 21
215.1046104464785
 31
0.0
  0
LINE
  5
275
  8
_0-0_
  6
CONTINUOUS
 62
     7
 10
72.64970112082779
 20
215.1046104464785
 30
0.0
 11
72.6091305863481
 21
215.5813085624997
 31
0.0
  0
LINE
  5
276
  8
_0-0_
  6
CONTINUOUS
 62
     7
 10
72.6091305863481
 20
215.5813085624997
 30
0.0
 11
72.49201018874123
 21
216.0517640898103
 31
0.0
  0
LINE
  5
277
  8
_0-0_
  6
CONTINUOUS
 62
     7
 10
72.49201018874123
 20
216.0517640898103
 30
0.0
 11
72.31039126192672
 21
216.5105068401657
 31
0.0
  0
LINE
  5
278
  8
_0-0_
  6
CONTINUOUS
 62
     7
 10
72.31039126192672
 20
216.5105068401657
 30
0.0
 11
72.07517339405672
 21
216.9615132497595
 31
0.0
  0
LINE
  5
279
  8
_0-0_
  6
CONTINUOUS
 62
     7
 10
72.64970112082779
 20
214.2428188563219
 30
0.0
 11
72.07517339405672
 21
213.2477076431974
 31
0.0
  0
LINE
  5
27A
  8
_0-0_
  6
CONTINUOUS
 62
     7
 10
71.84984131113151
 20
213.2434119634769
 30
0.0
 11
72.21711768760883
 21
212.9902453084756
 31
0.0
  0
LINE
  5
27B
  8
_0-0_
  6
CONTINUOUS
 62
     7
 10
72.21711768760883
 20
212.9902453084756
 30
0.0
 11
72.6497011208279
 21
212.7468802536035
 31
0.0
  0
LINE
  5
27C
  8
_0-0_
  6
CONTINUOUS
 62
     7
 10
75.14970112082801
 20
214.6753188563219
 30
0.0
 11
77.64970112082801
 21
214.6753188563219
 31
0.0
  0
LINE
  5
27D
  8
_0-0_
  6
CONTINUOUS
 62
     7
 10
77.64970112082801
 20
226.6753188563219
 30
0.0
 11
75.14970112082801
 21
226.6753188563219
 31
0.0
  0
LINE
  5
27E
  8
_0-0_
  6
CONTINUOUS
 62
     7
 10
77.64970112082801
 20
243.6753188556828
 30
0.0
 11
77.64970112082801
 21
197.6753188563219
 31
0.0
  0
LINE
  5
27F
  8
_0-0_
  6
CONTINUOUS
 62
     7
 10
79.64970112082801
 20
195.6753188563219
 30
0.0
 11
103.6497011208281
 21
195.6753188563219
 31
0.0
  0
LINE
  5
280
  8
_0-0_
  6
CONTINUOUS
 62
     7
 10
105.6497011208281
 20
197.6753188563219
 30
0.0
 11
105.6497011208281
 21
243.6753188556829
 31
0.0
  0
LINE
  5
281
  8
_0-0_
  6
CONTINUOUS
 62
     7
 10
103.6497011208281
 20
245.6753188563219
 30
0.0
 11
79.64970112082801
 21
245.6753188563219
 31
0.0
  0
LINE
  5
282
  8
_0-0_
  6
CENTER1
 62
   152
 10
91.64970112082756
 20
230.3548108005121
 30
0.0
 11
91.64970112082756
 21
273.1753188762008
 31
0.0
  0
LINE
  5
283
  8
_0-1_
  6
PHANTOM1
 62
   152
 10
104.149701120828
 20
273.8753188762007
 30
0.0
 11
104.149701120828
 21
324.5898499628491
 31
0.0
  0
LINE
  5
284
  8
_0-1_
  6
PHANTOM1
 62
   152
 10
129.149701120828
 20
324.5898499628491
 30
0.0
 11
129.149701120828
 21
273.8753188762007
 31
0.0
  0
LINE
  5
285
  8
_0-0_
  6
CONTINUOUS
 62
     7
 10
125.6497011208276
 20
270.6753188762007
 30
0.0
 11
128.6497011208276
 21
267.6753188762007
 31
0.0
  0
LINE
  5
286
  8
_0-0_
  6
CONTINUOUS
 62
    56
 10
126.5447015785912
 20
268.1753188762007
 30
0.0
 11
126.5447015785912
 21
266.9453188571272
 31
0.0
  0
LINE
  5
287
  8
_0-0_
  6
CONTINUOUS
 62
    56
 10
126.5447015785912
 20
266.9453188571272
 30
0.0
 11
108.7547006630639
 21
266.9453188571272
 31
0.0
  0
LINE
  5
288
  8
_0-0_
  6
CONTINUOUS
 62
    56
 10
108.7547006630639
 20
266.9453188571272
 30
0.0
 11
108.7547006630639
 21
268.1753188762007
 31
0.0
  0
LINE
  5
289
  8
_0-0_
  6
CONTINUOUS
 62
    56
 10
111.1497011208276
 20
264.9453188571272
 30
0.0
 11
124.1497011208276
 21
264.9453188571272
 31
0.0
  0
LINE
  5
28A
  8
_0-0_
  6
CONTINUOUS
 62
    56
 10
124.1497011208276
 20
266.9453188571272
 30
0.0
 11
124.1497011208276
 21
257.9453193339643
 31
0.0
  0
LINE
  5
28B
  8
_0-1_
  6
PHANTOM1
 62
   152
 10
104.149701120828
 20
298.8753188762007
 30
0.0
 11
27.89123902258859
 21
298.8753188762007
 31
0.0
  0
LINE
  5
28C
  8
_0-1_
  6
PHANTOM1
 62
   152
 10
27.89123902258859
 20
273.8753188762007
 30
0.0
 11
104.149701120828
 21
273.8753188762007
 31
0.0
  0
LINE
  5
28D
  8
_0-0_
  6
CENTER1
 62
   152
 10
117.6497011208276
 20
275.7798510571068
 30
0.0
 11
117.6497011208276
 21
262.5253199302352
 31
0.0
  0
LINE
  5
28E
  8
_0-0_
  6
CONTINUOUS
 62
    56
 10
118.2270513796548
 20
264.9453188571272
 30
0.0
 11
117.0723508620003
 21
266.9453188571272
 31
0.0
  0
LINE
  5
28F
  8
ADD_LINE
  6
DOT
 62
     9
 10
117.6497011208276
 20
268.1753188762007
 30
0.0
 11
116.9425943396409
 21
268.8824256573872
 31
0.0
  0
LINE
  5
290
  8
ADD_LINE
  6
DOT
 62
     9
 10
117.6497011208276
 20
268.1753188762007
 30
0.0
 11
118.3568079020142
 21
268.8824256573872
 31
0.0
  0
LINE
  5
291
  8
_0-0_
  6
CONTINUOUS
 62
     7
 10
116.1497011208277
 20
257.6753188762009
 30
0.0
 11
116.1497011208277
 21
235.3548108005121
 31
0.0
  0
LINE
  5
292
  8
_0-0_
  6
CONTINUOUS
 62
     7
 10
116.1497011208276
 20
235.3548108005121
 30
0.0
 11
115.7363968553879
 21
227.5931572542534
 31
0.0
  0
LINE
  5
293
  8
_0-0_
  6
CONTINUOUS
 62
     7
 10
115.7025012338653
 20
227.608540186531
 30
0.0
 11
115.4687460499773
 21
228.0567420479113
 31
0.0
  0
LINE
  5
294
  8
_0-0_
  6
CONTINUOUS
 62
     7
 10
115.4687460499773
 20
228.0567420479113
 30
0.0
 11
116.0397011208493
 21
227.0678188563219
 31
0.0
  0
LINE
  5
295
  8
_0-0_
  6
CONTINUOUS
 62
     7
 10
116.0397011208493
 20
227.0678188563219
 30
0.0
 11
116.0397011208493
 21
214.2828188563219
 31
0.0
  0
LINE
  5
296
  8
_0-0_
  6
CONTINUOUS
 62
     7
 10
116.0397011208493
 20
214.2828188563219
 30
0.0
 11
115.4687460499773
 21
213.2938956647324
 31
0.0
  0
LINE
  5
297
  8
_0-0_
  6
CONTINUOUS
 62
     7
 10
115.4687460499773
 20
213.2938956647324
 30
0.0
 11
110.6497011208493
 21
213.2938956647325
 31
0.0
  0
LINE
  5
298
  8
_0-0_
  6
CONTINUOUS
 62
     7
 10
110.6497011208279
 20
212.7468802536039
 30
0.0
 11
111.1813452768819
 21
213.0539192592238
 31
0.0
  0
LINE
  5
299
  8
_0-0_
  6
CONTINUOUS
 62
     7
 10
111.1813452768819
 20
213.0539192592238
 30
0.0
 11
111.5056596082111
 21
213.2864595656962
 31
0.0
  0
LINE
  5
29A
  8
_0-0_
  6
CONTINUOUS
 62
     7
 10
115.4687460499773
 20
213.2938956647324
 30
0.0
 11
115.6920665256525
 21
213.7196860692008
 31
0.0
  0
LINE
  5
29B
  8
_0-0_
  6
CONTINUOUS
 62
     7
 10
115.6920665256525
 20
213.7196860692008
 30
0.0
 11
115.8668423537802
 21
214.1496212796321
 31
0.0
  0
LINE
  5
29C
  8
_0-0_
  6
CONTINUOUS
 62
     7
 10
115.8668423537802
 20
214.1496212796321
 30
0.0
 11
115.9833250845099
 21
214.5784616359843
 31
0.0
  0
LINE
  5
29D
  8
_0-0_
  6
CONTINUOUS
 62
     7
 10
115.9833250845099
 20
214.5784616359843
 30
0.0
 11
116.0365930545532
 21
215.0080504354382
 31
0.0
  0
LINE
  5
29E
  8
_0-0_
  6
CONTINUOUS
 62
     7
 10
116.0365930545532
 20
215.0080504354382
 30
0.0
 11
116.0397011208493
 21
215.1392514626298
 31
0.0
  0
LINE
  5
29F
  8
_0-0_
  6
CONTINUOUS
 62
     7
 10
116.0397011208493
 20
215.1392514626298
 30
0.0
 11
115.9993828710769
 21
215.6129852685632
 31
0.0
  0
LINE
  5
2A0
  8
_0-0_
  6
CONTINUOUS
 62
     7
 10
115.9993828710769
 20
215.6129852685632
 30
0.0
 11
115.882990777536
 21
216.0805153048372
 31
0.0
  0
LINE
  5
2A1
  8
_0-0_
  6
CONTINUOUS
 62
     7
 10
115.882990777536
 20
216.0805153048372
 30
0.0
 11
115.7025012338653
 21
216.536405399147
 31
0.0
  0
LINE
  5
2A2
  8
_0-0_
  6
CONTINUOUS
 62
     7
 10
115.7025012338653
 20
216.536405399147
 30
0.0
 11
115.4687460499773
 21
216.9846072605272
 31
0.0
  0
LINE
  5
2A3
  8
_0-0_
  6
CONTINUOUS
 62
     7
 10
115.4687460499773
 20
216.9846072605272
 30
0.0
 11
110.6497011208493
 21
216.9846072605272
 31
0.0
  0
LINE
  5
2A4
  8
_0-0_
  6
CONTINUOUS
 62
     7
 10
108.1497011208281
 20
214.6753188563219
 30
0.0
 11
105.6497011208281
 21
214.6753188563219
 31
0.0
  0
LINE
  5
2A5
  8
_0-0_
  6
CONTINUOUS
 62
     7
 10
105.6497011208281
 20
226.6753188563219
 30
0.0
 11
108.1497011208281
 21
226.6753188563219
 31
0.0
  0
LINE
  5
2A6
  8
_0-0_
  6
CONTINUOUS
 62
     7
 10
110.6497011208493
 20
228.0567420479112
 30
0.0
 11
115.4687460499773
 21
228.0567420479113
 31
0.0
  0
LINE
  5
2A7
  8
_0-0_
  6
CONTINUOUS
 62
     7
 10
115.7025012338653
 20
227.608540186531
 30
0.0
 11
115.882990777536
 21
227.1526500922213
 31
0.0
  0
LINE
  5
2A8
  8
_0-0_
  6
CONTINUOUS
 62
     7
 10
115.882990777536
 20
227.1526500922213
 30
0.0
 11
115.9993828710769
 21
226.6851200559472
 31
0.0
  0
LINE
  5
2A9
  8
_0-0_
  6
CONTINUOUS
 62
     7
 10
115.9993828710769
 20
226.6851200559472
 30
0.0
 11
116.0397011208493
 21
226.2113862500139
 31
0.0
  0
LINE
  5
2AA
  8
_0-0_
  6
CONTINUOUS
 62
     7
 10
116.0397011208493
 20
226.2113862500139
 30
0.0
 11
116.0365930545532
 21
226.0801852228223
 31
0.0
  0
LINE
  5
2AB
  8
_0-0_
  6
CONTINUOUS
 62
     7
 10
116.0365930545532
 20
226.0801852228223
 30
0.0
 11
115.9833250845099
 21
225.6505964233684
 31
0.0
  0
LINE
  5
2AC
  8
_0-0_
  6
CONTINUOUS
 62
     7
 10
115.9833250845099
 20
225.6505964233684
 30
0.0
 11
115.8668423537801
 21
225.2217560670162
 31
0.0
  0
LINE
  5
2AD
  8
_0-0_
  6
CONTINUOUS
 62
     7
 10
115.8668423537801
 20
225.2217560670162
 30
0.0
 11
115.6920665256525
 21
224.7918208565849
 31
0.0
  0
LINE
  5
2AE
  8
_0-0_
  6
CONTINUOUS
 62
     7
 10
115.6920665256525
 20
224.7918208565849
 30
0.0
 11
115.4687460499773
 21
224.3660304521166
 31
0.0
  0
LINE
  5
2AF
  8
_0-0_
  6
CONTINUOUS
 62
     7
 10
115.4687460499773
 20
224.3660304521166
 30
0.0
 11
115.7950433339923
 21
223.0411887351902
 31
0.0
  0
LINE
  5
2B0
  8
_0-0_
  6
CONTINUOUS
 62
     7
 10
115.7950433339923
 20
223.0411887351902
 30
0.0
 11
115.9944230679157
 21
221.6797090774086
 31
0.0
  0
LINE
  5
2B1
  8
_0-0_
  6
CONTINUOUS
 62
     7
 10
115.9944230679157
 20
221.6797090774086
 30
0.0
 11
116.0397011208493
 21
220.6753188563219
 31
0.0
  0
LINE
  5
2B2
  8
_0-0_
  6
CONTINUOUS
 62
     7
 10
116.0397011208493
 20
220.6753188563219
 30
0.0
 11
115.954797686883
 21
219.2962792235084
 31
0.0
  0
LINE
  5
2B3
  8
_0-0_
  6
CONTINUOUS
 62
     7
 10
115.954797686883
 20
219.2962792235084
 30
0.0
 11
115.7108332408994
 21
217.917239590695
 31
0.0
  0
LINE
  5
2B4
  8
_0-0_
  6
CONTINUOUS
 62
     7
 10
115.7108332408994
 20
217.917239590695
 30
0.0
 11
115.4687460499773
 21
216.9846072605272
 31
0.0
  0
LINE
  5
2B5
  8
_0-0_
  6
CENTER1
 62
   152
 10
113.1497011208281
 20
220.6753188563219
 30
0.0
 11
58.64970112084927
 21
220.6753188563218
 31
0.0
  0
LINE
  5
2B6
  8
_0-0_
  6
CONTINUOUS
 62
     7
 10
110.6497011208493
 20
224.3660304521165
 30
0.0
 11
115.4687460499773
 21
224.3660304521166
 31
0.0
  0
LINE
  5
2B7
  8
_0-0_
  6
CONTINUOUS
 62
     7
 10
202.3938192148526
 20
153.9411823421566
 30
0.0
 11
209.6195312158911
 21
153.9411823421566
 31
0.0
  0
LINE
  5
2B8
  8
_0-0_
  6
CONTINUOUS
 62
     7
 10
202.3938192148526
 20
153.9411823421566
 30
0.0
 11
202.3938192148526
 21
149.7099564921635
 31
0.0
  0
LINE
  5
2B9
  8
_0-1_
  6
CENTER1
 62
   152
 10
207.8938192148522
 20
134.9411823421566
 30
0.0
 11
223.8938192148526
 21
134.9411823421566
 31
0.0
  0
LINE
  5
2BA
  8
_0-1_
  6
CENTER1
 62
   152
 10
215.8938192148526
 20
142.9411823421566
 30
0.0
 11
215.8938192148526
 21
126.9411823421566
 31
0.0
  0
LINE
  5
2BB
  8
_0-0_
  6
CONTINUOUS
 62
     7
 10
203.4109867635697
 20
119.303229026997
 30
0.0
 11
226.9898040675028
 21
54.52098234215657
 31
0.0
  0
LINE
  5
2BC
  8
_0-0_
  6
CONTINUOUS
 62
    56
 10
234.8846540675025
 20
55.78648182450218
 30
0.0
 11
234.8846540675025
 21
58.09588285981101
 31
0.0
  0
LINE
  5
2BD
  8
_0-0_
  6
CONTINUOUS
 62
    56
 10
234.8846540675025
 20
58.09588285981101
 30
0.0
 11
236.8846540675025
 21
59.25058337746543
 31
0.0
  0
LINE
  5
2BE
  8
_0-0_
  6
CONTINUOUS
 62
    56
 10
236.8846540675025
 20
59.25058337746543
 30
0.0
 11
238.8846540675025
 21
58.09588285981101
 31
0.0
  0
LINE
  5
2BF
  8
_0-0_
  6
CONTINUOUS
 62
    56
 10
238.8846540675025
 20
58.09588285981101
 30
0.0
 11
238.8846540675025
 21
55.78648182450218
 31
0.0
  0
LINE
  5
2C0
  8
_0-0_
  6
CONTINUOUS
 62
    56
 10
238.8846540675025
 20
55.78648182450218
 30
0.0
 11
236.8846540675025
 21
54.63178130684776
 31
0.0
  0
LINE
  5
2C1
  8
_0-0_
  6
CONTINUOUS
 62
    56
 10
236.8846540675025
 20
54.63178130684776
 30
0.0
 11
234.8846540675025
 21
55.78648182450218
 31
0.0
  0
LINE
  5
2C2
  8
_0-1_
  6
CENTER1
 62
   152
 10
234.2846540675026
 20
56.94118234215659
 30
0.0
 11
239.4846540675024
 21
56.94118234215659
 31
0.0
  0
LINE
  5
2C3
  8
_0-1_
  6
CENTER1
 62
   152
 10
236.8846540675025
 20
59.69118234215659
 30
0.0
 11
236.8846540675025
 21
54.19118234215659
 31
0.0
  0
LINE
  5
2C4
  8
_0-0_
  6
CONTINUOUS
 62
     7
 10
236.3867240675029
 20
47.94118234215659
 30
0.0
 11
322.3846540675029
 21
47.94118234215659
 31
0.0
  0
LINE
  5
2C5
  8
_0-0_
  6
CONTINUOUS
 62
     7
 10
318.3846540845961
 20
53.94118234215648
 30
0.0
 11
264.3846540845965
 21
53.94118234215648
 31
0.0
  0
LINE
  5
2C6
  8
_0-0_
  6
CENTER1
 62
   152
 10
265.3846540845965
 20
53.44118234215648
 30
0.0
 11
265.3846540845965
 21
72.44118234215648
 31
0.0
  0
LINE
  5
2C7
  8
_0-0_
  6
CONTINUOUS
 62
     7
 10
265.6425489754754
 20
69.5913724150048
 30
0.0
 11
264.8932199508019
 21
69.76724184253806
 31
0.0
  0
LINE
  5
2C8
  8
_0-0_
  6
CONTINUOUS
 62
     7
 10
264.8932199508019
 20
69.76724184253806
 30
0.0
 11
264.1457991274075
 21
69.88445345724568
 31
0.0
  0
LINE
  5
2C9
  8
_0-0_
  6
CONTINUOUS
 62
     7
 10
264.1457991274075
 20
69.88445345724568
 30
0.0
 11
263.3970738462782
 21
69.938054801009
 31
0.0
  0
LINE
  5
2CA
  8
_0-0_
  6
CONTINUOUS
 62
     7
 10
263.3970738462782
 20
69.938054801009
 30
0.0
 11
263.168404067503
 21
69.94118234215676
 31
0.0
  0
LINE
  5
2CB
  8
_0-0_
  6
CONTINUOUS
 62
     7
 10
263.168404067503
 20
69.94118234215676
 30
0.0
 11
262.3427387106817
 21
69.90061180767708
 31
0.0
  0
LINE
  5
2CC
  8
_0-0_
  6
CONTINUOUS
 62
     7
 10
262.3427387106817
 20
69.90061180767708
 30
0.0
 11
261.5278858346782
 21
69.78349141007021
 31
0.0
  0
LINE
  5
2CD
  8
_0-0_
  6
CONTINUOUS
 62
     7
 10
261.5278858346782
 20
69.78349141007021
 30
0.0
 11
260.7333200834586
 21
69.6018724832557
 31
0.0
  0
LINE
  5
2CE
  8
_0-0_
  6
CONTINUOUS
 62
     7
 10
260.7333200834586
 20
69.6018724832557
 30
0.0
 11
259.9521540675029
 21
69.3666546153857
 31
0.0
  0
LINE
  5
2CF
  8
_0-0_
  6
CONTINUOUS
 62
     7
 10
259.952154067503
 20
69.94118234215676
 30
0.0
 11
259.952154067503
 21
63.3211823421567
 31
0.0
  0
LINE
  5
2D0
  8
_0-0_
  6
CONTINUOUS
 62
     7
 10
259.952154067503
 20
63.3211823421567
 30
0.0
 11
272.8171540675028
 21
63.3211823421567
 31
0.0
  0
LINE
  5
2D1
  8
_0-0_
  6
CONTINUOUS
 62
     7
 10
272.8171540675028
 20
63.3211823421567
 30
0.0
 11
272.8171540675028
 21
69.94118234215676
 31
0.0
  0
LINE
  5
2D2
  8
_0-0_
  6
CONTINUOUS
 62
     7
 10
272.8171540675029
 20
69.3666546153857
 30
0.0
 11
272.0750489754755
 21
69.5913724150048
 31
0.0
  0
LINE
  5
2D3
  8
_0-0_
  6
CONTINUOUS
 62
     7
 10
272.0750489754755
 20
69.5913724150048
 30
0.0
 11
271.3257199508019
 21
69.76724184253806
 31
0.0
  0
LINE
  5
2D4
  8
_0-0_
  6
CONTINUOUS
 62
     7
 10
271.3257199508019
 20
69.76724184253806
 30
0.0
 11
270.5782991274075
 21
69.88445345724568
 31
0.0
  0
LINE
  5
2D5
  8
_0-0_
  6
CONTINUOUS
 62
     7
 10
270.5782991274075
 20
69.88445345724568
 30
0.0
 11
269.8295738462782
 21
69.938054801009
 31
0.0
  0
LINE
  5
2D6
  8
_0-0_
  6
CONTINUOUS
 62
     7
 10
269.8295738462782
 20
69.938054801009
 30
0.0
 11
269.6009040675028
 21
69.94118234215676
 31
0.0
  0
LINE
  5
2D7
  8
_0-0_
  6
CONTINUOUS
 62
     7
 10
269.6009040675028
 20
69.94118234215676
 30
0.0
 11
268.7752387106817
 21
69.90061180767708
 31
0.0
  0
LINE
  5
2D8
  8
_0-0_
  6
CONTINUOUS
 62
     7
 10
268.7752387106817
 20
69.90061180767708
 30
0.0
 11
268.6805565897021
 21
69.89083942954522
 31
0.0
  0
LINE
  5
2D9
  8
_0-0_
  6
CONTINUOUS
 62
     7
 10
268.6805565897021
 20
69.89083942954522
 30
0.0
 11
267.9603858346783
 21
69.78349141007021
 31
0.0
  0
LINE
  5
2DA
  8
_0-0_
  6
CONTINUOUS
 62
     7
 10
267.9603858346783
 20
69.78349141007021
 30
0.0
 11
267.1658200834588
 21
69.60187248325576
 31
0.0
  0
LINE
  5
2DB
  8
_0-0_
  6
CONTINUOUS
 62
     7
 10
267.1658200834588
 20
69.60187248325576
 30
0.0
 11
266.3846540675032
 21
69.3666546153857
 31
0.0
  0
LINE
  5
2DC
  8
_0-0_
  6
CONTINUOUS
 62
     7
 10
266.3846540675032
 20
69.3666546153857
 30
0.0
 11
266.3846540675032
 21
63.89571006892777
 31
0.0
  0
LINE
  5
2DD
  8
_0-0_
  6
CONTINUOUS
 62
     7
 10
266.3846540675032
 20
63.89571006892777
 30
0.0
 11
265.6034880515473
 21
63.66049220105776
 31
0.0
  0
LINE
  5
2DE
  8
_0-0_
  6
CONTINUOUS
 62
     7
 10
265.6034880515473
 20
63.66049220105776
 30
0.0
 11
264.8089223003277
 21
63.47887327424326
 31
0.0
  0
LINE
  5
2DF
  8
_0-0_
  6
CONTINUOUS
 62
     7
 10
264.8089223003277
 20
63.47887327424326
 30
0.0
 11
263.9940694243242
 21
63.36175287663639
 31
0.0
  0
LINE
  5
2E0
  8
_0-0_
  6
CONTINUOUS
 62
     7
 10
263.9940694243242
 20
63.36175287663639
 30
0.0
 11
263.168404067503
 21
63.3211823421567
 31
0.0
  0
LINE
  5
2E1
  8
_0-0_
  6
CONTINUOUS
 62
     7
 10
263.168404067503
 20
63.3211823421567
 30
0.0
 11
262.9397342887276
 21
63.32430988330441
 31
0.0
  0
LINE
  5
2E2
  8
_0-0_
  6
CONTINUOUS
 62
     7
 10
262.9397342887276
 20
63.32430988330441
 30
0.0
 11
262.1910090075983
 21
63.37791122706778
 31
0.0
  0
LINE
  5
2E3
  8
_0-0_
  6
CONTINUOUS
 62
     7
 10
262.1910090075983
 20
63.37791122706778
 30
0.0
 11
261.4435881842039
 21
63.49512284177541
 31
0.0
  0
LINE
  5
2E4
  8
_0-0_
  6
CONTINUOUS
 62
     7
 10
261.4435881842039
 20
63.49512284177541
 30
0.0
 11
260.6942591595304
 21
63.67099226930867
 31
0.0
  0
LINE
  5
2E5
  8
_0-0_
  6
CONTINUOUS
 62
     7
 10
260.6942591595304
 20
63.67099226930867
 30
0.0
 11
259.9521540675029
 21
63.89571006892777
 31
0.0
  0
LINE
  5
2E6
  8
_0-0_
  6
CONTINUOUS
 62
     7
 10
260.3846540675029
 20
63.3211823421567
 30
0.0
 11
260.3846540675029
 21
62.82118234215682
 31
0.0
  0
LINE
  5
2E7
  8
_0-0_
  6
CONTINUOUS
 62
     7
 10
261.8846540675029
 20
61.32118234215682
 30
0.0
 11
270.8846540609475
 21
61.32118234215682
 31
0.0
  0
LINE
  5
2E8
  8
_0-0_
  6
CONTINUOUS
 62
     7
 10
270.3826886129576
 20
61.32118234215682
 30
0.0
 11
270.3826540675031
 21
60.94118234217831
 31
0.0
  0
LINE
  5
2E9
  8
_0-0_
  6
CONTINUOUS
 62
     7
 10
270.3826540675031
 20
60.94118234217831
 30
0.0
 11
262.3866540675027
 21
60.94118234217831
 31
0.0
  0
LINE
  5
2EA
  8
_0-0_
  6
CONTINUOUS
 62
     7
 10
262.3866540675027
 20
60.94118234217831
 30
0.0
 11
262.3866195220482
 21
61.32118234215682
 31
0.0
  0
LINE
  5
2EB
  8
_0-0_
  6
CONTINUOUS
 62
    56
 10
262.848755761871
 20
60.94118234217831
 30
0.0
 11
265.3846540845965
 21
59.47708078919322
 31
0.0
  0
LINE
  5
2EC
  8
_0-0_
  6
CONTINUOUS
 62
    56
 10
265.3846540845965
 20
59.47708078919322
 30
0.0
 11
267.9205524073221
 21
60.94118234217831
 31
0.0
  0
LINE
  5
2ED
  8
_0-0_
  6
CONTINUOUS
 62
     7
 10
267.8760881842041
 20
63.49512284177536
 30
0.0
 11
267.1267591595306
 21
63.67099226930861
 31
0.0
  0
LINE
  5
2EE
  8
_0-0_
  6
CONTINUOUS
 62
     7
 10
267.1267591595306
 20
63.67099226930861
 30
0.0
 11
266.3846540675032
 21
63.89571006892777
 31
0.0
  0
LINE
  5
2EF
  8
_0-0_
  6
CONTINUOUS
 62
     7
 10
267.8760881842041
 20
63.49512284177536
 30
0.0
 11
268.6235090075984
 21
63.37791122706778
 31
0.0
  0
LINE
  5
2F0
  8
_0-0_
  6
CONTINUOUS
 62
     7
 10
268.6235090075984
 20
63.37791122706778
 30
0.0
 11
269.3722342887276
 21
63.32430988330441
 31
0.0
  0
LINE
  5
2F1
  8
_0-0_
  6
CONTINUOUS
 62
     7
 10
269.3722342887276
 20
63.32430988330441
 30
0.0
 11
269.6009040675028
 21
63.3211823421567
 31
0.0
  0
LINE
  5
2F2
  8
_0-0_
  6
CONTINUOUS
 62
     7
 10
269.6009040675028
 20
63.3211823421567
 30
0.0
 11
270.4265694243242
 21
63.36175287663639
 31
0.0
  0
LINE
  5
2F3
  8
_0-0_
  6
CONTINUOUS
 62
     7
 10
270.4265694243242
 20
63.36175287663639
 30
0.0
 11
271.2414223003277
 21
63.47887327424326
 31
0.0
  0
LINE
  5
2F4
  8
_0-0_
  6
CONTINUOUS
 62
     7
 10
271.2414223003277
 20
63.47887327424326
 30
0.0
 11
272.0359880515473
 21
63.66049220105776
 31
0.0
  0
LINE
  5
2F5
  8
_0-0_
  6
CONTINUOUS
 62
     7
 10
272.0359880515473
 20
63.66049220105776
 30
0.0
 11
272.8171540675029
 21
63.89571006892777
 31
0.0
  0
LINE
  5
2F6
  8
_0-0_
  6
CONTINUOUS
 62
     7
 10
272.3846540675029
 20
63.3211823421567
 30
0.0
 11
272.3846540675029
 21
62.82118234215682
 31
0.0
  0
LINE
  5
2F7
  8
_0-0_
  6
CENTER1
 62
   152
 10
274.8846540845965
 20
62.94118234215648
 30
0.0
 11
255.8846540845965
 21
62.94118234215648
 31
0.0
  0
LINE
  5
2F8
  8
_0-0_
  6
CONTINUOUS
 62
     7
 10
256.3846540845965
 20
61.94118234215648
 30
0.0
 11
256.3846540845965
 21
74.94118234215705
 31
0.0
  0
LINE
  5
2F9
  8
_0-0_
  6
CONTINUOUS
 62
     7
 10
258.6880763237203
 20
74.94118234215705
 30
0.0
 11
258.6880763237203
 21
72.44118234215682
 31
0.0
  0
LINE
  5
2FA
  8
_0-0_
  6
CONTINUOUS
 62
     7
 10
260.3846540675029
 20
72.44118234215705
 30
0.0
 11
260.3846540675029
 21
74.94118234215705
 31
0.0
  0
LINE
  5
2FB
  8
_0-0_
  6
CONTINUOUS
 62
     7
 10
256.3846540830286
 20
72.44118234215682
 30
0.0
 11
278.2463583354356
 21
72.44118234215682
 31
0.0
  0
LINE
  5
2FC
  8
_0-0_
  6
CONTINUOUS
 62
     7
 10
278.2463583354356
 20
71.2950727197055
 30
0.0
 11
278.2463583354356
 21
74.9411823421571
 31
0.0
  0
LINE
  5
2FD
  8
_0-0_
  6
CONTINUOUS
 62
     7
 10
272.3846540675029
 20
74.94118234215705
 30
0.0
 11
272.3846540675029
 21
72.44118234215705
 31
0.0
  0
LINE
  5
2FE
  8
_0-0_
  6
CONTINUOUS
 62
     7
 10
275.9169457863389
 20
69.94118234215688
 30
0.0
 11
256.3846540830286
 21
69.94118234215688
 31
0.0
  0
LINE
  5
2FF
  8
_0-0_
  6
CONTINUOUS
 62
     7
 10
265.6425489754754
 20
69.5913724150048
 30
0.0
 11
266.3846540675032
 21
69.3666546153857
 31
0.0
  0
LINE
  5
300
  8
_0-0_
  6
CENTER1
 62
   152
 10
266.3846540675029
 20
55.94118234217831
 30
0.0
 11
266.3846540675029
 21
110.4411823421571
 31
0.0
  0
LINE
  5
301
  8
_0-0_
  6
CONTINUOUS
 62
     7
 10
266.384654067503
 20
112.7602272713063
 30
0.0
 11
267.1609624634604
 21
112.9939824551943
 31
0.0
  0
LINE
  5
302
  8
_0-0_
  6
CONTINUOUS
 62
     7
 10
267.1609624634604
 20
112.9939824551943
 30
0.0
 11
267.9505872694722
 21
113.174471998865
 31
0.0
  0
LINE
  5
303
  8
_0-0_
  6
CONTINUOUS
 62
     7
 10
267.9505872694722
 20
113.174471998865
 30
0.0
 11
268.7603730463634
 21
113.290864092406
 31
0.0
  0
LINE
  5
304
  8
_0-0_
  6
CONTINUOUS
 62
     7
 10
268.7603730463634
 20
113.290864092406
 30
0.0
 11
269.5809040675029
 21
113.3311823421783
 31
0.0
  0
LINE
  5
305
  8
_0-0_
  6
CONTINUOUS
 62
     7
 10
269.5809040675029
 20
113.3311823421783
 30
0.0
 11
269.808150912604
 21
113.3280742758823
 31
0.0
  0
LINE
  5
306
  8
_0-0_
  6
CONTINUOUS
 62
     7
 10
269.808150912604
 20
113.3280742758823
 30
0.0
 11
270.5522205396207
 21
113.2748063058389
 31
0.0
  0
LINE
  5
307
  8
_0-0_
  6
CONTINUOUS
 62
     7
 10
270.5522205396207
 20
113.2748063058389
 30
0.0
 11
271.2949938251586
 21
113.1583235751091
 31
0.0
  0
LINE
  5
308
  8
_0-0_
  6
CONTINUOUS
 62
     7
 10
271.2949938251586
 20
113.1583235751091
 30
0.0
 11
272.0396634535886
 21
112.9835477469816
 31
0.0
  0
LINE
  5
309
  8
_0-0_
  6
CONTINUOUS
 62
     7
 10
272.0396634535886
 20
112.9835477469816
 30
0.0
 11
272.777154067503
 21
112.7602272713063
 31
0.0
  0
LINE
  5
30A
  8
_0-0_
  6
CONTINUOUS
 62
     7
 10
272.7771540675029
 20
113.3311823421783
 30
0.0
 11
272.7771540675029
 21
107.9411823421783
 31
0.0
  0
LINE
  5
30B
  8
_0-0_
  6
CONTINUOUS
 62
     7
 10
272.3846540675029
 20
105.4411823421571
 30
0.0
 11
272.3846540675029
 21
102.941182342157
 31
0.0
  0
LINE
  5
30C
  8
_0-0_
  6
CONTINUOUS
 62
     7
 10
278.2463583354356
 20
102.941182342157
 30
0.0
 11
278.2463583354356
 21
106.5872919646076
 31
0.0
  0
LINE
  5
30D
  8
_0-0_
  6
CONTINUOUS
 62
     7
 10
278.2463583354356
 20
105.4411823421569
 30
0.0
 11
256.3846540830286
 21
105.4411823421569
 31
0.0
  0
LINE
  5
30E
  8
_0-0_
  6
CONTINUOUS
 62
     7
 10
258.6880763237203
 20
105.4411823421569
 30
0.0
 11
258.6880763237203
 21
102.941182342157
 31
0.0
  0
LINE
  5
30F
  8
_0-0_
  6
CONTINUOUS
 62
     7
 10
260.3846540675029
 20
102.941182342157
 30
0.0
 11
260.3846540675029
 21
105.4411823421571
 31
0.0
  0
LINE
  5
310
  8
_0-0_
  6
CONTINUOUS
 62
     7
 10
259.9921540675029
 20
107.9411823421783
 30
0.0
 11
259.9921540675029
 21
113.3311823421783
 31
0.0
  0
LINE
  5
311
  8
_0-0_
  6
CONTINUOUS
 62
     7
 10
259.9921540675029
 20
113.3311823421783
 30
0.0
 11
272.7771540675029
 21
113.3311823421783
 31
0.0
  0
LINE
  5
312
  8
_0-0_
  6
CENTER1
 62
   152
 10
274.8846540845965
 20
114.9411823421568
 30
0.0
 11
255.8846540845965
 21
114.9411823421568
 31
0.0
  0
LINE
  5
313
  8
_0-0_
  6
CONTINUOUS
 62
     7
 10
256.3846540845965
 20
115.9411823421568
 30
0.0
 11
256.3846540845965
 21
102.941182342157
 31
0.0
  0
LINE
  5
314
  8
_0-0_
  6
CONTINUOUS
 62
     7
 10
256.3846540830286
 20
107.9411823421569
 30
0.0
 11
275.9169457863398
 21
107.9411823421569
 31
0.0
  0
LINE
  5
315
  8
_0-0_
  6
CONTINUOUS
 62
     7
 10
266.3846540675029
 20
107.9411823421783
 30
0.0
 11
266.384654067503
 21
112.7602272713063
 31
0.0
  0
LINE
  5
316
  8
_0-0_
  6
CONTINUOUS
 62
     7
 10
266.384654067503
 20
112.7602272713063
 30
0.0
 11
265.6471634535886
 21
112.9835477469816
 31
0.0
  0
LINE
  5
317
  8
_0-0_
  6
CONTINUOUS
 62
     7
 10
265.6471634535886
 20
112.9835477469816
 30
0.0
 11
264.9024938251586
 21
113.1583235751091
 31
0.0
  0
LINE
  5
318
  8
_0-0_
  6
CONTINUOUS
 62
     7
 10
264.9024938251586
 20
113.1583235751091
 30
0.0
 11
264.1597205396207
 21
113.2748063058389
 31
0.0
  0
LINE
  5
319
  8
_0-0_
  6
CONTINUOUS
 62
     7
 10
264.1597205396207
 20
113.2748063058389
 30
0.0
 11
263.415650912604
 21
113.3280742758823
 31
0.0
  0
LINE
  5
31A
  8
_0-0_
  6
CONTINUOUS
 62
     7
 10
263.415650912604
 20
113.3280742758823
 30
0.0
 11
263.1884040675029
 21
113.3311823421783
 31
0.0
  0
LINE
  5
31B
  8
_0-0_
  6
CONTINUOUS
 62
     7
 10
263.1884040675029
 20
113.3311823421783
 30
0.0
 11
262.3678730463634
 21
113.290864092406
 31
0.0
  0
LINE
  5
31C
  8
_0-0_
  6
CONTINUOUS
 62
     7
 10
262.3678730463634
 20
113.290864092406
 30
0.0
 11
261.5580872694723
 21
113.174471998865
 31
0.0
  0
LINE
  5
31D
  8
_0-0_
  6
CONTINUOUS
 62
     7
 10
261.5580872694723
 20
113.174471998865
 30
0.0
 11
260.7684624634604
 21
112.9939824551943
 31
0.0
  0
LINE
  5
31E
  8
_0-0_
  6
CONTINUOUS
 62
     7
 10
260.7684624634604
 20
112.9939824551943
 30
0.0
 11
259.9921540675029
 21
112.7602272713063
 31
0.0
  0
LINE
  5
31F
  8
_0-0_
  6
CONTINUOUS
 62
    56
 10
262.3846540845965
 20
113.3311823421783
 30
0.0
 11
262.3846540845965
 21
116.6732331186384
 31
0.0
  0
LINE
  5
320
  8
_0-0_
  6
CONTINUOUS
 62
    56
 10
262.3846540845965
 20
116.6732331186384
 30
0.0
 11
265.3846540845965
 21
118.40528389512
 31
0.0
  0
LINE
  5
321
  8
_0-0_
  6
CONTINUOUS
 62
    56
 10
265.3846540845965
 20
118.40528389512
 30
0.0
 11
268.3846540845965
 21
116.6732331186384
 31
0.0
  0
LINE
  5
322
  8
_0-0_
  6
CONTINUOUS
 62
    56
 10
268.3846540845965
 20
116.6732331186384
 30
0.0
 11
268.3846540845965
 21
113.3311823421783
 31
0.0
  0
LINE
  5
323
  8
_0-0_
  6
CENTER1
 62
   152
 10
265.3846540845965
 20
105.4411823421568
 30
0.0
 11
265.3846540845965
 21
124.4411823421568
 31
0.0
  0
LINE
  5
324
  8
_0-0_
  6
CONTINUOUS
 62
     7
 10
264.3846540845965
 20
123.9411823421568
 30
0.0
 11
318.3846540845961
 21
123.9411823421568
 31
0.0
  0
LINE
  5
325
  8
_0-0_
  6
CENTER1
 62
   152
 10
317.3846540845961
 20
124.4411823421568
 30
0.0
 11
317.3846540845961
 21
105.4411823421568
 31
0.0
  0
LINE
  5
326
  8
_0-0_
  6
CONTINUOUS
 62
    56
 10
317.3846540845961
 20
111.4770807891935
 30
0.0
 11
314.3846540845961
 21
113.2091315656751
 31
0.0
  0
LINE
  5
327
  8
_0-0_
  6
CONTINUOUS
 62
    56
 10
314.3846540845961
 20
113.2091315656751
 30
0.0
 11
314.3846540845961
 21
116.6732331186384
 31
0.0
  0
LINE
  5
328
  8
_0-0_
  6
CONTINUOUS
 62
    56
 10
314.3846540845961
 20
116.6732331186384
 30
0.0
 11
317.3846540845961
 21
118.40528389512
 31
0.0
  0
LINE
  5
329
  8
_0-0_
  6
CONTINUOUS
 62
    56
 10
317.3846540845961
 20
118.40528389512
 30
0.0
 11
320.3846540845961
 21
116.6732331186384
 31
0.0
  0
LINE
  5
32A
  8
_0-0_
  6
CONTINUOUS
 62
    56
 10
320.3846540845961
 20
116.6732331186384
 30
0.0
 11
320.3846540845961
 21
113.2091315656751
 31
0.0
  0
LINE
  5
32B
  8
_0-0_
  6
CONTINUOUS
 62
    56
 10
320.3846540845961
 20
113.2091315656751
 30
0.0
 11
317.3846540845961
 21
111.4770807891935
 31
0.0
  0
LINE
  5
32C
  8
_0-0_
  6
CENTER1
 62
   152
 10
326.8846540845961
 20
114.9411823421568
 30
0.0
 11
307.8846540845961
 21
114.9411823421568
 31
0.0
  0
LINE
  5
32D
  8
_0-0_
  6
CONTINUOUS
 62
     7
 10
326.3846540845961
 20
115.9411823421568
 30
0.0
 11
326.3846540845961
 21
61.94118234215648
 31
0.0
  0
LINE
  5
32E
  8
_0-0_
  6
CENTER1
 62
   152
 10
326.8846540845961
 20
62.94118234215648
 30
0.0
 11
307.8846540845961
 21
62.94118234215648
 31
0.0
  0
LINE
  5
32F
  8
_0-0_
  6
CONTINUOUS
 62
    56
 10
314.3846540845961
 20
64.67323311863811
 30
0.0
 11
317.3846540845961
 21
66.40528389511974
 31
0.0
  0
LINE
  5
330
  8
_0-0_
  6
CONTINUOUS
 62
    56
 10
317.3846540845961
 20
66.40528389511974
 30
0.0
 11
320.3846540845961
 21
64.67323311863811
 31
0.0
  0
LINE
  5
331
  8
_0-0_
  6
CONTINUOUS
 62
    56
 10
320.3846540845961
 20
64.67323311863811
 30
0.0
 11
320.3846540845961
 21
61.20913156567485
 31
0.0
  0
LINE
  5
332
  8
_0-0_
  6
CONTINUOUS
 62
    56
 10
320.3846540845961
 20
61.20913156567485
 30
0.0
 11
317.3846540845961
 21
59.47708078919322
 31
0.0
  0
LINE
  5
333
  8
_0-0_
  6
CONTINUOUS
 62
    56
 10
317.3846540845961
 20
59.47708078919322
 30
0.0
 11
314.3846540845961
 21
61.20913156567485
 31
0.0
  0
LINE
  5
334
  8
_0-0_
  6
CONTINUOUS
 62
    56
 10
314.3846540845961
 20
61.20913156567485
 30
0.0
 11
314.3846540845961
 21
64.67323311863811
 31
0.0
  0
LINE
  5
335
  8
_0-0_
  6
CENTER1
 62
   152
 10
317.3846540845961
 20
72.44118234215648
 30
0.0
 11
317.3846540845961
 21
53.44118234215648
 31
0.0
  0
LINE
  5
336
  8
_0-0_
  6
CONTINUOUS
 62
     7
 10
332.3846540675029
 20
57.94118234215659
 30
0.0
 11
332.3846540675029
 21
153.9411743421566
 31
0.0
  0
LINE
  5
337
  8
_0-0_
  6
CONTINUOUS
 62
     7
 10
332.3846540675029
 20
153.9411823421566
 30
0.0
 11
222.1681072138142
 21
153.9411823421566
 31
0.0
  0
LINE
  5
338
  8
_0-0_
  6
CONTINUOUS
 62
     7
 10
228.1708990750602
 20
150.7411823421565
 30
0.0
 11
332.3846540675029
 21
150.7411823421565
 31
0.0
  0
LINE
  5
339
  8
_0-0_
  6
CONTINUOUS
 62
    56
 10
325.3846540675029
 20
144.595882859811
 30
0.0
 11
325.3846540675029
 21
142.2864818245022
 31
0.0
  0
LINE
  5
33A
  8
_0-0_
  6
CONTINUOUS
 62
    56
 10
325.3846540675029
 20
142.2864818245022
 30
0.0
 11
323.3846540675029
 21
141.1317813068478
 31
0.0
  0
LINE
  5
33B
  8
_0-0_
  6
CONTINUOUS
 62
    56
 10
323.3846540675029
 20
141.1317813068478
 30
0.0
 11
321.3846540675029
 21
142.2864818245022
 31
0.0
  0
LINE
  5
33C
  8
_0-0_
  6
CONTINUOUS
 62
    56
 10
321.3846540675029
 20
142.2864818245022
 30
0.0
 11
321.3846540675029
 21
144.595882859811
 31
0.0
  0
LINE
  5
33D
  8
_0-0_
  6
CONTINUOUS
 62
    56
 10
321.3846540675029
 20
144.595882859811
 30
0.0
 11
323.3846540675029
 21
145.7505833774654
 31
0.0
  0
LINE
  5
33E
  8
_0-0_
  6
CONTINUOUS
 62
    56
 10
323.3846540675029
 20
145.7505833774654
 30
0.0
 11
325.3846540675029
 21
144.595882859811
 31
0.0
  0
LINE
  5
33F
  8
_0-1_
  6
CENTER1
 62
   152
 10
326.1346540675029
 20
143.4411823421566
 30
0.0
 11
320.6346540675025
 21
143.4411823421566
 31
0.0
  0
LINE
  5
340
  8
_0-1_
  6
CENTER1
 62
   152
 10
323.3846540675029
 20
140.8411823421567
 30
0.0
 11
323.3846540675029
 21
146.0411823421565
 31
0.0
  0
LINE
  5
341
  8
_0-0_
  6
CENTER1
 62
   152
 10
320.8846540845974
 20
88.9411823421566
 30
0.0
 11
261.8846540845973
 21
88.9411823421566
 31
0.0
  0
LINE
  5
342
  8
_0-0_
  6
CONTINUOUS
 62
     7
 10
243.3846540675029
 20
74.94118234215705
 30
0.0
 11
289.3846540675029
 21
74.94118234215705
 31
0.0
  0
LINE
  5
343
  8
_0-0_
  6
CONTINUOUS
 62
     7
 10
291.3846540675029
 20
76.94118234215705
 30
0.0
 11
291.3846540675029
 21
100.9411823421571
 31
0.0
  0
LINE
  5
344
  8
_0-0_
  6
CONTINUOUS
 62
     7
 10
289.3846540675029
 20
102.941182342157
 30
0.0
 11
243.3846540675029
 21
102.941182342157
 31
0.0
  0
LINE
  5
345
  8
_0-0_
  6
CONTINUOUS
 62
     7
 10
241.3846540675029
 20
100.9411823421571
 30
0.0
 11
241.3846540675029
 21
76.94118234215705
 31
0.0
  0
LINE
  5
346
  8
_0-0_
  6
CONTINUOUS
 62
    56
 10
238.8846540675025
 20
120.7864738245022
 30
0.0
 11
238.8846540675025
 21
123.095874859811
 31
0.0
  0
LINE
  5
347
  8
_0-0_
  6
CONTINUOUS
 62
    56
 10
238.8846540675025
 20
123.095874859811
 30
0.0
 11
236.8846540675025
 21
124.2505753774655
 31
0.0
  0
LINE
  5
348
  8
_0-0_
  6
CONTINUOUS
 62
    56
 10
236.8846540675025
 20
124.2505753774655
 30
0.0
 11
234.8846540675025
 21
123.095874859811
 31
0.0
  0
LINE
  5
349
  8
_0-0_
  6
CONTINUOUS
 62
    56
 10
234.8846540675025
 20
123.095874859811
 30
0.0
 11
234.8846540675025
 21
120.7864738245022
 31
0.0
  0
LINE
  5
34A
  8
_0-0_
  6
CONTINUOUS
 62
    56
 10
234.8846540675025
 20
120.7864738245022
 30
0.0
 11
236.8846540675025
 21
119.6317733068478
 31
0.0
  0
LINE
  5
34B
  8
_0-0_
  6
CONTINUOUS
 62
    56
 10
236.8846540675025
 20
119.6317733068478
 30
0.0
 11
238.8846540675025
 21
120.7864738245022
 31
0.0
  0
LINE
  5
34C
  8
_0-1_
  6
CENTER1
 62
   152
 10
239.4846540675024
 20
121.9411743421566
 30
0.0
 11
234.2846540675026
 21
121.9411743421566
 31
0.0
  0
LINE
  5
34D
  8
_0-1_
  6
CENTER1
 62
   152
 10
236.8846540675025
 20
119.1911743421566
 30
0.0
 11
236.8846540675025
 21
124.6911743421566
 31
0.0
  0
LINE
  5
34E
  8
_0-0_
  6
CONTINUOUS
 62
    56
 10
256.3846540675029
 20
142.2864818245022
 30
0.0
 11
256.3846540675029
 21
144.595882859811
 31
0.0
  0
LINE
  5
34F
  8
_0-0_
  6
CONTINUOUS
 62
    56
 10
256.3846540675029
 20
144.595882859811
 30
0.0
 11
258.3846540675029
 21
145.7505833774654
 31
0.0
  0
LINE
  5
350
  8
_0-0_
  6
CONTINUOUS
 62
    56
 10
258.3846540675029
 20
145.7505833774654
 30
0.0
 11
260.3846540675029
 21
144.595882859811
 31
0.0
  0
LINE
  5
351
  8
_0-0_
  6
CONTINUOUS
 62
    56
 10
260.3846540675029
 20
144.595882859811
 30
0.0
 11
260.3846540675029
 21
142.2864818245022
 31
0.0
  0
LINE
  5
352
  8
_0-0_
  6
CONTINUOUS
 62
    56
 10
260.3846540675029
 20
142.2864818245022
 30
0.0
 11
258.3846540675029
 21
141.1317813068478
 31
0.0
  0
LINE
  5
353
  8
_0-0_
  6
CONTINUOUS
 62
    56
 10
258.3846540675029
 20
141.1317813068478
 30
0.0
 11
256.3846540675029
 21
142.2864818245022
 31
0.0
  0
LINE
  5
354
  8
_0-1_
  6
CENTER1
 62
   152
 10
255.6346540675025
 20
143.4411823421566
 30
0.0
 11
261.1346540675029
 21
143.4411823421566
 31
0.0
  0
LINE
  5
355
  8
_0-1_
  6
CENTER1
 62
   152
 10
258.3846540675029
 20
140.8411823421567
 30
0.0
 11
258.3846540675029
 21
146.0411823421565
 31
0.0
  0
LINE
  5
356
  8
_0-0_
  6
CENTER1
 62
   152
 10
291.3846540845973
 20
118.4411823421567
 30
0.0
 11
291.3846540845973
 21
59.44118234215648
 31
0.0
  0
LINE
  5
357
  8
_0-0_
  6
CENTER1
 62
   152
 10
291.3846540675029
 20
247.6753188762012
 30
0.0
 11
291.3846540675029
 21
273.1753188762008
 31
0.0
  0
LINE
  5
358
  8
_0-1_
  6
CENTER1
 62
   152
 10
70.14935708077769
 20
482.378767689113
 30
0.0
 11
64.64935708077724
 21
482.378767689113
 31
0.0
  0
LINE
  5
359
  8
_0-1_
  6
CENTER1
 62
   152
 10
67.39935708077769
 20
479.7787676891131
 30
0.0
 11
67.39935708077769
 21
484.9787676891129
 31
0.0
  0
LINE
  5
35A
  8
_0-1_
  6
CENTER1
 62
   152
 10
45.89935708077724
 20
463.628767689113
 30
0.0
 11
45.89935708077724
 21
458.128767689113
 31
0.0
  0
LINE
  5
35B
  8
_0-1_
  6
CENTER1
 62
   152
 10
43.29935708077733
 20
460.878767689113
 30
0.0
 11
48.49935708077714
 21
460.878767689113
 31
0.0
  0
LINE
  5
35C
  8
_0-1_
  6
CENTER1
 62
   152
 10
32.89935708077769
 20
473.878767689113
 30
0.0
 11
16.89935708077724
 21
473.878767689113
 31
0.0
  0
LINE
  5
35D
  8
_0-1_
  6
CENTER1
 62
   152
 10
24.89935708077769
 20
465.878767689113
 30
0.0
 11
24.89935708077769
 21
481.878767689113
 31
0.0
  0
ARC
  5
35E
  8
_0-0_
  6
CONTINUOUS
 62
     7
 10
326.3846540675029
 20
264.8753188762007
 30
0.0
 40
6.0
 50
270.0
 51
0.0
  0
ARC
  5
35F
  8
_0-0_
  6
CONTINUOUS
 62
     7
 10
208.3846540675029
 20
264.8753188762007
 30
0.0
 40
6.0
 50
180.0
 51
270.0
  0
ARC
  5
360
  8
_0-0_
  6
CONTINUOUS
 62
     7
 10
152.8997011208276
 20
270.1253188762007
 30
0.0
 40
3.75
 50
0.0
 51
90.0
  0
ARC
  5
361
  8
_0-0_
  6
CONTINUOUS
 62
     7
 10
152.9497011208275
 20
270.1753188762007
 30
0.0
 40
0.5
 50
0.0
 51
90.0
  0
ARC
  5
362
  8
_0-0_
  6
CONTINUOUS
 62
     7
 10
322.3846540675029
 20
57.94118234215659
 30
0.0
 40
10.0
 50
270.0
 51
0.0
  0
ARC
  5
363
  8
_0-0_
  6
CONTINUOUS
 62
     7
 10
236.3867240675029
 20
57.94118234215659
 30
0.0
 40
9.999999999999996
 50
200.0
 51
270.0
  0
ARC
  5
364
  8
_0-0_
  6
CONTINUOUS
 62
     7
 10
131.3993570807777
 20
396.878775689113
 30
0.0
 40
10.0
 50
270.0
 51
0.0
  0
ARC
  5
365
  8
_0-0_
  6
CONTINUOUS
 62
     7
 10
21.39935708077769
 20
462.8239286891131
 30
0.0
 40
10.0
 50
180.0
 51
200.0
  0
ARC
  5
366
  8
_0-0_
  6
CONTINUOUS
 62
     7
 10
45.40142708077769
 20
396.878775689113
 30
0.0
 40
10.0
 50
200.0000000000001
 51
270.0
  0
CIRCLE
  5
367
  8
_0-0_
  6
CONTINUOUS
 62
     7
 10
45.89935708077724
 20
460.878767689113
 30
0.0
 40
2.75
  0
CIRCLE
  5
368
  8
_0-0_
  6
CONTINUOUS
 62
     7
 10
45.89935708077724
 20
395.878775689113
 30
0.0
 40
2.75
  0
CIRCLE
  5
369
  8
_0-0_
  6
CONTINUOUS
 62
     7
 10
67.39935708077769
 20
482.378767689113
 30
0.0
 40
2.75
  0
CIRCLE
  5
36A
  8
_0-0_
  6
CONTINUOUS
 62
     7
 10
132.3993570807777
 20
482.378767689113
 30
0.0
 40
2.75
  0
CIRCLE
  5
36B
  8
_0-0_
  6
CONTINUOUS
 62
     7
 10
74.39935708077724
 20
453.878767689113
 30
0.0
 40
4.1
  0
CIRCLE
  5
36C
  8
_0-0_
  6
CONTINUOUS
 62
     7
 10
74.39935708077724
 20
401.878775689113
 30
0.0
 40
4.1
  0
CIRCLE
  5
36D
  8
_0-0_
  6
CONTINUOUS
 62
     7
 10
126.3993570807777
 20
401.878775689113
 30
0.0
 40
4.1
  0
CIRCLE
  5
36E
  8
_0-0_
  6
CONTINUOUS
 62
     7
 10
126.3993570807777
 20
453.878767689113
 30
0.0
 40
4.1
  0
CIRCLE
  5
36F
  8
_0-0_
  6
CONTINUOUS
 62
     7
 10
24.89935708077769
 20
473.878767689113
 30
0.0
 40
5.05
  0
CIRCLE
  5
370
  8
_0-0_
  6
CONTINUOUS
 62
     7
 10
24.89935708077769
 20
473.878767689113
 30
0.0
 40
8.0
  0
ARC
  5
371
  8
_0-0_
  6
CONTINUOUS
 62
     7
 10
185.6158958111803
 20
489.128767689113
 30
0.0
 40
3.75
 50
0.0
 51
90.0
  0
ARC
  5
372
  8
_0-0_
  6
CONTINUOUS
 62
     7
 10
185.6658958111803
 20
489.178767689113
 30
0.0
 40
0.5
 50
359.9999999999935
 51
90.0
  0
ARC
  5
373
  8
_0-0_
  6
CONTINUOUS
 62
     7
 10
297.3324345415829
 20
396.878775689113
 30
0.0
 40
10.0
 50
180.0
 51
270.0
  0
ARC
  5
374
  8
_0-0_
  6
CONTINUOUS
 62
     7
 10
407.332434541583
 20
462.8239286891131
 30
0.0
 40
10.00000000000003
 50
340.0000000000003
 51
0.0
  0
ARC
  5
375
  8
_0-0_
  6
CONTINUOUS
 62
     7
 10
383.330364541583
 20
396.878775689113
 30
0.0
 40
10.0
 50
270.0
 51
340.0000000000001
  0
CIRCLE
  5
376
  8
_0-0_
  6
CONTINUOUS
 62
     7
 10
382.8324345415834
 20
460.878767689113
 30
0.0
 40
2.75
  0
CIRCLE
  5
377
  8
_0-0_
  6
CONTINUOUS
 62
     7
 10
382.8324345415834
 20
395.878775689113
 30
0.0
 40
2.75
  0
CIRCLE
  5
378
  8
_0-0_
  6
CONTINUOUS
 62
     7
 10
361.332434541583
 20
482.378767689113
 30
0.0
 40
2.75
  0
CIRCLE
  5
379
  8
_0-0_
  6
CONTINUOUS
 62
     7
 10
296.3324345415829
 20
482.378767689113
 30
0.0
 40
2.75
  0
CIRCLE
  5
37A
  8
_0-0_
  6
CONTINUOUS
 62
     7
 10
354.3324345415834
 20
453.878767689113
 30
0.0
 40
4.1
  0
CIRCLE
  5
37B
  8
_0-0_
  6
CONTINUOUS
 62
     7
 10
354.3324345415834
 20
401.878775689113
 30
0.0
 40
4.1
  0
CIRCLE
  5
37C
  8
_0-0_
  6
CONTINUOUS
 62
     7
 10
302.3324345415829
 20
401.878775689113
 30
0.0
 40
4.1
  0
CIRCLE
  5
37D
  8
_0-0_
  6
CONTINUOUS
 62
     7
 10
302.3324345415829
 20
453.878767689113
 30
0.0
 40
4.1
  0
CIRCLE
  5
37E
  8
_0-0_
  6
CONTINUOUS
 62
     7
 10
403.832434541583
 20
473.878767689113
 30
0.0
 40
5.05
  0
CIRCLE
  5
37F
  8
_0-0_
  6
CONTINUOUS
 62
     7
 10
403.832434541583
 20
473.878767689113
 30
0.0
 40
8.0
  0
ARC
  5
380
  8
_0-0_
  6
CONTINUOUS
 62
     7
 10
243.1158958111804
 20
489.128767689113
 30
0.0
 40
3.75
 50
90.0
 51
180.0
  0
ARC
  5
381
  8
_0-0_
  6
CONTINUOUS
 62
     7
 10
243.0658958111804
 20
489.178767689113
 30
0.0
 40
0.5
 50
90.0
 51
180.0000000000065
  0
CIRCLE
  5
382
  8
_0-1_
  6
CONTINUOUS
 62
   152
 10
24.89935708077769
 20
473.878767689113
 30
0.0
 40
6.000000000000001
  0
TEXT
  5
383
  8
_0-1_
 62
     7
 10
71.22563290329026
 20
506.0774953393114
 30
0.0
 40
5.0
  1
(L)
1001
CAXA_DRAFT_TXTSCALE
1041
1.0
  0
CIRCLE
  5
384
  8
_0-1_
  6
CONTINUOUS
 62
   152
 10
403.832434541583
 20
473.878767689113
 30
0.0
 40
6.000000000000001
  0
TEXT
  5
385
  8
_0-1_
 62
     7
 10
350.0061587190704
 20
506.0774953393114
 30
0.0
 40
5.0
  1
(R)
1001
CAXA_DRAFT_TXTSCALE
1041
1.0
  0
TEXT
  5
386
  8
_0-1_
 62
     7
 10
-10.87600808204502
 20
510.1740429144633
 30
0.0
 40
5.0
  1
AP25-M12
1001
CAXA_DRAFT_TXTSCALE
1041
1.0
  0
ARC
  5
387
  8
_0-0_
  6
CONTINUOUS
 62
     7
 10
318.3846540845961
 20
61.94118234215648
 30
0.0
 40
8.0
 50
270.0
 51
0.0000000000000509
  0
ARC
  5
388
  8
_0-0_
  6
CONTINUOUS
 62
     7
 10
318.3846540845961
 20
115.9411823421568
 30
0.0
 40
8.0
 50
359.9999999999999
 51
90.0
  0
ARC
  5
389
  8
_0-0_
  6
CONTINUOUS
 62
     7
 10
264.3846540845965
 20
115.9411823421568
 30
0.0
 40
8.0
 50
90.0
 51
180.0
  0
ARC
  5
38A
  8
_0-0_
  6
CONTINUOUS
 62
     7
 10
264.3846540845965
 20
61.94118234215648
 30
0.0
 40
8.0
 50
180.0
 51
270.0
  0
ARC
  5
38B
  8
_0-0_
  6
CONTINUOUS
 62
     7
 10
270.8846540675029
 20
62.82118234215682
 30
0.0
 40
1.5
 50
270.0
 51
0.0
  0
ARC
  5
38C
  8
_0-0_
  6
CONTINUOUS
 62
     7
 10
261.8846540675029
 20
62.82118234215682
 30
0.0
 40
1.5
 50
180.0
 51
270.0
  0
ARC
  5
38D
  8
_0-0_
  6
CONTINUOUS
 62
     7
 10
289.3846540675029
 20
100.9411823421571
 30
0.0
 40
2.0
 50
0.0
 51
90.0
  0
ARC
  5
38E
  8
_0-0_
  6
CONTINUOUS
 62
     7
 10
243.3846540675029
 20
100.9411823421571
 30
0.0
 40
1.999999999999972
 50
90.0
 51
180.0000000000004
  0
ARC
  5
38F
  8
_0-0_
  6
CONTINUOUS
 62
     7
 10
289.3846540675029
 20
76.94118234215705
 30
0.0
 40
1.999999999999972
 50
270.0
 51
359.9999999999996
  0
ARC
  5
390
  8
_0-0_
  6
CONTINUOUS
 62
     7
 10
243.3846540675029
 20
76.94118234215705
 30
0.0
 40
1.999999999999972
 50
179.9999999999996
 51
270.0
  0
ARC
  5
391
  8
_0-0_
  6
CONTINUOUS
 62
     7
 10
70.1497011690908
 20
257.6753188279377
 30
0.0
 40
3.000000048263189
 50
90.00000074653734
 51
180.0000019539569
  0
ARC
  5
392
  8
_0-0_
  6
CONTINUOUS
 62
     7
 10
113.1497010725644
 20
257.6753188279377
 30
0.0
 40
3.000000048263189
 50
359.9999987925804
 51
89.99999787082308
  0
ARC
  5
393
  8
_0-0_
  6
CONTINUOUS
 62
     7
 10
68.44970112082729
 20
268.1753188762008
 30
0.0
 40
0.8000000000000256
 50
180.0
 51
270.0
  0
ARC
  5
394
  8
_0-0_
  6
CONTINUOUS
 62
     7
 10
114.8497011208278
 20
268.1753188762008
 30
0.0
 40
0.8000000000000114
 50
270.0
 51
0.0
  0
ARC
  5
395
  8
_0-0_
  6
CONTINUOUS
 62
     7
 10
65.52970112082778
 20
216.1753188563219
 30
0.0
 40
1.5
 50
180.0
 51
270.0
  0
ARC
  5
396
  8
_0-0_
  6
CONTINUOUS
 62
     7
 10
65.52970112082778
 20
225.1753188563219
 30
0.0
 40
1.5
 50
90.0
 51
180.0
  0
ARC
  5
397
  8
_0-0_
  6
CONTINUOUS
 62
     7
 10
103.6497011208281
 20
197.6753188563219
 30
0.0
 40
1.999999999999972
 50
270.0
 51
0.0
  0
ARC
  5
398
  8
_0-0_
  6
CONTINUOUS
 62
     7
 10
103.6497011208281
 20
243.675318856322
 30
0.0
 40
1.999999999999972
 50
0.0000000000008142
 51
90.0
  0
ARC
  5
399
  8
_0-0_
  6
CONTINUOUS
 62
     7
 10
79.64970112082801
 20
197.6753188563219
 30
0.0
 40
1.999999999999972
 50
180.0000000000008
 51
270.0
  0
ARC
  5
39A
  8
_0-0_
  6
CONTINUOUS
 62
     7
 10
79.64970112082801
 20
243.675318856322
 30
0.0
 40
1.999999999999972
 50
90.0
 51
179.9999999999992
  0
ARC
  5
39B
  8
_0-0_
  6
CONTINUOUS
 62
     7
 10
266.3846540504096
 20
220.6753188563218
 30
0.0
 40
9.999999984475457
 50
175.6170557896671
 51
283.0000001210521
  0
ARC
  5
39C
  8
_0-0_
  6
CONTINUOUS
 62
     7
 10
272.127978144449
 20
222.0012697168938
 30
0.0
 40
10.00000000000036
 50
282.9999999999992
 51
292.2653623190223
  0
ARC
  5
39D
  8
_0-0_
  6
CONTINUOUS
 62
     7
 10
266.3846540504085
 20
220.6753188563219
 30
0.0
 40
6.39250000000002
 50
239.9999999999999
 51
300.0000000000001
  0
ARC
  5
39E
  8
_0-0_
  6
CONTINUOUS
 62
     7
 10
266.3846540504085
 20
220.6753188563219
 30
0.0
 40
6.39250000000002
 50
300.0000000000001
 51
0.0
  0
ARC
  5
39F
  8
_0-0_
  6
CONTINUOUS
 62
     7
 10
266.3846540504085
 20
220.6753188563219
 30
0.0
 40
6.392500000000041
 50
180.0
 51
240.0
  0
ARC
  5
3A0
  8
_0-0_
  6
CONTINUOUS
 62
     7
 10
266.3846540504085
 20
220.6753188563219
 30
0.0
 40
6.39250000000002
 50
120.0000000000002
 51
180.0000000000002
  0
ARC
  5
3A1
  8
_0-0_
  6
CONTINUOUS
 62
     7
 10
266.3846540504085
 20
220.6753188563219
 30
0.0
 40
6.392500000000041
 50
0.0
 51
59.99999999999946
  0
ARC
  5
3A2
  8
_0-0_
  6
CONTINUOUS
 62
     7
 10
266.3846540504085
 20
220.6753188563219
 30
0.0
 40
6.39250000000002
 50
60.00000000000009
 51
120.0000000000008
  0
ARC
  5
3A3
  8
_0-0_
  6
CONTINUOUS
 62
     7
 10
266.3846540504085
 20
220.6753188563219
 30
0.0
 40
18.0
 50
119.3660442050685
 51
7.340078480236865
  0
ARC
  5
3A4
  8
_0-0_
  6
CONTINUOUS
 62
     7
 10
266.3846540504085
 20
220.6753188563219
 30
0.0
 40
25.00000000000002
 50
109.195234107995
 51
25.0797596299393
  0
ARC
  5
3A5
  8
_0-0_
  6
CONTINUOUS
 62
     7
 10
269.884654115766
 20
257.6753188279377
 30
0.0
 40
3.000000048263209
 50
156.4218209183717
 51
180.0000012074206
  0
ARC
  5
3A6
  8
_0-0_
  6
CONTINUOUS
 62
     7
 10
312.8846540192398
 20
257.6753188279377
 30
0.0
 40
3.000000048263189
 50
359.9999987925816
 51
23.57817695245416
  0
TEXT
  5
3A7
  8
_0-1_
 62
     7
 10
166.011016526456
 20
165.0448482835908
 30
0.0
 40
5.0
  1
AS25B-M12
1001
CAXA_DRAFT_TXTSCALE
1041
1.0
  0
CIRCLE
  5
3A8
  8
_0-0_
  6
CONTINUOUS
 62
    56
 10
258.3846540675029
 20
143.4411823421566
 30
0.0
 40
4.25
  0
CIRCLE
  5
3A9
  8
_0-0_
  6
CONTINUOUS
 62
    56
 10
323.3846540675029
 20
143.4411823421566
 30
0.0
 40
4.25
  0
CIRCLE
  5
3AA
  8
_0-0_
  6
CONTINUOUS
 62
    56
 10
236.8846540675025
 20
56.94118234215659
 30
0.0
 40
4.25
  0
CIRCLE
  5
3AB
  8
_0-0_
  6
CONTINUOUS
 62
    56
 10
236.8846540675025
 20
121.9411743421566
 30
0.0
 40
4.25
  0
CIRCLE
  5
3AC
  8
_0-0_
  6
CONTINUOUS
 62
    56
 10
317.3846540845961
 20
62.94118234215648
 30
0.0
 40
6.5
  0
CIRCLE
  5
3AD
  8
_0-0_
  6
CONTINUOUS
 62
    56
 10
317.3846540845961
 20
62.94118234215648
 30
0.0
 40
8.895000458
  0
CIRCLE
  5
3AE
  8
_0-0_
  6
CONTINUOUS
 62
    56
 10
317.3846540845961
 20
114.9411823421568
 30
0.0
 40
6.5
  0
CIRCLE
  5
3AF
  8
_0-0_
  6
CONTINUOUS
 62
    56
 10
317.3846540845961
 20
114.9411823421568
 30
0.0
 40
8.895000458
  0
ARC
  5
3B0
  8
_0-0_
  6
CONTINUOUS
 62
     7
 10
291.3846540845973
 20
88.9411823421566
 30
0.0
 40
24.5
 50
230.8513123577458
 51
129.1486876422517
  0
ARC
  5
3B1
  8
_0-0_
  6
CONTINUOUS
 62
     7
 10
291.3846540845973
 20
88.9411823421566
 30
0.0
 40
22.0
 50
233.3307139721258
 51
126.6692860278742
  0
ARC
  5
3B2
  8
_0-0_
  6
CONTINUOUS
 62
     7
 10
291.3846540845973
 20
88.9411823421566
 30
0.0
 40
19.5
 50
227.6421654680839
 51
132.3578345319162
  0
ARC
  5
3B3
  8
_0-0_
  6
CONTINUOUS
 62
    56
 10
265.3846540845965
 20
114.9411823421568
 30
0.0
 40
8.895000457999995
 50
326.210338523071
 51
232.3908847408229
  0
ARC
  5
3B4
  8
_0-0_
  6
CONTINUOUS
 62
    56
 10
265.3846540845965
 20
114.9411823421568
 30
0.0
 40
6.499999999999994
 50
343.3940043313848
 51
213.940750774828
  0
ARC
  5
3B5
  8
_0-0_
  6
CONTINUOUS
 62
    56
 10
265.3846540845965
 20
62.94118234215648
 30
0.0
 40
8.895000458
 50
127.6427641476505
 51
33.32353811802304
  0
ARC
  5
3B6
  8
_0-0_
  6
CONTINUOUS
 62
    56
 10
265.3846540845965
 20
62.94118234215648
 30
0.0
 40
6.500000000000011
 50
146.6960211922285
 51
348.0107617311738
  0
CIRCLE
  5
3B7
  8
_0-8_
  6
CONTINUOUS
 62
     7
 10
215.8938192148526
 20
134.9411823421566
 30
0.0
 40
20.00916514734968
  0
CIRCLE
  5
3B8
  8
_0-8_
  6
CONTINUOUS
 62
     7
 10
215.8938192148526
 20
134.9411823421566
 30
0.0
 40
19.40916514734968
  0
CIRCLE
  5
3B9
  8
_0-8_
  6
CONTINUOUS
 62
     7
 10
215.8938192148526
 20
134.9411823421566
 30
0.0
 40
18.00916514734968
  0
CIRCLE
  5
3BA
  8
_0-8_
  6
CONTINUOUS
 62
     7
 10
215.8938192148526
 20
134.9411823421566
 30
0.0
 40
5.05
  0
CIRCLE
  5
3BB
  8
_0-8_
  6
CONTINUOUS
 62
     7
 10
215.8938192148526
 20
134.9411823421566
 30
0.0
 40
8.0
  0
CIRCLE
  5
3BC
  8
_0-8_
  6
CONTINUOUS
 62
   152
 10
215.8938192148526
 20
134.9411823421566
 30
0.0
 40
6.000000000000001
  0
LINE
  5
3BD
  8
_0-9_
  6
PHANTOM1
 62
   152
 10
117.6497011208276
 20
184.3753188762003
 30
0.0
 11
117.6497011208276
 21
179.3753188762003
 31
0.0
  0
LINE
  5
3BE
  8
_0-9_
  6
PHANTOM1
 62
   152
 10
157.6497011208276
 20
179.3753188762003
 30
0.0
 11
157.6497011208276
 21
184.3753188762003
 31
0.0
  0
LINE
  5
3BF
  8
_0-9_
  6
PHANTOM1
 62
   152
 10
157.049701120827
 20
179.3753188762003
 30
0.0
 11
157.049701120827
 21
176.8753188762003
 31
0.0
  0
LINE
  5
3C0
  8
_0-9_
  6
PHANTOM1
 62
   152
 10
118.2497011208281
 20
176.8753188762003
 30
0.0
 11
118.2497011208281
 21
179.3753188762003
 31
0.0
  0
LINE
  5
3C1
  8
_0-9_
  6
PHANTOM1
 62
   152
 10
119.6497011208269
 20
176.8753188762003
 30
0.0
 11
119.6497011208269
 21
173.8753188762007
 31
0.0
  0
LINE
  5
3C2
  8
_0-9_
  6
PHANTOM1
 62
   152
 10
119.6497011208269
 20
173.8753188762007
 30
0.0
 11
155.6497011208282
 21
173.8753188762007
 31
0.0
  0
LINE
  5
3C3
  8
_0-9_
  6
PHANTOM1
 62
   152
 10
155.6497011208282
 20
173.8753188762007
 30
0.0
 11
155.6497011208282
 21
176.8753188762003
 31
0.0
  0
LINE
  5
3C4
  8
_0-9_
  6
PHANTOM1
 62
   152
 10
117.6497011208276
 20
179.3753188762003
 30
0.0
 11
118.2497011208281
 21
179.3753188762003
 31
0.0
  0
LINE
  5
3C5
  8
_0-9_
  6
PHANTOM1
 62
   152
 10
157.049701120827
 20
179.3753188762003
 30
0.0
 11
157.6497011208276
 21
179.3753188762003
 31
0.0
  0
LINE
  5
3C6
  8
_0-9_
  6
PHANTOM1
 62
   152
 10
157.049701120827
 20
176.8753188762003
 30
0.0
 11
155.6497011208282
 21
176.8753188762003
 31
0.0
  0
LINE
  5
3C7
  8
_0-9_
  6
PHANTOM1
 62
   152
 10
119.6497011208269
 20
176.8753188762003
 30
0.0
 11
118.2497011208281
 21
176.8753188762003
 31
0.0
  0
LINE
  5
3C8
  8
_0-9_
  6
PHANTOM1
 62
   152
 10
143.6497011208278
 20
324.5753188762008
 30
0.0
 11
142.6497011208276
 21
325.575318876201
 31
0.0
  0
LINE
  5
3C9
  8
_0-9_
  6
PHANTOM1
 62
   152
 10
142.6497011208276
 20
325.575318876201
 30
0.0
 11
132.6497011208276
 21
325.575318876201
 31
0.0
  0
LINE
  5
3CA
  8
_0-9_
  6
PHANTOM1
 62
   152
 10
132.6497011208276
 20
325.575318876201
 30
0.0
 11
131.6497011208273
 21
324.5753188762008
 31
0.0
  0
LINE
  5
3CB
  8
_0-9_
  6
PHANTOM1
 62
   152
 10
143.6497011208278
 20
297.3571768384741
 30
0.0
 11
143.6497011208278
 21
324.5753188762008
 31
0.0
  0
LINE
  5
3CC
  8
_0-9_
  6
PHANTOM1
 62
   152
 10
131.6497011208273
 20
324.5753188762008
 30
0.0
 11
131.6497011208273
 21
297.3571768384741
 31
0.0
  0
LINE
  5
3CD
  8
_0-1_
  6
CENTER1
 62
   152
 10
137.6497011208276
 20
173.8753188762007
 30
0.0
 11
137.6497011208276
 21
325.575318876201
 31
0.0
  0
LINE
  5
3CE
  8
_0-1_
  6
CENTER1
 62
   152
 10
215.8846540675029
 20
173.8753191146193
 30
0.0
 11
215.8846540675029
 21
325.5753191146196
 31
0.0
  0
LINE
  5
3CF
  8
_0-8_
  6
CONTINUOUS
 62
     7
 10
137.6497011208276
 20
188.8753188762007
 30
0.0
 11
352.0704313954946
 21
188.8753188762007
 31
0.0
  0
LINE
  5
3D0
  8
_0-8_
  6
CONTINUOUS
 62
   152
 10
143.6497011208278
 20
287.8753188762005
 30
0.0
 11
131.6497011208273
 21
287.8753188762005
 31
0.0
  0
LINE
  5
3D1
  8
_0-8_
  6
CONTINUOUS
 62
   152
 10
117.6497011208276
 20
199.2753188762006
 30
0.0
 11
157.6497011208276
 21
199.2753188762006
 31
0.0
  0
LINE
  5
3D2
  8
_0-8_
  6
CONTINUOUS
 62
     7
 10
155.6497011208282
 20
188.8753188762007
 30
0.0
 11
119.649701120828
 21
188.8753188762007
 31
0.0
  0
LINE
  5
3D3
  8
_0-8_
  6
CONTINUOUS
 62
     7
 10
132.6497011208276
 20
288.8753188762007
 30
0.0
 11
142.6497011208276
 21
288.8753188762007
 31
0.0
  0
LINE
  5
3D4
  8
_0-8_
  6
CONTINUOUS
 62
     7
 10
142.6497011208276
 20
288.8753188762007
 30
0.0
 11
143.6497011208278
 21
287.8753188762005
 31
0.0
  0
LINE
  5
3D5
  8
_0-8_
  6
CONTINUOUS
 62
     7
 10
131.6497011208273
 20
287.8753188762005
 30
0.0
 11
132.6497011208276
 21
288.8753188762007
 31
0.0
  0
LINE
  5
3D6
  8
_0-8_
  6
CONTINUOUS
 62
     7
 10
157.6497011208276
 20
194.2753188762009
 30
0.0
 11
117.6497011208276
 21
194.2753188762009
 31
0.0
  0
LINE
  5
3D7
  8
_0-8_
  6
CONTINUOUS
 62
     7
 10
155.6497011208282
 20
191.7753188762009
 30
0.0
 11
155.6497011208282
 21
188.8753188762007
 31
0.0
  0
LINE
  5
3D8
  8
_0-8_
  6
CONTINUOUS
 62
     7
 10
119.649701120828
 20
188.8753188762007
 30
0.0
 11
119.649701120828
 21
191.7753188762009
 31
0.0
  0
LINE
  5
3D9
  8
_0-8_
  6
CONTINUOUS
 62
     7
 10
120.6497011210784
 20
202.2753188762007
 30
0.0
 11
154.649701120828
 21
202.2753188762007
 31
0.0
  0
LINE
  5
3DA
  8
_0-8_
  6
CONTINUOUS
 62
     7
 10
149.649701120828
 20
202.2753188762007
 30
0.0
 11
149.649701120828
 21
202.6753188762007
 31
0.0
  0
LINE
  5
3DB
  8
_0-8_
  6
CONTINUOUS
 62
     7
 10
149.649701120828
 20
202.6753188762007
 30
0.0
 11
125.6497011208282
 21
202.6753188762007
 31
0.0
  0
LINE
  5
3DC
  8
_0-8_
  6
CONTINUOUS
 62
     7
 10
125.6497011208282
 20
202.6753188762007
 30
0.0
 11
125.6497011208282
 21
202.2753188762007
 31
0.0
  0
LINE
  5
3DD
  8
_0-8_
  6
CONTINUOUS
 62
     7
 10
126.6800460062254
 20
203.4416814864206
 30
0.0
 11
127.3710882804685
 21
203.2812717695983
 31
0.0
  0
LINE
  5
3DE
  8
_0-8_
  6
CONTINUOUS
 62
     7
 10
127.3710882804685
 20
203.2812717695983
 30
0.0
 11
128.0635469048102
 21
203.1607697786819
 31
0.0
  0
LINE
  5
3DF
  8
_0-8_
  6
CONTINUOUS
 62
     7
 10
128.0635469048102
 20
203.1607697786819
 30
0.0
 11
128.7552533767687
 21
203.0864830180101
 31
0.0
  0
LINE
  5
3E0
  8
_0-8_
  6
CONTINUOUS
 62
     7
 10
128.7552533767687
 20
203.0864830180101
 30
0.0
 11
129.4469264502764
 21
203.0624481727031
 31
0.0
  0
LINE
  5
3E1
  8
_0-8_
  6
CONTINUOUS
 62
     7
 10
129.4469264502764
 20
203.0624481727031
 30
0.0
 11
130.1300987925786
 21
203.0894719461579
 31
0.0
  0
LINE
  5
3E2
  8
_0-8_
  6
CONTINUOUS
 62
     7
 10
130.1300987925786
 20
203.0894719461579
 30
0.0
 11
130.8115111510276
 21
203.1650920956147
 31
0.0
  0
LINE
  5
3E3
  8
_0-8_
  6
CONTINUOUS
 62
     7
 10
130.8115111510276
 20
203.1650920956147
 30
0.0
 11
131.4894127676141
 21
203.2844704307868
 31
0.0
  0
LINE
  5
3E4
  8
_0-8_
  6
CONTINUOUS
 62
     7
 10
131.4894127676141
 20
203.2844704307868
 30
0.0
 11
132.1648735635265
 21
203.4416814864206
 31
0.0
  0
LINE
  5
3E5
  8
_0-8_
  6
CONTINUOUS
 62
     7
 10
132.1648735635265
 20
203.4416814864206
 30
0.0
 11
134.575557534208
 21
203.1875786696471
 31
0.0
  0
LINE
  5
3E6
  8
_0-8_
  6
CONTINUOUS
 62
     7
 10
134.575557534208
 20
203.1875786696471
 30
0.0
 11
136.9886574902862
 21
203.0683436776917
 31
0.0
  0
LINE
  5
3E7
  8
_0-8_
  6
CONTINUOUS
 62
     7
 10
136.9886574902862
 20
203.0683436776917
 30
0.0
 11
139.3779397655417
 21
203.1026533071656
 31
0.0
  0
LINE
  5
3E8
  8
_0-8_
  6
CONTINUOUS
 62
     7
 10
139.3779397655417
 20
203.1026533071656
 30
0.0
 11
141.7524567742291
 21
203.2812730633432
 31
0.0
  0
LINE
  5
3E9
  8
_0-8_
  6
CONTINUOUS
 62
     7
 10
141.7524567742291
 20
203.2812730633432
 30
0.0
 11
143.1345286781298
 21
203.4416814864206
 31
0.0
  0
LINE
  5
3EA
  8
_0-8_
  6
CONTINUOUS
 62
     7
 10
143.1345286781298
 20
203.4416814864206
 30
0.0
 11
143.8255709523739
 21
203.2812717695983
 31
0.0
  0
LINE
  5
3EB
  8
_0-8_
  6
CONTINUOUS
 62
     7
 10
143.8255709523739
 20
203.2812717695983
 30
0.0
 11
144.5180295767145
 21
203.1607697786819
 31
0.0
  0
LINE
  5
3EC
  8
_0-8_
  6
CONTINUOUS
 62
     7
 10
144.5180295767145
 20
203.1607697786819
 30
0.0
 11
145.209736048673
 21
203.0864830180101
 31
0.0
  0
LINE
  5
3ED
  8
_0-8_
  6
CONTINUOUS
 62
     7
 10
145.209736048673
 20
203.0864830180101
 30
0.0
 11
145.9014091221807
 21
203.0624481727031
 31
0.0
  0
LINE
  5
3EE
  8
_0-8_
  6
CONTINUOUS
 62
     7
 10
145.9014091221807
 20
203.0624481727031
 30
0.0
 11
146.5845814644829
 21
203.0894719461579
 31
0.0
  0
LINE
  5
3EF
  8
_0-8_
  6
CONTINUOUS
 62
     7
 10
146.5845814644829
 20
203.0894719461579
 30
0.0
 11
147.2659938229319
 21
203.1650920956147
 31
0.0
  0
LINE
  5
3F0
  8
_0-8_
  6
CONTINUOUS
 62
     7
 10
147.2659938229319
 20
203.1650920956147
 30
0.0
 11
147.9438954395184
 21
203.2844704307868
 31
0.0
  0
LINE
  5
3F1
  8
_0-8_
  6
CONTINUOUS
 62
     7
 10
147.9438954395184
 20
203.2844704307868
 30
0.0
 11
148.6193562354308
 21
203.4416814864206
 31
0.0
  0
LINE
  5
3F2
  8
_0-8_
  6
CONTINUOUS
 62
     7
 10
148.6193562354308
 20
203.4416814864206
 30
0.0
 11
145.6497011208282
 21
202.6753188762007
 31
0.0
  0
LINE
  5
3F3
  8
_0-8_
  6
CONTINUOUS
 62
     7
 10
143.1345286781298
 20
203.4416814864206
 30
0.0
 11
143.1345286781298
 21
208.8753188762007
 31
0.0
  0
LINE
  5
3F4
  8
_0-8_
  6
CONTINUOUS
 62
     7
 10
148.6193562354308
 20
208.8753188762007
 30
0.0
 11
126.6800460062254
 21
208.8753188762007
 31
0.0
  0
LINE
  5
3F5
  8
_0-8_
  6
CONTINUOUS
 62
     7
 10
126.6800460062254
 20
208.8753188762007
 30
0.0
 11
126.6800460062254
 21
203.4416814864206
 31
0.0
  0
LINE
  5
3F6
  8
_0-8_
  6
CONTINUOUS
 62
     7
 10
126.6800460062254
 20
203.4416814864206
 30
0.0
 11
129.649701120828
 21
202.6753188762007
 31
0.0
  0
LINE
  5
3F7
  8
_0-8_
  6
CONTINUOUS
 62
     7
 10
132.1648735635265
 20
203.4416814864206
 30
0.0
 11
132.1648735635265
 21
208.8753188762007
 31
0.0
  0
LINE
  5
3F8
  8
_0-8_
  6
CONTINUOUS
 62
     7
 10
148.6193562354308
 20
208.8753188762007
 30
0.0
 11
148.6193562354308
 21
203.4416814864206
 31
0.0
  0
ARC
  5
3F9
  8
_0-8_
  6
CONTINUOUS
 62
     7
 10
120.6497011208282
 20
199.2753188762006
 30
0.0
 40
3.0
 50
90.0
 51
179.9999999999995
  0
ARC
  5
3FA
  8
_0-8_
  6
CONTINUOUS
 62
     7
 10
154.649701120828
 20
199.2753188762006
 30
0.0
 40
2.999999999999972
 50
0.0
 51
90.0
  0
LINE
  5
3FB
  8
_0-8_
  6
CONTINUOUS
 62
     7
 10
117.6497011208276
 20
191.7753188762009
 30
0.0
 11
117.6497011208276
 21
199.2753188762006
 31
0.0
  0
LINE
  5
3FC
  8
_0-8_
  6
CONTINUOUS
 62
     7
 10
117.6497011208276
 20
191.7753188762009
 30
0.0
 11
157.6497011208276
 21
191.7753188762009
 31
0.0
  0
LINE
  5
3FD
  8
_0-8_
  6
CONTINUOUS
 62
     7
 10
157.6497011208276
 20
199.2753188762006
 30
0.0
 11
157.6497011208276
 21
191.7753188762009
 31
0.0
  0
LINE
  5
3FE
  8
_0-8_
  6
CONTINUOUS
 62
   152
 10
132.3997011208273
 20
208.8753188762007
 30
0.0
 11
132.3997011208273
 21
246.6753188762007
 31
0.0
  0
LINE
  5
3FF
  8
_0-8_
  6
CONTINUOUS
 62
   152
 10
142.8997011208278
 20
208.8753188762007
 30
0.0
 11
142.8997011208278
 21
246.6753188762007
 31
0.0
  0
LINE
  5
400
  8
_0-8_
  6
CONTINUOUS
 62
     7
 10
129.4224596047147
 20
253.8753188762007
 30
0.0
 11
145.8769426369404
 21
253.8753188762007
 31
0.0
  0
ARC
  5
401
  8
_0-8_
  6
CONTINUOUS
 62
     7
 10
137.6497011208276
 20
240.079574695521
 30
0.0
 40
13.79574394226074
 50
66.57339477539065
 51
113.4265899658202
  0
LINE
  5
402
  8
_0-8_
  6
CONTINUOUS
 62
     7
 10
148.6192258570711
 20
252.7381370920357
 30
0.0
 11
147.9518020749312
 21
253.2563925927401
 31
0.0
  0
LINE
  5
403
  8
_0-8_
  6
CONTINUOUS
 62
     7
 10
147.9518020749312
 20
253.2563925927401
 30
0.0
 11
147.2213347386976
 21
253.624255046591
 31
0.0
  0
LINE
  5
404
  8
_0-8_
  6
CONTINUOUS
 62
     7
 10
147.2213347386976
 20
253.624255046591
 30
0.0
 11
146.4500187287473
 21
253.8305471390754
 31
0.0
  0
LINE
  5
405
  8
_0-8_
  6
CONTINUOUS
 62
     7
 10
146.4500187287473
 20
253.8305471390754
 30
0.0
 11
145.661290091738
 21
253.8690007893523
 31
0.0
  0
LINE
  5
406
  8
_0-8_
  6
CONTINUOUS
 62
     7
 10
145.661290091738
 20
253.8690007893523
 30
0.0
 11
144.8791139481891
 21
253.7384476027163
 31
0.0
  0
LINE
  5
407
  8
_0-8_
  6
CONTINUOUS
 62
     7
 10
144.8791139481891
 20
253.7384476027163
 30
0.0
 11
144.1272563244223
 21
253.4428543716803
 31
0.0
  0
LINE
  5
408
  8
_0-8_
  6
CONTINUOUS
 62
     7
 10
144.1272563244223
 20
253.4428543716803
 30
0.0
 11
143.4285620338774
 21
252.9912025469919
 31
0.0
  0
LINE
  5
409
  8
_0-8_
  6
CONTINUOUS
 62
     7
 10
143.4285620338774
 20
252.9912025469919
 30
0.0
 11
143.1346603765123
 21
252.7381379901101
 31
0.0
  0
LINE
  5
40A
  8
_0-8_
  6
CONTINUOUS
 62
     7
 10
132.1647428248454
 20
252.7381370920357
 30
0.0
 11
131.4973190427056
 21
253.2563925927401
 31
0.0
  0
LINE
  5
40B
  8
_0-8_
  6
CONTINUOUS
 62
     7
 10
131.4973190427056
 20
253.2563925927401
 30
0.0
 11
130.7668517064719
 21
253.624255046591
 31
0.0
  0
LINE
  5
40C
  8
_0-8_
  6
CONTINUOUS
 62
     7
 10
130.7668517064719
 20
253.624255046591
 30
0.0
 11
129.9955356965216
 21
253.8305471390754
 31
0.0
  0
LINE
  5
40D
  8
_0-8_
  6
CONTINUOUS
 62
     7
 10
129.9955356965216
 20
253.8305471390754
 30
0.0
 11
129.2068070595123
 21
253.8690007893523
 31
0.0
  0
LINE
  5
40E
  8
_0-8_
  6
CONTINUOUS
 62
     7
 10
129.2068070595123
 20
253.8690007893523
 30
0.0
 11
128.4246309159635
 21
253.7384476027163
 31
0.0
  0
LINE
  5
40F
  8
_0-8_
  6
CONTINUOUS
 62
     7
 10
128.4246309159635
 20
253.7384476027163
 30
0.0
 11
127.6727732921967
 21
253.4428543716803
 31
0.0
  0
LINE
  5
410
  8
_0-8_
  6
CONTINUOUS
 62
     7
 10
127.6727732921967
 20
253.4428543716803
 30
0.0
 11
126.9740790016518
 21
252.9912025469919
 31
0.0
  0
LINE
  5
411
  8
_0-8_
  6
CONTINUOUS
 62
     7
 10
126.9740790016518
 20
252.9912025469919
 30
0.0
 11
126.6801773442867
 21
252.7381379901101
 31
0.0
  0
LINE
  5
412
  8
_0-8_
  6
CONTINUOUS
 62
     7
 10
132.1648736023642
 20
247.8125001582441
 30
0.0
 11
132.1648736023642
 21
252.7381375941573
 31
0.0
  0
LINE
  5
413
  8
_0-8_
  6
CONTINUOUS
 62
     7
 10
148.6193561577543
 20
252.7381375941573
 30
0.0
 11
148.6193561577543
 21
247.8125001582441
 31
0.0
  0
LINE
  5
414
  8
_0-8_
  6
CONTINUOUS
 62
     7
 10
145.8769426369404
 20
246.6753188762007
 30
0.0
 11
129.4224596047147
 21
246.6753188762007
 31
0.0
  0
LINE
  5
415
  8
_0-8_
  6
CONTINUOUS
 62
     7
 10
126.6800460839008
 20
247.8125001582441
 30
0.0
 11
126.6800460839008
 21
252.7381375941573
 31
0.0
  0
LINE
  5
416
  8
_0-8_
  6
CONTINUOUS
 62
     7
 10
143.1345286392909
 20
252.7381375941573
 30
0.0
 11
143.1345286392909
 21
247.8125001582441
 31
0.0
  0
ARC
  5
417
  8
_0-8_
  6
CONTINUOUS
 62
     7
 10
137.6497011208276
 20
260.47106305688
 30
0.0
 40
13.79574394226074
 50
246.5734100341797
 51
293.4266052246096
  0
LINE
  5
418
  8
_0-8_
  6
CONTINUOUS
 62
     7
 10
143.1346603765123
 20
247.8124997622913
 30
0.0
 11
143.8020842708898
 21
247.2942444801626
 31
0.0
  0
LINE
  5
419
  8
_0-8_
  6
CONTINUOUS
 62
     7
 10
143.8020842708898
 20
247.2942444801626
 30
0.0
 11
144.5325516867907
 21
246.9263822655336
 31
0.0
  0
LINE
  5
41A
  8
_0-8_
  6
CONTINUOUS
 62
     7
 10
144.5325516867907
 20
246.9263822655336
 30
0.0
 11
145.3038677414173
 21
246.7200904256486
 31
0.0
  0
LINE
  5
41B
  8
_0-8_
  6
CONTINUOUS
 62
     7
 10
145.3038677414173
 20
246.7200904256486
 30
0.0
 11
146.0925963867545
 21
246.6816370336737
 31
0.0
  0
LINE
  5
41C
  8
_0-8_
  6
CONTINUOUS
 62
     7
 10
146.0925963867545
 20
246.6816370336737
 30
0.0
 11
146.8747725020296
 21
246.8121904764658
 31
0.0
  0
LINE
  5
41D
  8
_0-8_
  6
CONTINUOUS
 62
     7
 10
146.8747725020296
 20
246.8121904764658
 30
0.0
 11
147.6266300617802
 21
247.1077839537288
 31
0.0
  0
LINE
  5
41E
  8
_0-8_
  6
CONTINUOUS
 62
     7
 10
147.6266300617802
 20
247.1077839537288
 30
0.0
 11
148.3253242545117
 21
247.5594360072336
 31
0.0
  0
LINE
  5
41F
  8
_0-8_
  6
CONTINUOUS
 62
     7
 10
148.3253242545117
 20
247.5594360072336
 30
0.0
 11
148.6192258570711
 21
247.8125006603657
 31
0.0
  0
LINE
  5
420
  8
_0-8_
  6
CONTINUOUS
 62
     7
 10
126.6801773442867
 20
247.8124997622913
 30
0.0
 11
127.3476012386641
 21
247.2942444801626
 31
0.0
  0
LINE
  5
421
  8
_0-8_
  6
CONTINUOUS
 62
     7
 10
127.3476012386641
 20
247.2942444801626
 30
0.0
 11
128.0780686545651
 21
246.9263822655336
 31
0.0
  0
LINE
  5
422
  8
_0-8_
  6
CONTINUOUS
 62
     7
 10
128.0780686545651
 20
246.9263822655336
 30
0.0
 11
128.8493847091917
 21
246.7200904256486
 31
0.0
  0
LINE
  5
423
  8
_0-8_
  6
CONTINUOUS
 62
     7
 10
128.8493847091917
 20
246.7200904256486
 30
0.0
 11
129.6381133545288
 21
246.6816370336737
 31
0.0
  0
LINE
  5
424
  8
_0-8_
  6
CONTINUOUS
 62
     7
 10
129.6381133545288
 20
246.6816370336737
 30
0.0
 11
130.4202894698039
 21
246.8121904764658
 31
0.0
  0
LINE
  5
425
  8
_0-8_
  6
CONTINUOUS
 62
     7
 10
130.4202894698039
 20
246.8121904764658
 30
0.0
 11
131.1721470295546
 21
247.1077839537288
 31
0.0
  0
LINE
  5
426
  8
_0-8_
  6
CONTINUOUS
 62
     7
 10
131.1721470295546
 20
247.1077839537288
 30
0.0
 11
131.8708412222861
 21
247.5594360072336
 31
0.0
  0
LINE
  5
427
  8
_0-8_
  6
CONTINUOUS
 62
     7
 10
131.8708412222861
 20
247.5594360072336
 30
0.0
 11
132.1647428248454
 21
247.8125006603657
 31
0.0
  0
LINE
  5
428
  8
_0-8_
  6
CONTINUOUS
 62
     7
 10
143.6497011208278
 20
246.6753188762007
 30
0.0
 11
143.6497011208278
 21
208.8753188762007
 31
0.0
  0
LINE
  5
429
  8
_0-8_
  6
CONTINUOUS
 62
     7
 10
131.6497011208273
 20
246.6753188762007
 30
0.0
 11
131.6497011208273
 21
208.8753188762007
 31
0.0
  0
LINE
  5
42A
  8
_0-8_
  6
CONTINUOUS
 62
   152
 10
142.8997011208278
 20
273.8753188762007
 30
0.0
 11
142.8997011208278
 21
288.6253188762005
 31
0.0
  0
LINE
  5
42B
  8
_0-8_
  6
CONTINUOUS
 62
   152
 10
132.3997011208273
 20
273.8753188762007
 30
0.0
 11
132.3997011208273
 21
288.6253188762004
 31
0.0
  0
LINE
  5
42C
  8
_0-8_
  6
CONTINUOUS
 62
     7
 10
143.6497011208278
 20
287.8753188762005
 30
0.0
 11
143.6497011208278
 21
273.8753188762007
 31
0.0
  0
LINE
  5
42D
  8
_0-8_
  6
CONTINUOUS
 62
     7
 10
131.6497011208273
 20
287.8753188762005
 30
0.0
 11
131.6497011208273
 21
273.8753188762007
 31
0.0
  0
LINE
  5
42E
  8
_0-9_
  6
PHANTOM1
 62
   152
 10
126.6800460062243
 20
240.5416814864202
 30
0.0
 11
129.6497011208269
 21
239.7753188762006
 31
0.0
  0
LINE
  5
42F
  8
_0-9_
  6
PHANTOM1
 62
   152
 10
149.6497011208269
 20
239.7753188762006
 30
0.0
 11
149.6497011208269
 21
239.3753188762003
 31
0.0
  0
LINE
  5
430
  8
_0-9_
  6
PHANTOM1
 62
   152
 10
145.6497011208282
 20
239.7753188762006
 30
0.0
 11
148.6193562354308
 21
240.5416814864202
 31
0.0
  0
LINE
  5
431
  8
_0-9_
  6
PHANTOM1
 62
   152
 10
125.6497011208282
 20
239.7753188762006
 30
0.0
 11
125.6497011208282
 21
239.3753188762003
 31
0.0
  0
LINE
  5
432
  8
_0-9_
  6
PHANTOM1
 62
   152
 10
117.6497011208276
 20
236.3753188762003
 30
0.0
 11
117.6497011208276
 21
231.3753188762003
 31
0.0
  0
LINE
  5
433
  8
_0-9_
  6
PHANTOM1
 62
   152
 10
157.6497011208276
 20
231.3753188762003
 30
0.0
 11
157.6497011208276
 21
236.3753188762003
 31
0.0
  0
LINE
  5
434
  8
_0-9_
  6
PHANTOM1
 62
   152
 10
157.049701120827
 20
231.3753188762003
 30
0.0
 11
157.049701120827
 21
228.8753188762003
 31
0.0
  0
LINE
  5
435
  8
_0-9_
  6
PHANTOM1
 62
   152
 10
118.2497011208281
 20
228.8753188762003
 30
0.0
 11
118.2497011208281
 21
231.3753188762003
 31
0.0
  0
LINE
  5
436
  8
_0-9_
  6
PHANTOM1
 62
   152
 10
119.6497011208269
 20
228.8753188762003
 30
0.0
 11
119.6497011208269
 21
225.8753188762007
 31
0.0
  0
LINE
  5
437
  8
_0-9_
  6
PHANTOM1
 62
   152
 10
119.6497011208269
 20
225.8753188762007
 30
0.0
 11
155.6497011208282
 21
225.8753188762007
 31
0.0
  0
LINE
  5
438
  8
_0-9_
  6
PHANTOM1
 62
   152
 10
155.6497011208282
 20
225.8753188762007
 30
0.0
 11
155.6497011208282
 21
228.8753188762003
 31
0.0
  0
ARC
  5
439
  8
_0-9_
  6
PHANTOM1
 62
   152
 10
120.6497011208282
 20
236.3753188762003
 30
0.0
 40
3.0
 50
90.0
 51
179.9999999999995
  0
ARC
  5
43A
  8
_0-9_
  6
PHANTOM1
 62
   152
 10
154.6497011208269
 20
236.3753188762003
 30
0.0
 40
2.999999999999972
 50
0.0
 51
90.0
  0
LINE
  5
43B
  8
_0-9_
  6
PHANTOM1
 62
   152
 10
125.6497011208282
 20
239.7753188762006
 30
0.0
 11
129.6497011208269
 21
239.7753188762006
 31
0.0
  0
LINE
  5
43C
  8
_0-9_
  6
PHANTOM1
 62
   152
 10
145.6497011208282
 20
239.7753188762006
 30
0.0
 11
149.6497011208269
 21
239.7753188762006
 31
0.0
  0
LINE
  5
43D
  8
_0-9_
  6
PHANTOM1
 62
   152
 10
120.6497011210784
 20
239.3753188762003
 30
0.0
 11
125.6497011208282
 21
239.3753188762003
 31
0.0
  0
LINE
  5
43E
  8
_0-9_
  6
PHANTOM1
 62
   152
 10
149.6497011208269
 20
239.3753188762003
 30
0.0
 11
154.6497011208269
 21
239.3753188762003
 31
0.0
  0
LINE
  5
43F
  8
_0-9_
  6
PHANTOM1
 62
   152
 10
117.6497011208276
 20
231.3753188762003
 30
0.0
 11
118.2497011208281
 21
231.3753188762003
 31
0.0
  0
LINE
  5
440
  8
_0-9_
  6
PHANTOM1
 62
   152
 10
157.049701120827
 20
231.3753188762003
 30
0.0
 11
157.6497011208276
 21
231.3753188762003
 31
0.0
  0
LINE
  5
441
  8
_0-9_
  6
PHANTOM1
 62
   152
 10
157.049701120827
 20
228.8753188762003
 30
0.0
 11
155.6497011208282
 21
228.8753188762003
 31
0.0
  0
LINE
  5
442
  8
_0-9_
  6
PHANTOM1
 62
   152
 10
119.6497011208269
 20
228.8753188762003
 30
0.0
 11
118.2497011208281
 21
228.8753188762003
 31
0.0
  0
LINE
  5
443
  8
_0-9_
  6
PHANTOM1
 62
   152
 10
148.6193562354308
 20
240.5416814864202
 30
0.0
 11
148.6193562354308
 21
245.9753188762006
 31
0.0
  0
LINE
  5
444
  8
_0-9_
  6
PHANTOM1
 62
   152
 10
126.6800460062243
 20
245.9753188762006
 30
0.0
 11
126.6800460062243
 21
240.5416814864202
 31
0.0
  0
LINE
  5
445
  8
_0-9_
  6
PHANTOM1
 62
   152
 10
195.8846540675029
 20
184.3753188762003
 30
0.0
 11
195.8846540675029
 21
179.3753188762003
 31
0.0
  0
LINE
  5
446
  8
_0-9_
  6
PHANTOM1
 62
   152
 10
235.8846540675029
 20
179.3753188762003
 30
0.0
 11
235.8846540675029
 21
184.3753188762003
 31
0.0
  0
LINE
  5
447
  8
_0-9_
  6
PHANTOM1
 62
   152
 10
235.2846540675023
 20
179.3753188762003
 30
0.0
 11
235.2846540675023
 21
176.8753188762003
 31
0.0
  0
LINE
  5
448
  8
_0-9_
  6
PHANTOM1
 62
   152
 10
196.4846540675035
 20
176.8753188762003
 30
0.0
 11
196.4846540675035
 21
179.3753188762003
 31
0.0
  0
LINE
  5
449
  8
_0-9_
  6
PHANTOM1
 62
   152
 10
197.8846540675023
 20
176.8753188762003
 30
0.0
 11
197.8846540675023
 21
173.8753188762007
 31
0.0
  0
LINE
  5
44A
  8
_0-9_
  6
PHANTOM1
 62
   152
 10
197.8846540675023
 20
173.8753188762007
 30
0.0
 11
233.8846540675036
 21
173.8753188762007
 31
0.0
  0
LINE
  5
44B
  8
_0-9_
  6
PHANTOM1
 62
   152
 10
233.8846540675036
 20
173.8753188762007
 30
0.0
 11
233.8846540675036
 21
176.8753188762003
 31
0.0
  0
LINE
  5
44C
  8
_0-9_
  6
PHANTOM1
 62
   152
 10
195.8846540675029
 20
179.3753188762003
 30
0.0
 11
196.4846540675035
 21
179.3753188762003
 31
0.0
  0
LINE
  5
44D
  8
_0-9_
  6
PHANTOM1
 62
   152
 10
235.2846540675023
 20
179.3753188762003
 30
0.0
 11
235.8846540675029
 21
179.3753188762003
 31
0.0
  0
LINE
  5
44E
  8
_0-9_
  6
PHANTOM1
 62
   152
 10
235.2846540675023
 20
176.8753188762003
 30
0.0
 11
233.8846540675036
 21
176.8753188762003
 31
0.0
  0
LINE
  5
44F
  8
_0-9_
  6
PHANTOM1
 62
   152
 10
197.8846540675023
 20
176.8753188762003
 30
0.0
 11
196.4846540675035
 21
176.8753188762003
 31
0.0
  0
LINE
  5
450
  8
_0-9_
  6
PHANTOM1
 62
   152
 10
221.8846540675032
 20
324.5753188762008
 30
0.0
 11
220.8846540675029
 21
325.575318876201
 31
0.0
  0
LINE
  5
451
  8
_0-9_
  6
PHANTOM1
 62
   152
 10
220.8846540675029
 20
325.575318876201
 30
0.0
 11
210.8846540675029
 21
325.575318876201
 31
0.0
  0
LINE
  5
452
  8
_0-9_
  6
PHANTOM1
 62
   152
 10
210.8846540675029
 20
325.575318876201
 30
0.0
 11
209.8846540675027
 21
324.5753188762008
 31
0.0
  0
LINE
  5
453
  8
_0-9_
  6
PHANTOM1
 62
   152
 10
221.8846540675032
 20
297.3571768384741
 30
0.0
 11
221.8846540675032
 21
324.5753188762008
 31
0.0
  0
LINE
  5
454
  8
_0-9_
  6
PHANTOM1
 62
   152
 10
209.8846540675027
 20
324.5753188762008
 30
0.0
 11
209.8846540675027
 21
297.3571768384741
 31
0.0
  0
LINE
  5
455
  8
_0-8_
  6
CONTINUOUS
 62
   152
 10
221.8846540675032
 20
287.8753188762005
 30
0.0
 11
209.8846540675027
 21
287.8753188762005
 31
0.0
  0
LINE
  5
456
  8
_0-8_
  6
CONTINUOUS
 62
   152
 10
195.8846540675029
 20
199.2753188762006
 30
0.0
 11
235.8846540675029
 21
199.2753188762006
 31
0.0
  0
LINE
  5
457
  8
_0-8_
  6
CONTINUOUS
 62
     7
 10
233.8846540675036
 20
188.8753188762007
 30
0.0
 11
197.8846540675034
 21
188.8753188762007
 31
0.0
  0
LINE
  5
458
  8
_0-8_
  6
CONTINUOUS
 62
     7
 10
210.8846540675029
 20
288.8753188762007
 30
0.0
 11
220.8846540675029
 21
288.8753188762007
 31
0.0
  0
LINE
  5
459
  8
_0-8_
  6
CONTINUOUS
 62
     7
 10
220.8846540675029
 20
288.8753188762007
 30
0.0
 11
221.8846540675032
 21
287.8753188762005
 31
0.0
  0
LINE
  5
45A
  8
_0-8_
  6
CONTINUOUS
 62
     7
 10
209.8846540675027
 20
287.8753188762005
 30
0.0
 11
210.8846540675029
 21
288.8753188762007
 31
0.0
  0
LINE
  5
45B
  8
_0-8_
  6
CONTINUOUS
 62
     7
 10
235.8846540675029
 20
194.2753188762009
 30
0.0
 11
195.8846540675029
 21
194.2753188762009
 31
0.0
  0
LINE
  5
45C
  8
_0-8_
  6
CONTINUOUS
 62
     7
 10
233.8846540675036
 20
191.7753188762009
 30
0.0
 11
233.8846540675036
 21
188.8753188762007
 31
0.0
  0
LINE
  5
45D
  8
_0-8_
  6
CONTINUOUS
 62
     7
 10
197.8846540675034
 20
188.8753188762007
 30
0.0
 11
197.8846540675034
 21
191.7753188762009
 31
0.0
  0
LINE
  5
45E
  8
_0-8_
  6
CONTINUOUS
 62
     7
 10
198.8846540677537
 20
202.2753188762007
 30
0.0
 11
232.8846540675034
 21
202.2753188762007
 31
0.0
  0
LINE
  5
45F
  8
_0-8_
  6
CONTINUOUS
 62
     7
 10
227.8846540675034
 20
202.2753188762007
 30
0.0
 11
227.8846540675034
 21
202.6753188762007
 31
0.0
  0
LINE
  5
460
  8
_0-8_
  6
CONTINUOUS
 62
     7
 10
227.8846540675034
 20
202.6753188762007
 30
0.0
 11
203.8846540675036
 21
202.6753188762007
 31
0.0
  0
LINE
  5
461
  8
_0-8_
  6
CONTINUOUS
 62
     7
 10
203.8846540675036
 20
202.6753188762007
 30
0.0
 11
203.8846540675036
 21
202.2753188762007
 31
0.0
  0
LINE
  5
462
  8
_0-8_
  6
CONTINUOUS
 62
     7
 10
204.9149989529008
 20
203.4416814864206
 30
0.0
 11
205.6060412271439
 21
203.2812717695983
 31
0.0
  0
LINE
  5
463
  8
_0-8_
  6
CONTINUOUS
 62
     7
 10
205.6060412271439
 20
203.2812717695983
 30
0.0
 11
206.2984998514856
 21
203.1607697786819
 31
0.0
  0
LINE
  5
464
  8
_0-8_
  6
CONTINUOUS
 62
     7
 10
206.2984998514856
 20
203.1607697786819
 30
0.0
 11
206.9902063234441
 21
203.0864830180101
 31
0.0
  0
LINE
  5
465
  8
_0-8_
  6
CONTINUOUS
 62
     7
 10
206.9902063234441
 20
203.0864830180101
 30
0.0
 11
207.6818793969517
 21
203.0624481727031
 31
0.0
  0
LINE
  5
466
  8
_0-8_
  6
CONTINUOUS
 62
     7
 10
207.6818793969517
 20
203.0624481727031
 30
0.0
 11
208.3650517392539
 21
203.0894719461579
 31
0.0
  0
LINE
  5
467
  8
_0-8_
  6
CONTINUOUS
 62
     7
 10
208.3650517392539
 20
203.0894719461579
 30
0.0
 11
209.046464097703
 21
203.1650920956147
 31
0.0
  0
LINE
  5
468
  8
_0-8_
  6
CONTINUOUS
 62
     7
 10
209.046464097703
 20
203.1650920956147
 30
0.0
 11
209.7243657142895
 21
203.2844704307868
 31
0.0
  0
LINE
  5
469
  8
_0-8_
  6
CONTINUOUS
 62
     7
 10
209.7243657142895
 20
203.2844704307868
 30
0.0
 11
210.3998265102019
 21
203.4416814864206
 31
0.0
  0
LINE
  5
46A
  8
_0-8_
  6
CONTINUOUS
 62
     7
 10
210.3998265102019
 20
203.4416814864206
 30
0.0
 11
212.8105104808834
 21
203.1875786696471
 31
0.0
  0
LINE
  5
46B
  8
_0-8_
  6
CONTINUOUS
 62
     7
 10
212.8105104808834
 20
203.1875786696471
 30
0.0
 11
215.2236104369616
 21
203.0683436776917
 31
0.0
  0
LINE
  5
46C
  8
_0-8_
  6
CONTINUOUS
 62
     7
 10
215.2236104369616
 20
203.0683436776917
 30
0.0
 11
217.612892712217
 21
203.1026533071656
 31
0.0
  0
LINE
  5
46D
  8
_0-8_
  6
CONTINUOUS
 62
     7
 10
217.612892712217
 20
203.1026533071656
 30
0.0
 11
219.9874097209045
 21
203.2812730633432
 31
0.0
  0
LINE
  5
46E
  8
_0-8_
  6
CONTINUOUS
 62
     7
 10
219.9874097209045
 20
203.2812730633432
 30
0.0
 11
221.3694816248051
 21
203.4416814864206
 31
0.0
  0
LINE
  5
46F
  8
_0-8_
  6
CONTINUOUS
 62
     7
 10
221.3694816248051
 20
203.4416814864206
 30
0.0
 11
222.0605238990493
 21
203.2812717695983
 31
0.0
  0
LINE
  5
470
  8
_0-8_
  6
CONTINUOUS
 62
     7
 10
222.0605238990493
 20
203.2812717695983
 30
0.0
 11
222.7529825233899
 21
203.1607697786819
 31
0.0
  0
LINE
  5
471
  8
_0-8_
  6
CONTINUOUS
 62
     7
 10
222.7529825233899
 20
203.1607697786819
 30
0.0
 11
223.4446889953484
 21
203.0864830180101
 31
0.0
  0
LINE
  5
472
  8
_0-8_
  6
CONTINUOUS
 62
     7
 10
223.4446889953484
 20
203.0864830180101
 30
0.0
 11
224.136362068856
 21
203.0624481727031
 31
0.0
  0
LINE
  5
473
  8
_0-8_
  6
CONTINUOUS
 62
     7
 10
224.136362068856
 20
203.0624481727031
 30
0.0
 11
224.8195344111583
 21
203.0894719461579
 31
0.0
  0
LINE
  5
474
  8
_0-8_
  6
CONTINUOUS
 62
     7
 10
224.8195344111583
 20
203.0894719461579
 30
0.0
 11
225.5009467696073
 21
203.1650920956147
 31
0.0
  0
LINE
  5
475
  8
_0-8_
  6
CONTINUOUS
 62
     7
 10
225.5009467696073
 20
203.1650920956147
 30
0.0
 11
226.1788483861938
 21
203.2844704307868
 31
0.0
  0
LINE
  5
476
  8
_0-8_
  6
CONTINUOUS
 62
     7
 10
226.1788483861938
 20
203.2844704307868
 30
0.0
 11
226.8543091821062
 21
203.4416814864206
 31
0.0
  0
LINE
  5
477
  8
_0-8_
  6
CONTINUOUS
 62
     7
 10
226.8543091821062
 20
203.4416814864206
 30
0.0
 11
223.8846540675036
 21
202.6753188762007
 31
0.0
  0
LINE
  5
478
  8
_0-8_
  6
CONTINUOUS
 62
     7
 10
221.3694816248051
 20
203.4416814864206
 30
0.0
 11
221.3694816248051
 21
208.8753188762007
 31
0.0
  0
LINE
  5
479
  8
_0-8_
  6
CONTINUOUS
 62
     7
 10
226.8543091821062
 20
208.8753188762007
 30
0.0
 11
204.9149989529008
 21
208.8753188762007
 31
0.0
  0
LINE
  5
47A
  8
_0-8_
  6
CONTINUOUS
 62
     7
 10
204.9149989529008
 20
208.8753188762007
 30
0.0
 11
204.9149989529008
 21
203.4416814864206
 31
0.0
  0
LINE
  5
47B
  8
_0-8_
  6
CONTINUOUS
 62
     7
 10
204.9149989529008
 20
203.4416814864206
 30
0.0
 11
207.8846540675034
 21
202.6753188762007
 31
0.0
  0
LINE
  5
47C
  8
_0-8_
  6
CONTINUOUS
 62
     7
 10
210.3998265102019
 20
203.4416814864206
 30
0.0
 11
210.3998265102019
 21
208.8753188762007
 31
0.0
  0
LINE
  5
47D
  8
_0-8_
  6
CONTINUOUS
 62
     7
 10
226.8543091821062
 20
208.8753188762007
 30
0.0
 11
226.8543091821062
 21
203.4416814864206
 31
0.0
  0
ARC
  5
47E
  8
_0-8_
  6
CONTINUOUS
 62
     7
 10
198.8846540675036
 20
199.2753188762006
 30
0.0
 40
3.0
 50
90.0
 51
180.0
  0
ARC
  5
47F
  8
_0-8_
  6
CONTINUOUS
 62
     7
 10
232.8846540675034
 20
199.2753188762006
 30
0.0
 40
2.999999999999972
 50
0.0
 51
90.0
  0
LINE
  5
480
  8
_0-8_
  6
CONTINUOUS
 62
     7
 10
195.8846540675029
 20
191.7753188762009
 30
0.0
 11
195.8846540675029
 21
199.2753188762006
 31
0.0
  0
LINE
  5
481
  8
_0-8_
  6
CONTINUOUS
 62
     7
 10
195.8846540675029
 20
191.7753188762009
 30
0.0
 11
235.8846540675029
 21
191.7753188762009
 31
0.0
  0
LINE
  5
482
  8
_0-8_
  6
CONTINUOUS
 62
     7
 10
235.8846540675029
 20
199.2753188762006
 30
0.0
 11
235.8846540675029
 21
191.7753188762009
 31
0.0
  0
LINE
  5
483
  8
_0-8_
  6
CONTINUOUS
 62
   152
 10
210.6346540675027
 20
208.8753188762007
 30
0.0
 11
210.6346540675027
 21
246.6753188762007
 31
0.0
  0
LINE
  5
484
  8
_0-8_
  6
CONTINUOUS
 62
   152
 10
221.1346540675032
 20
208.8753188762007
 30
0.0
 11
221.1346540675032
 21
246.6753188762007
 31
0.0
  0
LINE
  5
485
  8
_0-8_
  6
CONTINUOUS
 62
     7
 10
207.6574125513901
 20
253.8753188762007
 30
0.0
 11
224.1118955836158
 21
253.8753188762007
 31
0.0
  0
ARC
  5
486
  8
_0-8_
  6
CONTINUOUS
 62
     7
 10
215.8846540675029
 20
240.079574695521
 30
0.0
 40
13.79574394226074
 50
66.57339477539054
 51
113.4265899658201
  0
LINE
  5
487
  8
_0-8_
  6
CONTINUOUS
 62
     7
 10
226.8541788037464
 20
252.7381370920357
 30
0.0
 11
226.1867550216066
 21
253.2563925927401
 31
0.0
  0
LINE
  5
488
  8
_0-8_
  6
CONTINUOUS
 62
     7
 10
226.1867550216066
 20
253.2563925927401
 30
0.0
 11
225.456287685373
 21
253.624255046591
 31
0.0
  0
LINE
  5
489
  8
_0-8_
  6
CONTINUOUS
 62
     7
 10
225.456287685373
 20
253.624255046591
 30
0.0
 11
224.6849716754227
 21
253.8305471390754
 31
0.0
  0
LINE
  5
48A
  8
_0-8_
  6
CONTINUOUS
 62
     7
 10
224.6849716754227
 20
253.8305471390754
 30
0.0
 11
223.8962430384133
 21
253.8690007893523
 31
0.0
  0
LINE
  5
48B
  8
_0-8_
  6
CONTINUOUS
 62
     7
 10
223.8962430384133
 20
253.8690007893523
 30
0.0
 11
223.1140668948645
 21
253.7384476027163
 31
0.0
  0
LINE
  5
48C
  8
_0-8_
  6
CONTINUOUS
 62
     7
 10
223.1140668948645
 20
253.7384476027163
 30
0.0
 11
222.3622092710977
 21
253.4428543716803
 31
0.0
  0
LINE
  5
48D
  8
_0-8_
  6
CONTINUOUS
 62
     7
 10
222.3622092710977
 20
253.4428543716803
 30
0.0
 11
221.6635149805528
 21
252.9912025469919
 31
0.0
  0
LINE
  5
48E
  8
_0-8_
  6
CONTINUOUS
 62
     7
 10
221.6635149805528
 20
252.9912025469919
 30
0.0
 11
221.3696133231877
 21
252.7381379901101
 31
0.0
  0
LINE
  5
48F
  8
_0-8_
  6
CONTINUOUS
 62
     7
 10
210.3996957715208
 20
252.7381370920357
 30
0.0
 11
209.7322719893809
 21
253.2563925927401
 31
0.0
  0
LINE
  5
490
  8
_0-8_
  6
CONTINUOUS
 62
     7
 10
209.7322719893809
 20
253.2563925927401
 30
0.0
 11
209.0018046531473
 21
253.624255046591
 31
0.0
  0
LINE
  5
491
  8
_0-8_
  6
CONTINUOUS
 62
     7
 10
209.0018046531473
 20
253.624255046591
 30
0.0
 11
208.230488643197
 21
253.8305471390754
 31
0.0
  0
LINE
  5
492
  8
_0-8_
  6
CONTINUOUS
 62
     7
 10
208.230488643197
 20
253.8305471390754
 30
0.0
 11
207.4417600061877
 21
253.8690007893523
 31
0.0
  0
LINE
  5
493
  8
_0-8_
  6
CONTINUOUS
 62
     7
 10
207.4417600061877
 20
253.8690007893523
 30
0.0
 11
206.6595838626388
 21
253.7384476027163
 31
0.0
  0
LINE
  5
494
  8
_0-8_
  6
CONTINUOUS
 62
     7
 10
206.6595838626388
 20
253.7384476027163
 30
0.0
 11
205.907726238872
 21
253.4428543716803
 31
0.0
  0
LINE
  5
495
  8
_0-8_
  6
CONTINUOUS
 62
     7
 10
205.907726238872
 20
253.4428543716803
 30
0.0
 11
205.2090319483272
 21
252.9912025469919
 31
0.0
  0
LINE
  5
496
  8
_0-8_
  6
CONTINUOUS
 62
     7
 10
205.2090319483272
 20
252.9912025469919
 30
0.0
 11
204.9151302909621
 21
252.7381379901101
 31
0.0
  0
LINE
  5
497
  8
_0-8_
  6
CONTINUOUS
 62
     7
 10
210.3998265490396
 20
247.8125001582441
 30
0.0
 11
210.3998265490396
 21
252.7381375941573
 31
0.0
  0
LINE
  5
498
  8
_0-8_
  6
CONTINUOUS
 62
     7
 10
226.8543091044297
 20
252.7381375941573
 30
0.0
 11
226.8543091044297
 21
247.8125001582441
 31
0.0
  0
LINE
  5
499
  8
_0-8_
  6
CONTINUOUS
 62
     7
 10
224.1118955836158
 20
246.6753188762007
 30
0.0
 11
207.6574125513901
 21
246.6753188762007
 31
0.0
  0
LINE
  5
49A
  8
_0-8_
  6
CONTINUOUS
 62
     7
 10
204.9149990305762
 20
247.8125001582441
 30
0.0
 11
204.9149990305762
 21
252.7381375941573
 31
0.0
  0
LINE
  5
49B
  8
_0-8_
  6
CONTINUOUS
 62
     7
 10
221.3694815859663
 20
252.7381375941573
 30
0.0
 11
221.3694815859663
 21
247.8125001582441
 31
0.0
  0
ARC
  5
49C
  8
_0-8_
  6
CONTINUOUS
 62
     7
 10
215.8846540675029
 20
260.47106305688
 30
0.0
 40
13.79574394226074
 50
246.5734100341796
 51
293.4266052246094
  0
LINE
  5
49D
  8
_0-8_
  6
CONTINUOUS
 62
     7
 10
221.3696133231877
 20
247.8124997622913
 30
0.0
 11
222.0370372175652
 21
247.2942444801626
 31
0.0
  0
LINE
  5
49E
  8
_0-8_
  6
CONTINUOUS
 62
     7
 10
222.0370372175652
 20
247.2942444801626
 30
0.0
 11
222.7675046334661
 21
246.9263822655336
 31
0.0
  0
LINE
  5
49F
  8
_0-8_
  6
CONTINUOUS
 62
     7
 10
222.7675046334661
 20
246.9263822655336
 30
0.0
 11
223.5388206880927
 21
246.7200904256486
 31
0.0
  0
LINE
  5
4A0
  8
_0-8_
  6
CONTINUOUS
 62
     7
 10
223.5388206880927
 20
246.7200904256486
 30
0.0
 11
224.3275493334298
 21
246.6816370336737
 31
0.0
  0
LINE
  5
4A1
  8
_0-8_
  6
CONTINUOUS
 62
     7
 10
224.3275493334298
 20
246.6816370336737
 30
0.0
 11
225.109725448705
 21
246.8121904764658
 31
0.0
  0
LINE
  5
4A2
  8
_0-8_
  6
CONTINUOUS
 62
     7
 10
225.109725448705
 20
246.8121904764658
 30
0.0
 11
225.8615830084556
 21
247.1077839537288
 31
0.0
  0
LINE
  5
4A3
  8
_0-8_
  6
CONTINUOUS
 62
     7
 10
225.8615830084556
 20
247.1077839537288
 30
0.0
 11
226.5602772011871
 21
247.5594360072336
 31
0.0
  0
LINE
  5
4A4
  8
_0-8_
  6
CONTINUOUS
 62
     7
 10
226.5602772011871
 20
247.5594360072336
 30
0.0
 11
226.8541788037464
 21
247.8125006603657
 31
0.0
  0
LINE
  5
4A5
  8
_0-8_
  6
CONTINUOUS
 62
     7
 10
204.9151302909621
 20
247.8124997622913
 30
0.0
 11
205.5825541853395
 21
247.2942444801626
 31
0.0
  0
LINE
  5
4A6
  8
_0-8_
  6
CONTINUOUS
 62
     7
 10
205.5825541853395
 20
247.2942444801626
 30
0.0
 11
206.3130216012405
 21
246.9263822655336
 31
0.0
  0
LINE
  5
4A7
  8
_0-8_
  6
CONTINUOUS
 62
     7
 10
206.3130216012405
 20
246.9263822655336
 30
0.0
 11
207.084337655867
 21
246.7200904256486
 31
0.0
  0
LINE
  5
4A8
  8
_0-8_
  6
CONTINUOUS
 62
     7
 10
207.084337655867
 20
246.7200904256486
 30
0.0
 11
207.8730663012042
 21
246.6816370336737
 31
0.0
  0
LINE
  5
4A9
  8
_0-8_
  6
CONTINUOUS
 62
     7
 10
207.8730663012042
 20
246.6816370336737
 30
0.0
 11
208.6552424164793
 21
246.8121904764658
 31
0.0
  0
LINE
  5
4AA
  8
_0-8_
  6
CONTINUOUS
 62
     7
 10
208.6552424164793
 20
246.8121904764658
 30
0.0
 11
209.40709997623
 21
247.1077839537288
 31
0.0
  0
LINE
  5
4AB
  8
_0-8_
  6
CONTINUOUS
 62
     7
 10
209.40709997623
 20
247.1077839537288
 30
0.0
 11
210.1057941689614
 21
247.5594360072336
 31
0.0
  0
LINE
  5
4AC
  8
_0-8_
  6
CONTINUOUS
 62
     7
 10
210.1057941689614
 20
247.5594360072336
 30
0.0
 11
210.3996957715208
 21
247.8125006603657
 31
0.0
  0
LINE
  5
4AD
  8
_0-8_
  6
CONTINUOUS
 62
     7
 10
221.8846540675032
 20
246.6753188762007
 30
0.0
 11
221.8846540675032
 21
208.8753188762007
 31
0.0
  0
LINE
  5
4AE
  8
_0-8_
  6
CONTINUOUS
 62
     7
 10
209.8846540675027
 20
246.6753188762007
 30
0.0
 11
209.8846540675027
 21
208.8753188762007
 31
0.0
  0
LINE
  5
4AF
  8
_0-8_
  6
CONTINUOUS
 62
   152
 10
221.1346540675032
 20
273.8753188762007
 30
0.0
 11
221.1346540675032
 21
288.6253188762005
 31
0.0
  0
LINE
  5
4B0
  8
_0-8_
  6
CONTINUOUS
 62
   152
 10
210.6346540675027
 20
273.8753188762007
 30
0.0
 11
210.6346540675027
 21
288.6253188762004
 31
0.0
  0
LINE
  5
4B1
  8
_0-8_
  6
CONTINUOUS
 62
     7
 10
221.8846540675032
 20
287.8753188762005
 30
0.0
 11
221.8846540675032
 21
273.8753188762007
 31
0.0
  0
LINE
  5
4B2
  8
_0-8_
  6
CONTINUOUS
 62
     7
 10
209.8846540675027
 20
287.8753188762005
 30
0.0
 11
209.8846540675027
 21
273.8753188762007
 31
0.0
  0
LINE
  5
4B3
  8
_0-9_
  6
PHANTOM1
 62
   152
 10
204.9149989528997
 20
240.5416814864202
 30
0.0
 11
207.8846540675023
 21
239.7753188762006
 31
0.0
  0
LINE
  5
4B4
  8
_0-9_
  6
PHANTOM1
 62
   152
 10
227.8846540675023
 20
239.7753188762006
 30
0.0
 11
227.8846540675023
 21
239.3753188762003
 31
0.0
  0
LINE
  5
4B5
  8
_0-9_
  6
PHANTOM1
 62
   152
 10
223.8846540675036
 20
239.7753188762006
 30
0.0
 11
226.8543091821062
 21
240.5416814864202
 31
0.0
  0
LINE
  5
4B6
  8
_0-9_
  6
PHANTOM1
 62
   152
 10
203.8846540675036
 20
239.7753188762006
 30
0.0
 11
203.8846540675036
 21
239.3753188762003
 31
0.0
  0
LINE
  5
4B7
  8
_0-9_
  6
PHANTOM1
 62
   152
 10
195.8846540675029
 20
236.3753188762003
 30
0.0
 11
195.8846540675029
 21
231.3753188762003
 31
0.0
  0
LINE
  5
4B8
  8
_0-9_
  6
PHANTOM1
 62
   152
 10
235.8846540675029
 20
231.3753188762003
 30
0.0
 11
235.8846540675029
 21
236.3753188762003
 31
0.0
  0
LINE
  5
4B9
  8
_0-9_
  6
PHANTOM1
 62
   152
 10
235.2846540675023
 20
231.3753188762003
 30
0.0
 11
235.2846540675023
 21
228.8753188762003
 31
0.0
  0
LINE
  5
4BA
  8
_0-9_
  6
PHANTOM1
 62
   152
 10
196.4846540675035
 20
228.8753188762003
 30
0.0
 11
196.4846540675035
 21
231.3753188762003
 31
0.0
  0
LINE
  5
4BB
  8
_0-9_
  6
PHANTOM1
 62
   152
 10
197.8846540675023
 20
228.8753188762003
 30
0.0
 11
197.8846540675023
 21
225.8753188762007
 31
0.0
  0
LINE
  5
4BC
  8
_0-9_
  6
PHANTOM1
 62
   152
 10
197.8846540675023
 20
225.8753188762007
 30
0.0
 11
233.8846540675036
 21
225.8753188762007
 31
0.0
  0
LINE
  5
4BD
  8
_0-9_
  6
PHANTOM1
 62
   152
 10
233.8846540675036
 20
225.8753188762007
 30
0.0
 11
233.8846540675036
 21
228.8753188762003
 31
0.0
  0
ARC
  5
4BE
  8
_0-9_
  6
PHANTOM1
 62
   152
 10
198.8846540675036
 20
236.3753188762003
 30
0.0
 40
3.0
 50
90.0
 51
179.9999999999995
  0
ARC
  5
4BF
  8
_0-9_
  6
PHANTOM1
 62
   152
 10
232.8846540675023
 20
236.3753188762003
 30
0.0
 40
2.999999999999972
 50
0.0
 51
90.0
  0
LINE
  5
4C0
  8
_0-9_
  6
PHANTOM1
 62
   152
 10
203.8846540675036
 20
239.7753188762006
 30
0.0
 11
207.8846540675023
 21
239.7753188762006
 31
0.0
  0
LINE
  5
4C1
  8
_0-9_
  6
PHANTOM1
 62
   152
 10
223.8846540675036
 20
239.7753188762006
 30
0.0
 11
227.8846540675023
 21
239.7753188762006
 31
0.0
  0
LINE
  5
4C2
  8
_0-9_
  6
PHANTOM1
 62
   152
 10
198.8846540677537
 20
239.3753188762003
 30
0.0
 11
203.8846540675036
 21
239.3753188762003
 31
0.0
  0
LINE
  5
4C3
  8
_0-9_
  6
PHANTOM1
 62
   152
 10
227.8846540675023
 20
239.3753188762003
 30
0.0
 11
232.8846540675023
 21
239.3753188762003
 31
0.0
  0
LINE
  5
4C4
  8
_0-9_
  6
PHANTOM1
 62
   152
 10
195.8846540675029
 20
231.3753188762003
 30
0.0
 11
196.4846540675035
 21
231.3753188762003
 31
0.0
  0
LINE
  5
4C5
  8
_0-9_
  6
PHANTOM1
 62
   152
 10
235.2846540675023
 20
231.3753188762003
 30
0.0
 11
235.8846540675029
 21
231.3753188762003
 31
0.0
  0
LINE
  5
4C6
  8
_0-9_
  6
PHANTOM1
 62
   152
 10
235.2846540675023
 20
228.8753188762003
 30
0.0
 11
233.8846540675036
 21
228.8753188762003
 31
0.0
  0
LINE
  5
4C7
  8
_0-9_
  6
PHANTOM1
 62
   152
 10
197.8846540675023
 20
228.8753188762003
 30
0.0
 11
196.4846540675035
 21
228.8753188762003
 31
0.0
  0
LINE
  5
4C8
  8
_0-9_
  6
PHANTOM1
 62
   152
 10
226.8543091821062
 20
240.5416814864202
 30
0.0
 11
226.8543091821062
 21
245.9753188762006
 31
0.0
  0
LINE
  5
4C9
  8
_0-9_
  6
PHANTOM1
 62
   152
 10
204.9149989528997
 20
245.9753188762006
 30
0.0
 11
204.9149989528997
 21
240.5416814864202
 31
0.0
  0
VIEWPORT
  5
4CC
 67
     1
  8
0
 10
0.0
 20
0.0
 30
0.0
 40
300.0
 41
220.0
 68
     1
 69
     1
1001
ACAD
1000
MVIEW
1002
{
1070
    16
1010
0.0
1020
0.0
1030
0.0
1010
0.0
1020
0.0
1030
1.0
1040
0.0
1040
1.0
1040
0.0
1040
0.0
1040
50.0
1040
0.0
1040
0.0
1070
     0
1070
   100
1070
     0
1070
     3
1070
     0
1070
     0
1070
     0
1070
     0
1040
0.0
1040
0.0
1040
0.0
1040
0.5
1040
0.5
1040
0.0
1040
0.0
1070
     0
1002
{
1002
}
1002
}
  0
ENDSEC
  0
EOF
