  0
SECTION
  2
HEADER
  9
$ACADVER
  1
AC1009
  9
$INSBASE
 10
0
 20
0
 30
0
  9
$EXTMIN
 10
0
 20
0
  9
$EXTMAX
 10
1189
 20
841
  9
$LIMMIN
 10
0
 20
0
  9
$LIMMAX
 10
1189
 20
841
  9
$LTSCALE
 40
1
  0
ENDSEC
  0
SECTION
  2
TABLES
  0
TABLE
  2
LTYPE
 70
     9
  0
LTYPE
  2
CONTINUOUS
 70
    64
  3
実線
 72
    65
 73
     0
 40
0.0
  0
LTYPE
  2
DASHED1
 70
    64
  3
--  --  --  --  --  --  --  --  
 72
    65
 73
     2
 40
2.5
 49
1.25
 49
-1.25
  0
LTYPE
  2
DASHED2
 70
    64
  3
----    ----    ----    ----    
 72
    65
 73
     2
 40
5.0
 49
2.5
 49
-2.5
  0
LTYPE
  2
DASHED3
 70
    64
  3
------  ------  ------  ------  
 72
    65
 73
     2
 40
5.0
 49
3.75
 49
-1.25
  0
LTYPE
  2
CENTER1
 70
    64
  3
----- - ----- - ----- - ----- - 
 72
    65
 73
     4
 40
10.0
 49
6.25
 49
-1.25
 49
1.25
 49
-1.25
  0
LTYPE
  2
CENTER2
 70
    64
  3
----------  --  ----------  --  
 72
    65
 73
     4
 40
20.0
 49
12.5
 49
-2.5
 49
2.5
 49
-2.5
  0
LTYPE
  2
PHANTOM1
 70
    64
  3
--- - - --- - - --- - - --- - - 
 72
    65
 73
     6
 40
10.0
 49
3.25
 49
-1.25
 49
1.25
 49
-1.25
 49
1.25
 49
-1.25
  0
LTYPE
  2
PHANTOM2
 70
    64
  3
--------  -  -  --------  -  -  
 72
    65
 73
     6
 40
20.0
 49
10.0
 49
-2.5
 49
1.25
 49
-2.5
 49
1.25
 49
-2.5
  0
LTYPE
  2
DOT
 70
    64
  3
-   -   -   -   -   -   -   -   
 72
    65
 73
     2
 40
2.5
 49
0.625
 49
-1.875
  0
LTYPE
  2
DUMMY
 70
    64
  3
ダミー
 72
    65
 73
     0
 40
0.0
  0
LTYPE
  2
RAND1
 70
    64
  3
ランダム線1
 72
    65
 73
     4
 40
10.0
 49
1.0
 49
-2.0
 49
3.0
 49
-4.0
  0
LTYPE
  2
RAND2
 70
    64
  3
ランダム線2
 72
    65
 73
     4
 40
14.0
 49
2.0
 49
-3.0
 49
4.0
 49
-5.0
  0
LTYPE
  2
RAND3
 70
    64
  3
ランダム線3
 72
    65
 73
     4
 40
18.0
 49
3.0
 49
-4.0
 49
5.0
 49
-6.0
  0
LTYPE
  2
RAND4
 70
    64
  3
ランダム線4
 72
    65
 73
     4
 40
22.0
 49
4.0
 49
-5.0
 49
6.0
 49
-7.0
  0
LTYPE
  2
RAND5
 70
    64
  3
ランダム線5
 72
    65
 73
     4
 40
26.0
 49
5.0
 49
-6.0
 49
7.0
 49
-8.0
  0
LTYPE
  2
LONG1
 70
    64
  3
----------  --  ----------  --  
 72
    65
 73
     4
 40
40.0
 49
32.5
 49
-2.5
 49
2.5
 49
-2.5
  0
LTYPE
  2
LONG2
 70
    64
  3
--------  -  -  --------  -  -  
 72
    65
 73
     6
 40
40.0
 49
30.0
 49
-2.5
 49
1.25
 49
-2.5
 49
1.25
 49
-2.5
  0
LTYPE
  2
LONG3
 70
    64
  3
+++++++++++++++..+++++++++++++++
 72
    65
 73
     2
 40
40.0
 49
37.5
 49
-2.5
  0
LTYPE
  2
LONG4
 70
    64
  3
+++++++++++++++..+++++++++++++++
 72
    65
 73
     2
 40
80.0
 49
75.0
 49
-5.0
  0
LTYPE
  2
LONG5
 70
    64
  3
----------  --  ----------  --  
 72
    65
 73
     4
 40
60.0
 49
37.5
 49
-7.5
 49
7.5
 49
-7.5
  0
LTYPE
  2
dashed
 70
   64
  3
-------   -------------   ------
 72
   65
 73
    2
 40
7.5
 49
6
 49
-1.5
  0
LTYPE
  2
dashed_spaced
 70
   64
  3
----        --------        ----
 72
   65
 73
    2
 40
12
 49
6
 49
-6
  0
LTYPE
  2
long_dashed_dotted
 70
   64
  3
------------- --- --------------
 72
   65
 73
    4
 40
15.25
 49
12
 49
-1.5
 49
0.25
 49
-1.5
  0
LTYPE
  2
long_dashed_double-dotted
 70
   64
  3
----------- --- --- ------------
 72
   65
 73
    6
 40
17
 49
12
 49
-1.5
 49
0.25
 49
-1.5
 49
0.25
 49
-1.5
  0
LTYPE
  2
long_dashed_triplicate-dotted
 70
   64
  3
--------- --- --- --- ----------
 72
   65
 73
    8
 40
18.75
 49
12
 49
-1.5
 49
0.25
 49
-1.5
 49
0.25
 49
-1.5
 49
0.25
 49
-1.5
  0
LTYPE
  2
dotted
 70
   64
  3
   -       -       -       -    
 72
   65
 73
    2
 40
1.75
 49
0.25
 49
-1.5
  0
LTYPE
  2
chain
 70
   64
  3
-------------- -- --------------
 72
   65
 73
    4
 40
18.5
 49
12
 49
-1.5
 49
3.5
 49
-1.5
  0
LTYPE
  2
chain_double_dash
 70
   64
  3
------------ -- -- -------------
 72
   65
 73
    6
 40
23.5
 49
12
 49
-1.5
 49
3.5
 49
-1.5
 49
3.5
 49
-1.5
  0
LTYPE
  2
dashed_dotted
 70
   64
  3
-----------     -     ----------
 72
   65
 73
    4
 40
9.25
 49
6
 49
-1.5
 49
0.25
 49
-1.5
  0
LTYPE
  2
double-dashed_dotted
 70
   64
  3
------   -----------   -   -----
 72
   65
 73
    6
 40
16.75
 49
6
 49
-1.5
 49
6
 49
-1.5
 49
0.25
 49
-1.5
  0
LTYPE
  2
dashed_double-dotted
 70
   64
  3
---------    -    -    ---------
 72
   65
 73
    6
 40
11
 49
6
 49
-1.5
 49
0.25
 49
-1.5
 49
0.25
 49
-1.5
  0
LTYPE
  2
double-dashed_double-dotted
 70
   64
  3
-----   ---------   -   -   ----
 72
   65
 73
    8
 40
18.5
 49
6
 49
-1.5
 49
6
 49
-1.5
 49
0.25
 49
-1.5
 49
0.25
 49
-1.5
  0
LTYPE
  2
dashed_triplicate-dotted
 70
   64
  3
-------    -    -    -    ------
 72
   65
 73
    8
 40
12.75
 49
6
 49
-1.5
 49
0.25
 49
-1.5
 49
0.25
 49
-1.5
 49
0.25
 49
-1.5
  0
LTYPE
  2
double-dashed_triplicate-dotted
 70
   64
  3
-----  ---------  -  -  -  -----
 72
   65
 73
   10
 40
20.25
 49
6
 49
-1.5
 49
6
 49
-1.5
 49
0.25
 49
-1.5
 49
0.25
 49
-1.5
 49
0.25
 49
-1.5
  0
LTYPE
  2
undefined
 70
   64
  3
--------------------------------
 72
   65
 73
    0
 40
0
  0
LTYPE
  2
_
 70
   64
  3
                                
 72
   65
 73
    0
 40
0
  0
LTYPE
  2
__18
 70
   64
  3
                                
 72
   65
 73
    0
 40
0
  0
LTYPE
  2
__19
 70
   64
  3
                                
 72
   65
 73
    0
 40
0
  0
LTYPE
  2
__20
 70
   64
  3
                                
 72
   65
 73
    0
 40
0
  0
LTYPE
  2
__21
 70
   64
  3
                                
 72
   65
 73
    0
 40
0
  0
LTYPE
  2
__22
 70
   64
  3
                                
 72
   65
 73
    0
 40
0
  0
LTYPE
  2
__23
 70
   64
  3
                                
 72
   65
 73
    0
 40
0
  0
LTYPE
  2
__24
 70
   64
  3
                                
 72
   65
 73
    0
 40
0
  0
LTYPE
  2
__25
 70
   64
  3
                                
 72
   65
 73
    0
 40
0
  0
LTYPE
  2
__26
 70
   64
  3
                                
 72
   65
 73
    0
 40
0
  0
LTYPE
  2
__27
 70
   64
  3
                                
 72
   65
 73
    0
 40
0
  0
LTYPE
  2
__28
 70
   64
  3
                                
 72
   65
 73
    0
 40
0
  0
LTYPE
  2
__29
 70
   64
  3
                                
 72
   65
 73
    0
 40
0
  0
LTYPE
  2
__30
 70
   64
  3
                                
 72
   65
 73
    0
 40
0
  0
LTYPE
  2
__31
 70
   64
  3
                                
 72
   65
 73
    0
 40
0
  0
LTYPE
  2
__32
 70
   64
  3
                                
 72
   65
 73
    0
 40
0
  0
ENDTAB
  0
TABLE
  2
STYLE
  5
3
100
AcDbSymbolTable
 70
     1
  0
STYLE
  5
10
100
AcDbSymbolTableRecord
100
AcDbTextStyleTableRecord
  2
STANDARD
 70
     0
 40
0.0
 41
1.0
 50
0.0
 71
     0
 42
0.2
  3
txt
  4
bigfont.shx
  0
STYLE
  5
26
100
AcDbSymbolTableRecord
100
AcDbTextStyleTableRecord
  2
TATEGAKI
 70
    68
 40
0.0
 41
1.0
 50
0.0
 71
     0
 42
1.0
  3
txt
  4
bigfont.shx
  0
ENDTAB
  0
TABLE
  2
LAYER
 70
    3
  0
LAYER
  2
_0-0_
 70
   64
 62
    7
  6
CONTINUOUS
  0
LAYER
  2
_0-1_
 70
   64
 62
    7
  6
CONTINUOUS
  0
LAYER
  2
ADD_LINE
 70
   64
 62
    7
  6
CONTINUOUS
  0
ENDTAB
  0
ENDSEC
  0
SECTION
  2
BLOCKS
  0
ENDSEC
  0
SECTION
  2
ENTITIES
  0
LINE
  8
_0-0_
  6
CONTINUOUS
 62
    7
 10
46.518835526759631
 20
330.5698267630886
 11
176.51883552675963
 21
330.5698267630886
  0
LINE
  8
_0-0_
  6
CONTINUOUS
 62
    7
 10
176.51883552675963
 20
330.5698267630886
 11
176.51883552675963
 21
234.56983476308858
  0
LINE
  8
_0-1_
  6
CENTER1
 62
  152
 10
168.01883552675963
 20
239.56983476308858
 11
103.01883552675957
 21
239.56983476308858
  0
LINE
  8
_0-1_
  6
CENTER1
 62
  152
 10
109.51883552675912
 20
232.06427476308852
 11
109.51883552675912
 21
299.0753807630889
  0
LINE
  8
_0-1_
  6
CENTER1
 62
  152
 10
103.01883552675957
 20
291.5698267630886
 11
168.01883552675963
 21
291.5698267630886
  0
LINE
  8
_0-1_
  6
CENTER1
 62
  152
 10
161.51883552675963
 20
299.0753807630889
 11
161.51883552675963
 21
232.06427476308852
  0
LINE
  8
_0-0_
  6
CONTINUOUS
 62
    7
 10
166.51883552675963
 20
224.56983476308858
 11
80.520905526759634
 21
224.56983476308858
  0
LINE
  8
_0-1_
  6
CENTER1
 62
  152
 10
81.018835526759176
 20
230.81983476308858
 11
81.018835526759176
 21
236.31983476308858
  0
LINE
  8
_0-1_
  6
CENTER1
 62
  152
 10
78.418835526759267
 20
233.56983476308858
 11
83.618835526759028
 21
233.56983476308858
  0
LINE
  8
_0-0_
  6
CONTINUOUS
 62
    7
 10
71.123985526759498
 20
231.14963476308856
 11
47.121905526759292
 21
297.09478576308891
  0
LINE
  8
_0-0_
  6
CONTINUOUS
 62
    7
 10
46.518835526759631
 20
300.5149877630887
 11
46.518835526759631
 21
330.5698267630886
  0
LINE
  8
_0-1_
  6
DASHED2
 62
  152
 10
46.518835526759631
 20
327.36982676308855
 11
176.51883552675963
 21
327.36982676308855
  0
LINE
  8
_0-1_
  6
CENTER1
 62
  152
 10
170.26883552675963
 20
320.0698267630886
 11
164.76883552675918
 21
320.0698267630886
  0
LINE
  8
_0-1_
  6
CENTER1
 62
  152
 10
167.51883552675963
 20
317.46982676308869
 11
167.51883552675963
 21
322.66982676308851
  0
LINE
  8
_0-0_
  6
CONTINUOUS
 62
    7
 10
205.48537425716222
 20
320.5698267630886
 11
221.28537425716218
 21
320.5698267630886
  0
LINE
  8
_0-0_
  6
CONTINUOUS
 62
    7
 10
221.28537425716218
 20
319.5698267630886
 11
224.48537425716222
 21
319.5698267630886
  0
LINE
  8
_0-0_
  6
CONTINUOUS
 62
    7
 10
221.28537425716218
 20
323.5698267630886
 11
218.28537425716218
 21
320.5698267630886
  0
LINE
  8
_0-0_
  6
CONTINUOUS
 62
    7
 10
221.28537425716218
 20
326.86982676308855
 11
221.28537425716218
 21
224.5698267630886
  0
LINE
  8
_0-0_
  6
CONTINUOUS
 62
    7
 10
221.28537425716218
 20
224.5698267630886
 11
224.48537425716222
 21
224.5698267630886
  0
LINE
  8
_0-0_
  6
CONTINUOUS
 62
    7
 10
224.48537425716222
 20
224.5698267630886
 11
226.37858115976587
 21
225.21462721589069
  0
LINE
  8
_0-0_
  6
CONTINUOUS
 62
    7
 10
225.80253930303593
 20
226.07484378688878
 11
224.48537425716222
 21
224.5698267630886
  0
LINE
  8
_0-0_
  6
CONTINUOUS
 62
    7
 10
224.48537425716222
 20
224.5698267630886
 11
224.48537425716222
 21
326.8198267630886
  0
LINE
  8
_0-0_
  6
CONTINUOUS
 62
    7
 10
220.78537425716218
 20
327.36982676308855
 11
209.48537425716222
 21
327.36982676308855
  0
LINE
  8
_0-0_
  6
CONTINUOUS
 62
    7
 10
209.48537425716222
 20
327.36982676308855
 11
209.48537425716222
 21
330.5698267630886
  0
LINE
  8
_0-0_
  6
CONTINUOUS
 62
    7
 10
209.48537425716222
 20
330.5698267630886
 11
220.73537425716222
 21
330.5698267630886
  0
LINE
  8
_0-1_
  6
CENTER1
 62
  152
 10
224.48537425716222
 20
311.5698267630886
 11
204.48537425716222
 21
311.5698267630886
  0
LINE
  8
_0-0_
  6
CONTINUOUS
 62
    7
 10
204.48537425716222
 20
319.5698267630886
 11
205.48537425716222
 21
320.5698267630886
  0
LINE
  8
_0-0_
  6
CONTINUOUS
 62
    7
 10
204.48537425716222
 20
319.5698267630886
 11
204.48537425716222
 21
303.5698267630886
  0
LINE
  8
_0-0_
  6
CONTINUOUS
 62
    7
 10
204.48537425716222
 20
303.5698267630886
 11
205.48537425716222
 21
302.5698267630886
  0
LINE
  8
_0-0_
  6
CONTINUOUS
 62
    7
 10
205.48537425716222
 20
302.5698267630886
 11
221.28537425716218
 21
302.5698267630886
  0
LINE
  8
_0-0_
  6
CONTINUOUS
 62
    7
 10
221.28537425716218
 20
303.5698267630886
 11
224.48537425716222
 21
303.5698267630886
  0
LINE
  8
_0-0_
  6
CONTINUOUS
 62
    7
 10
221.28537425716218
 20
299.5698267630886
 11
218.28537425716218
 21
302.5698267630886
  0
LINE
  8
_0-0_
  6
CONTINUOUS
 62
    7
 10
274.48537425716228
 20
303.5698267630886
 11
277.68537425716232
 21
303.5698267630886
  0
LINE
  8
_0-0_
  6
CONTINUOUS
 62
    7
 10
277.68537425716232
 20
302.5698267630886
 11
293.48537425716228
 21
302.5698267630886
  0
LINE
  8
_0-0_
  6
CONTINUOUS
 62
    7
 10
293.48537425716228
 20
302.5698267630886
 11
294.48537425716228
 21
303.5698267630886
  0
LINE
  8
_0-0_
  6
CONTINUOUS
 62
    7
 10
294.48537425716228
 20
303.5698267630886
 11
294.48537425716228
 21
319.5698267630886
  0
LINE
  8
_0-0_
  6
CONTINUOUS
 62
    7
 10
294.48537425716228
 20
319.5698267630886
 11
293.48537425716228
 21
320.5698267630886
  0
LINE
  8
_0-0_
  6
CONTINUOUS
 62
    7
 10
293.48537425716228
 20
320.5698267630886
 11
277.68537425716232
 21
320.5698267630886
  0
LINE
  8
_0-0_
  6
CONTINUOUS
 62
    7
 10
277.68537425716232
 20
319.5698267630886
 11
274.48537425716228
 21
319.5698267630886
  0
LINE
  8
_0-0_
  6
CONTINUOUS
 62
    7
 10
277.68537425716232
 20
323.5698267630886
 11
280.68537425716232
 21
320.5698267630886
  0
LINE
  8
_0-0_
  6
CONTINUOUS
 62
    7
 10
277.68537425716232
 20
326.86982676308855
 11
277.68537425716232
 21
224.5698267630886
  0
LINE
  8
_0-0_
  6
CONTINUOUS
 62
    7
 10
277.68537425716232
 20
224.5698267630886
 11
274.48537425716228
 21
224.5698267630886
  0
LINE
  8
_0-0_
  6
CONTINUOUS
 62
    7
 10
274.48537425716228
 20
224.5698267630886
 11
272.59216735455863
 21
225.21462721589069
  0
LINE
  8
_0-0_
  6
CONTINUOUS
 62
    7
 10
273.16820921128857
 20
226.07484378688878
 11
274.48537425716228
 21
224.5698267630886
  0
LINE
  8
_0-0_
  6
CONTINUOUS
 62
    7
 10
274.48537425716228
 20
224.5698267630886
 11
274.48537425716228
 21
326.8198267630886
  0
LINE
  8
_0-0_
  6
CONTINUOUS
 62
    7
 10
278.18537425716232
 20
327.36982676308855
 11
289.48537425716228
 21
327.36982676308855
  0
LINE
  8
_0-0_
  6
CONTINUOUS
 62
    7
 10
289.48537425716228
 20
327.36982676308855
 11
289.48537425716228
 21
330.5698267630886
  0
LINE
  8
_0-0_
  6
CONTINUOUS
 62
    7
 10
289.48537425716228
 20
330.5698267630886
 11
278.23537425716228
 21
330.5698267630886
  0
LINE
  8
_0-1_
  6
CENTER1
 62
  152
 10
274.48537425716228
 20
311.5698267630886
 11
294.48537425716228
 21
311.5698267630886
  0
LINE
  8
_0-0_
  6
CONTINUOUS
 62
    7
 10
280.68537425716232
 20
302.5698267630886
 11
277.68537425716232
 21
299.5698267630886
  0
LINE
  8
_0-1_
  6
CENTER1
 62
  152
 10
337.45191298756481
 20
299.0753807630889
 11
337.45191298756481
 21
232.06427476308852
  0
LINE
  8
_0-0_
  6
CONTINUOUS
 62
    7
 10
332.45191298756481
 20
224.56983476308858
 11
418.44984298756486
 21
224.56983476308858
  0
LINE
  8
_0-1_
  6
CENTER1
 62
  152
 10
417.95191298756532
 20
230.81983476308858
 11
417.95191298756532
 21
236.31983476308858
  0
LINE
  8
_0-1_
  6
CENTER1
 62
  152
 10
420.55191298756523
 20
233.56983476308858
 11
415.35191298756541
 21
233.56983476308858
  0
LINE
  8
_0-0_
  6
CONTINUOUS
 62
    7
 10
427.846762987565
 20
231.14963476308856
 11
451.84884298756521
 21
297.09478576308891
  0
LINE
  8
_0-0_
  6
CONTINUOUS
 62
    7
 10
452.45191298756487
 20
300.5149877630887
 11
452.45191298756487
 21
330.5698267630886
  0
LINE
  8
_0-0_
  6
CONTINUOUS
 62
    7
 10
452.45191298756487
 20
330.5698267630886
 11
322.45191298756481
 21
330.5698267630886
  0
LINE
  8
_0-0_
  6
CONTINUOUS
 62
    7
 10
322.45191298756481
 20
330.5698267630886
 11
322.45191298756481
 21
234.56983476308858
  0
LINE
  8
_0-1_
  6
CENTER1
 62
  152
 10
330.95191298756481
 20
239.56983476308858
 11
395.95191298756487
 21
239.56983476308858
  0
LINE
  8
_0-1_
  6
CENTER1
 62
  152
 10
389.45191298756527
 20
232.06427476308852
 11
389.45191298756527
 21
299.0753807630889
  0
LINE
  8
_0-1_
  6
CENTER1
 62
  152
 10
395.95191298756487
 20
291.5698267630886
 11
330.95191298756481
 21
291.5698267630886
  0
LINE
  8
_0-1_
  6
CENTER1
 62
  152
 10
331.45191298756481
 20
317.46982676308869
 11
331.45191298756481
 21
322.66982676308851
  0
LINE
  8
_0-1_
  6
CENTER1
 62
  152
 10
328.70191298756481
 20
320.0698267630886
 11
334.20191298756527
 21
320.0698267630886
  0
LINE
  8
_0-1_
  6
DASHED2
 62
  152
 10
322.45191298756481
 20
327.36982676308855
 11
452.45191298756487
 21
327.36982676308855
  0
LINE
  8
_0-1_
  6
CENTER1
 62
  152
 10
446.95191298756532
 20
311.5698267630886
 11
430.95191298756487
 21
311.5698267630886
  0
LINE
  8
_0-1_
  6
CENTER1
 62
  152
 10
438.95191298756487
 20
303.5698267630886
 11
438.95191298756487
 21
319.5698267630886
  0
LINE
  8
_0-1_
  6
CENTER1
 62
  152
 10
417.95191298756532
 20
301.3198267630886
 11
417.95191298756532
 21
295.8198267630886
  0
LINE
  8
_0-1_
  6
CENTER1
 62
  152
 10
420.55191298756523
 20
298.5698267630886
 11
415.35191298756541
 21
298.5698267630886
  0
LINE
  8
_0-1_
  6
CENTER1
 62
  152
 10
399.20191298756532
 20
320.0698267630886
 11
393.70191298756487
 21
320.0698267630886
  0
LINE
  8
_0-1_
  6
CENTER1
 62
  152
 10
396.45191298756487
 20
317.46982676308869
 11
396.45191298756487
 21
322.66982676308851
  0
LINE
  8
_0-1_
  6
CENTER1
 62
  152
 10
105.26883552675957
 20
320.0698267630886
 11
99.768835526759119
 21
320.0698267630886
  0
LINE
  8
_0-1_
  6
CENTER1
 62
  152
 10
102.51883552675957
 20
317.46982676308869
 11
102.51883552675957
 21
322.66982676308851
  0
LINE
  8
_0-1_
  6
CENTER1
 62
  152
 10
81.018835526759176
 20
301.3198267630886
 11
81.018835526759176
 21
295.8198267630886
  0
LINE
  8
_0-1_
  6
CENTER1
 62
  152
 10
78.418835526759267
 20
298.5698267630886
 11
83.618835526759028
 21
298.5698267630886
  0
LINE
  8
_0-1_
  6
CENTER1
 62
  152
 10
68.018835526759631
 20
311.5698267630886
 11
52.018835526759176
 21
311.5698267630886
  0
LINE
  8
_0-1_
  6
CENTER1
 62
  152
 10
60.018835526759631
 20
303.5698267630886
 11
60.018835526759631
 21
319.5698267630886
  0
ARC
  8
_0-0_
  6
CONTINUOUS
 62
    7
 10
166.51883552675963
 20
234.56983476308858
 40
10
 50
270
 51
0
  0
ARC
  8
_0-0_
  6
CONTINUOUS
 62
    7
 10
56.518835526759631
 20
300.5149877630887
 40
10
 50
180
 51
200
  0
ARC
  8
_0-0_
  6
CONTINUOUS
 62
    7
 10
80.520905526759634
 20
234.56983476308858
 40
10
 50
200
 51
270
  0
CIRCLE
  8
_0-0_
  6
CONTINUOUS
 62
    7
 10
81.018835526759176
 20
298.5698267630886
 40
2.75
  0
CIRCLE
  8
_0-0_
  6
CONTINUOUS
 62
    7
 10
81.018835526759176
 20
233.56983476308858
 40
2.75
  0
CIRCLE
  8
_0-0_
  6
CONTINUOUS
 62
    7
 10
102.51883552675957
 20
320.0698267630886
 40
2.75
  0
CIRCLE
  8
_0-0_
  6
CONTINUOUS
 62
    7
 10
167.51883552675963
 20
320.0698267630886
 40
2.75
  0
CIRCLE
  8
_0-0_
  6
CONTINUOUS
 62
    7
 10
109.51883552675912
 20
291.5698267630886
 40
4.0999999999999996
  0
CIRCLE
  8
_0-0_
  6
CONTINUOUS
 62
    7
 10
109.51883552675912
 20
239.56983476308858
 40
4.0999999999999996
  0
CIRCLE
  8
_0-0_
  6
CONTINUOUS
 62
    7
 10
161.51883552675963
 20
239.56983476308858
 40
4.0999999999999996
  0
CIRCLE
  8
_0-0_
  6
CONTINUOUS
 62
    7
 10
161.51883552675963
 20
291.5698267630886
 40
4.0999999999999996
  0
CIRCLE
  8
_0-0_
  6
CONTINUOUS
 62
    7
 10
60.018835526759631
 20
311.5698267630886
 40
8
  0
ARC
  8
_0-0_
  6
CONTINUOUS
 62
    7
 10
220.73537425716222
 20
326.8198267630886
 40
3.75
 50
0
 51
90.000000000000028
  0
ARC
  8
_0-0_
  6
CONTINUOUS
 62
    7
 10
220.78537425716218
 20
326.86982676308855
 40
0.5
 50
0
 51
90.000000000000028
  0
ARC
  8
_0-0_
  6
CONTINUOUS
 62
    7
 10
332.45191298756481
 20
234.56983476308858
 40
10
 50
180
 51
270
  0
ARC
  8
_0-0_
  6
CONTINUOUS
 62
    7
 10
442.45191298756487
 20
300.5149877630887
 40
10
 50
340
 51
359.99999999999989
  0
ARC
  8
_0-0_
  6
CONTINUOUS
 62
    7
 10
418.44984298756486
 20
234.56983476308858
 40
10
 50
270
 51
340
  0
CIRCLE
  8
_0-0_
  6
CONTINUOUS
 62
    7
 10
417.95191298756532
 20
298.5698267630886
 40
2.75
  0
CIRCLE
  8
_0-0_
  6
CONTINUOUS
 62
    7
 10
417.95191298756532
 20
233.56983476308858
 40
2.75
  0
CIRCLE
  8
_0-0_
  6
CONTINUOUS
 62
    7
 10
396.45191298756487
 20
320.0698267630886
 40
2.75
  0
CIRCLE
  8
_0-0_
  6
CONTINUOUS
 62
    7
 10
331.45191298756481
 20
320.0698267630886
 40
2.75
  0
CIRCLE
  8
_0-0_
  6
CONTINUOUS
 62
    7
 10
389.45191298756527
 20
291.5698267630886
 40
4.0999999999999996
  0
CIRCLE
  8
_0-0_
  6
CONTINUOUS
 62
    7
 10
389.45191298756527
 20
239.56983476308858
 40
4.0999999999999996
  0
CIRCLE
  8
_0-0_
  6
CONTINUOUS
 62
    7
 10
337.45191298756481
 20
239.56983476308858
 40
4.0999999999999996
  0
CIRCLE
  8
_0-0_
  6
CONTINUOUS
 62
    7
 10
337.45191298756481
 20
291.5698267630886
 40
4.0999999999999996
  0
CIRCLE
  8
_0-0_
  6
CONTINUOUS
 62
    7
 10
438.95191298756487
 20
311.5698267630886
 40
8
  0
ARC
  8
_0-0_
  6
CONTINUOUS
 62
    7
 10
278.23537425716228
 20
326.8198267630886
 40
3.75
 50
89.999999999999986
 51
180
  0
ARC
  8
_0-0_
  6
CONTINUOUS
 62
    7
 10
278.18537425716232
 20
326.86982676308855
 40
0.5
 50
89.999999999999986
 51
180
  0
TEXT
  8
_0-1_
 62
    7
 10
106.34511134927214
 20
343.76855441328701
 40
5
 41
1
 50
0
  1
(L)
  0
TEXT
  8
_0-1_
 62
    7
 10
385.12563716505224
 20
343.76855441328701
 40
5
 41
1
 50
0
  1
(R)
  0
LINE
  8
_0-0_
  6
CONTINUOUS
 62
    7
 10
46.518835526759631
 20
130.61027380938987
 11
176.51883552675963
 21
130.61027380938987
  0
LINE
  8
_0-0_
  6
CONTINUOUS
 62
    7
 10
176.51883552675963
 20
130.61027380938987
 11
176.51883552675963
 21
34.610281809389846
  0
LINE
  8
_0-1_
  6
CENTER1
 62
  152
 10
168.01883552675963
 20
39.610281809389846
 11
103.01883552675957
 21
39.610281809389846
  0
LINE
  8
_0-1_
  6
CENTER1
 62
  152
 10
109.51883552675912
 20
32.104721809389787
 11
109.51883552675912
 21
99.115827809390169
  0
LINE
  8
_0-1_
  6
CENTER1
 62
  152
 10
103.01883552675957
 20
91.610273809389867
 11
168.01883552675963
 21
91.610273809389867
  0
LINE
  8
_0-1_
  6
CENTER1
 62
  152
 10
161.51883552675963
 20
99.115827809390169
 11
161.51883552675963
 21
32.104721809389787
  0
LINE
  8
_0-0_
  6
CONTINUOUS
 62
    7
 10
166.51883552675963
 20
24.610281809389846
 11
80.520905526759634
 21
24.610281809389846
  0
LINE
  8
_0-1_
  6
CENTER1
 62
  152
 10
81.018835526759176
 20
30.860281809389846
 11
81.018835526759176
 21
36.360281809389846
  0
LINE
  8
_0-1_
  6
CENTER1
 62
  152
 10
78.418835526759267
 20
33.610281809389846
 11
83.618835526759028
 21
33.610281809389846
  0
LINE
  8
_0-0_
  6
CONTINUOUS
 62
    7
 10
71.123985526759498
 20
31.190081809389824
 11
47.121905526759292
 21
97.135232809390175
  0
LINE
  8
_0-0_
  6
CONTINUOUS
 62
    7
 10
46.518835526759631
 20
100.55543480938996
 11
46.518835526759631
 21
130.61027380938987
  0
LINE
  8
_0-1_
  6
DASHED2
 62
  152
 10
46.518835526759631
 20
127.41027380938982
 11
176.51883552675963
 21
127.41027380938982
  0
LINE
  8
_0-1_
  6
CENTER1
 62
  152
 10
170.26883552675963
 20
120.11027380938987
 11
164.76883552675918
 21
120.11027380938987
  0
LINE
  8
_0-1_
  6
CENTER1
 62
  152
 10
167.51883552675963
 20
117.51027380938996
 11
167.51883552675963
 21
122.71027380938978
  0
LINE
  8
_0-0_
  6
CONTINUOUS
 62
    7
 10
205.48537425716222
 20
120.61027380938987
 11
221.28537425716218
 21
120.61027380938987
  0
LINE
  8
_0-0_
  6
CONTINUOUS
 62
    7
 10
221.28537425716218
 20
119.61027380938987
 11
224.48537425716222
 21
119.61027380938987
  0
LINE
  8
_0-0_
  6
CONTINUOUS
 62
    7
 10
221.28537425716218
 20
123.61027380938987
 11
218.28537425716218
 21
120.61027380938987
  0
LINE
  8
_0-0_
  6
CONTINUOUS
 62
    7
 10
221.28537425716218
 20
126.91027380938982
 11
221.28537425716218
 21
24.610273809389867
  0
LINE
  8
_0-0_
  6
CONTINUOUS
 62
    7
 10
221.28537425716218
 20
24.610273809389867
 11
224.48537425716222
 21
24.610273809389867
  0
LINE
  8
_0-0_
  6
CONTINUOUS
 62
    7
 10
224.48537425716222
 20
24.610273809389867
 11
226.37858115976587
 21
25.255074262191954
  0
LINE
  8
_0-0_
  6
CONTINUOUS
 62
    7
 10
225.80253930303593
 20
26.115290833190045
 11
224.48537425716222
 21
24.610273809389867
  0
LINE
  8
_0-0_
  6
CONTINUOUS
 62
    7
 10
224.48537425716222
 20
24.610273809389867
 11
224.48537425716222
 21
126.86027380938987
  0
LINE
  8
_0-0_
  6
CONTINUOUS
 62
    7
 10
220.78537425716218
 20
127.41027380938982
 11
209.48537425716222
 21
127.41027380938982
  0
LINE
  8
_0-0_
  6
CONTINUOUS
 62
    7
 10
209.48537425716222
 20
127.41027380938982
 11
209.48537425716222
 21
130.61027380938987
  0
LINE
  8
_0-0_
  6
CONTINUOUS
 62
    7
 10
209.48537425716222
 20
130.61027380938987
 11
220.73537425716222
 21
130.61027380938987
  0
LINE
  8
_0-1_
  6
CENTER1
 62
  152
 10
224.48537425716222
 20
111.61027380938987
 11
204.48537425716222
 21
111.61027380938987
  0
LINE
  8
_0-0_
  6
CONTINUOUS
 62
    7
 10
204.48537425716222
 20
119.61027380938987
 11
205.48537425716222
 21
120.61027380938987
  0
LINE
  8
_0-0_
  6
CONTINUOUS
 62
    7
 10
204.48537425716222
 20
119.61027380938987
 11
204.48537425716222
 21
103.61027380938987
  0
LINE
  8
_0-0_
  6
CONTINUOUS
 62
    7
 10
204.48537425716222
 20
103.61027380938987
 11
205.48537425716222
 21
102.61027380938987
  0
LINE
  8
_0-0_
  6
CONTINUOUS
 62
    7
 10
205.48537425716222
 20
102.61027380938987
 11
221.28537425716218
 21
102.61027380938987
  0
LINE
  8
_0-0_
  6
CONTINUOUS
 62
    7
 10
221.28537425716218
 20
103.61027380938987
 11
224.48537425716222
 21
103.61027380938987
  0
LINE
  8
_0-0_
  6
CONTINUOUS
 62
    7
 10
221.28537425716218
 20
99.610273809389867
 11
218.28537425716218
 21
102.61027380938987
  0
LINE
  8
_0-0_
  6
CONTINUOUS
 62
    7
 10
274.48537425716228
 20
103.61027380938987
 11
277.68537425716232
 21
103.61027380938987
  0
LINE
  8
_0-0_
  6
CONTINUOUS
 62
    7
 10
277.68537425716232
 20
102.61027380938987
 11
293.48537425716228
 21
102.61027380938987
  0
LINE
  8
_0-0_
  6
CONTINUOUS
 62
    7
 10
293.48537425716228
 20
102.61027380938987
 11
294.48537425716228
 21
103.61027380938987
  0
LINE
  8
_0-0_
  6
CONTINUOUS
 62
    7
 10
294.48537425716228
 20
103.61027380938987
 11
294.48537425716228
 21
119.61027380938987
  0
LINE
  8
_0-0_
  6
CONTINUOUS
 62
    7
 10
294.48537425716228
 20
119.61027380938987
 11
293.48537425716228
 21
120.61027380938987
  0
LINE
  8
_0-0_
  6
CONTINUOUS
 62
    7
 10
293.48537425716228
 20
120.61027380938987
 11
277.68537425716232
 21
120.61027380938987
  0
LINE
  8
_0-0_
  6
CONTINUOUS
 62
    7
 10
277.68537425716232
 20
119.61027380938987
 11
274.48537425716228
 21
119.61027380938987
  0
LINE
  8
_0-0_
  6
CONTINUOUS
 62
    7
 10
277.68537425716232
 20
123.61027380938987
 11
280.68537425716232
 21
120.61027380938987
  0
LINE
  8
_0-0_
  6
CONTINUOUS
 62
    7
 10
277.68537425716232
 20
126.91027380938982
 11
277.68537425716232
 21
24.610273809389867
  0
LINE
  8
_0-0_
  6
CONTINUOUS
 62
    7
 10
277.68537425716232
 20
24.610273809389867
 11
274.48537425716228
 21
24.610273809389867
  0
LINE
  8
_0-0_
  6
CONTINUOUS
 62
    7
 10
274.48537425716228
 20
24.610273809389867
 11
272.59216735455863
 21
25.255074262191954
  0
LINE
  8
_0-0_
  6
CONTINUOUS
 62
    7
 10
273.16820921128857
 20
26.115290833190045
 11
274.48537425716228
 21
24.610273809389867
  0
LINE
  8
_0-0_
  6
CONTINUOUS
 62
    7
 10
274.48537425716228
 20
24.610273809389867
 11
274.48537425716228
 21
126.86027380938987
  0
LINE
  8
_0-0_
  6
CONTINUOUS
 62
    7
 10
278.18537425716232
 20
127.41027380938982
 11
289.48537425716228
 21
127.41027380938982
  0
LINE
  8
_0-0_
  6
CONTINUOUS
 62
    7
 10
289.48537425716228
 20
127.41027380938982
 11
289.48537425716228
 21
130.61027380938987
  0
LINE
  8
_0-0_
  6
CONTINUOUS
 62
    7
 10
289.48537425716228
 20
130.61027380938987
 11
278.23537425716228
 21
130.61027380938987
  0
LINE
  8
_0-1_
  6
CENTER1
 62
  152
 10
274.48537425716228
 20
111.61027380938987
 11
294.48537425716228
 21
111.61027380938987
  0
LINE
  8
_0-0_
  6
CONTINUOUS
 62
    7
 10
280.68537425716232
 20
102.61027380938987
 11
277.68537425716232
 21
99.610273809389867
  0
LINE
  8
_0-1_
  6
CENTER1
 62
  152
 10
337.45191298756481
 20
99.115827809390169
 11
337.45191298756481
 21
32.104721809389787
  0
LINE
  8
_0-0_
  6
CONTINUOUS
 62
    7
 10
332.45191298756481
 20
24.610281809389846
 11
418.44984298756486
 21
24.610281809389846
  0
LINE
  8
_0-1_
  6
CENTER1
 62
  152
 10
417.95191298756532
 20
30.860281809389846
 11
417.95191298756532
 21
36.360281809389846
  0
LINE
  8
_0-1_
  6
CENTER1
 62
  152
 10
420.55191298756523
 20
33.610281809389846
 11
415.35191298756541
 21
33.610281809389846
  0
LINE
  8
_0-0_
  6
CONTINUOUS
 62
    7
 10
427.846762987565
 20
31.190081809389824
 11
451.84884298756521
 21
97.135232809390175
  0
LINE
  8
_0-0_
  6
CONTINUOUS
 62
    7
 10
452.45191298756487
 20
100.55543480938996
 11
452.45191298756487
 21
130.61027380938987
  0
LINE
  8
_0-0_
  6
CONTINUOUS
 62
    7
 10
452.45191298756487
 20
130.61027380938987
 11
322.45191298756481
 21
130.61027380938987
  0
LINE
  8
_0-0_
  6
CONTINUOUS
 62
    7
 10
322.45191298756481
 20
130.61027380938987
 11
322.45191298756481
 21
34.610281809389846
  0
LINE
  8
_0-1_
  6
CENTER1
 62
  152
 10
330.95191298756481
 20
39.610281809389846
 11
395.95191298756487
 21
39.610281809389846
  0
LINE
  8
_0-1_
  6
CENTER1
 62
  152
 10
389.45191298756527
 20
32.104721809389787
 11
389.45191298756527
 21
99.115827809390169
  0
LINE
  8
_0-1_
  6
CENTER1
 62
  152
 10
395.95191298756487
 20
91.610273809389867
 11
330.95191298756481
 21
91.610273809389867
  0
LINE
  8
_0-1_
  6
CENTER1
 62
  152
 10
331.45191298756481
 20
117.51027380938996
 11
331.45191298756481
 21
122.71027380938978
  0
LINE
  8
_0-1_
  6
CENTER1
 62
  152
 10
328.70191298756481
 20
120.11027380938987
 11
334.20191298756527
 21
120.11027380938987
  0
LINE
  8
_0-1_
  6
DASHED2
 62
  152
 10
322.45191298756481
 20
127.41027380938982
 11
452.45191298756487
 21
127.41027380938982
  0
LINE
  8
_0-1_
  6
CENTER1
 62
  152
 10
446.95191298756532
 20
111.61027380938987
 11
430.95191298756487
 21
111.61027380938987
  0
LINE
  8
_0-1_
  6
CENTER1
 62
  152
 10
438.95191298756487
 20
103.61027380938987
 11
438.95191298756487
 21
119.61027380938987
  0
LINE
  8
_0-1_
  6
CENTER1
 62
  152
 10
417.95191298756532
 20
101.36027380938987
 11
417.95191298756532
 21
95.860273809389867
  0
LINE
  8
_0-1_
  6
CENTER1
 62
  152
 10
420.55191298756523
 20
98.610273809389867
 11
415.35191298756541
 21
98.610273809389867
  0
LINE
  8
_0-1_
  6
CENTER1
 62
  152
 10
399.20191298756532
 20
120.11027380938987
 11
393.70191298756487
 21
120.11027380938987
  0
LINE
  8
_0-1_
  6
CENTER1
 62
  152
 10
396.45191298756487
 20
117.51027380938996
 11
396.45191298756487
 21
122.71027380938978
  0
LINE
  8
_0-1_
  6
CENTER1
 62
  152
 10
105.26883552675957
 20
120.11027380938987
 11
99.768835526759119
 21
120.11027380938987
  0
LINE
  8
_0-1_
  6
CENTER1
 62
  152
 10
102.51883552675957
 20
117.51027380938996
 11
102.51883552675957
 21
122.71027380938978
  0
LINE
  8
_0-1_
  6
CENTER1
 62
  152
 10
81.018835526759176
 20
101.36027380938987
 11
81.018835526759176
 21
95.860273809389867
  0
LINE
  8
_0-1_
  6
CENTER1
 62
  152
 10
78.418835526759267
 20
98.610273809389867
 11
83.618835526759028
 21
98.610273809389867
  0
LINE
  8
_0-1_
  6
CENTER1
 62
  152
 10
68.018835526759631
 20
111.61027380938987
 11
52.018835526759176
 21
111.61027380938987
  0
LINE
  8
_0-1_
  6
CENTER1
 62
  152
 10
60.018835526759631
 20
103.61027380938987
 11
60.018835526759631
 21
119.61027380938987
  0
ARC
  8
_0-0_
  6
CONTINUOUS
 62
    7
 10
166.51883552675963
 20
34.610281809389846
 40
10
 50
270
 51
0
  0
ARC
  8
_0-0_
  6
CONTINUOUS
 62
    7
 10
56.518835526759631
 20
100.55543480938996
 40
10
 50
180
 51
200
  0
ARC
  8
_0-0_
  6
CONTINUOUS
 62
    7
 10
80.520905526759634
 20
34.610281809389846
 40
10
 50
200
 51
270
  0
CIRCLE
  8
_0-0_
  6
CONTINUOUS
 62
    7
 10
81.018835526759176
 20
98.610273809389867
 40
2.75
  0
CIRCLE
  8
_0-0_
  6
CONTINUOUS
 62
    7
 10
81.018835526759176
 20
33.610281809389846
 40
2.75
  0
CIRCLE
  8
_0-0_
  6
CONTINUOUS
 62
    7
 10
102.51883552675957
 20
120.11027380938987
 40
2.75
  0
CIRCLE
  8
_0-0_
  6
CONTINUOUS
 62
    7
 10
167.51883552675963
 20
120.11027380938987
 40
2.75
  0
CIRCLE
  8
_0-0_
  6
CONTINUOUS
 62
    7
 10
109.51883552675912
 20
91.610273809389867
 40
4.0999999999999996
  0
CIRCLE
  8
_0-0_
  6
CONTINUOUS
 62
    7
 10
109.51883552675912
 20
39.610281809389846
 40
4.0999999999999996
  0
CIRCLE
  8
_0-0_
  6
CONTINUOUS
 62
    7
 10
161.51883552675963
 20
39.610281809389846
 40
4.0999999999999996
  0
CIRCLE
  8
_0-0_
  6
CONTINUOUS
 62
    7
 10
161.51883552675963
 20
91.610273809389867
 40
4.0999999999999996
  0
CIRCLE
  8
_0-0_
  6
CONTINUOUS
 62
    7
 10
60.018835526759631
 20
111.61027380938987
 40
5.0499999999999998
  0
CIRCLE
  8
_0-0_
  6
CONTINUOUS
 62
    7
 10
60.018835526759631
 20
111.61027380938987
 40
8
  0
ARC
  8
_0-0_
  6
CONTINUOUS
 62
    7
 10
220.73537425716222
 20
126.86027380938987
 40
3.75
 50
0
 51
90.000000000000028
  0
ARC
  8
_0-0_
  6
CONTINUOUS
 62
    7
 10
220.78537425716218
 20
126.91027380938982
 40
0.5
 50
0
 51
90.000000000000028
  0
ARC
  8
_0-0_
  6
CONTINUOUS
 62
    7
 10
332.45191298756481
 20
34.610281809389846
 40
10
 50
180
 51
270
  0
ARC
  8
_0-0_
  6
CONTINUOUS
 62
    7
 10
442.45191298756487
 20
100.55543480938996
 40
10
 50
340
 51
359.99999999999989
  0
ARC
  8
_0-0_
  6
CONTINUOUS
 62
    7
 10
418.44984298756486
 20
34.610281809389846
 40
10
 50
270
 51
340
  0
CIRCLE
  8
_0-0_
  6
CONTINUOUS
 62
    7
 10
417.95191298756532
 20
98.610273809389867
 40
2.75
  0
CIRCLE
  8
_0-0_
  6
CONTINUOUS
 62
    7
 10
417.95191298756532
 20
33.610281809389846
 40
2.75
  0
CIRCLE
  8
_0-0_
  6
CONTINUOUS
 62
    7
 10
396.45191298756487
 20
120.11027380938987
 40
2.75
  0
CIRCLE
  8
_0-0_
  6
CONTINUOUS
 62
    7
 10
331.45191298756481
 20
120.11027380938987
 40
2.75
  0
CIRCLE
  8
_0-0_
  6
CONTINUOUS
 62
    7
 10
389.45191298756527
 20
91.610273809389867
 40
4.0999999999999996
  0
CIRCLE
  8
_0-0_
  6
CONTINUOUS
 62
    7
 10
389.45191298756527
 20
39.610281809389846
 40
4.0999999999999996
  0
CIRCLE
  8
_0-0_
  6
CONTINUOUS
 62
    7
 10
337.45191298756481
 20
39.610281809389846
 40
4.0999999999999996
  0
CIRCLE
  8
_0-0_
  6
CONTINUOUS
 62
    7
 10
337.45191298756481
 20
91.610273809389867
 40
4.0999999999999996
  0
CIRCLE
  8
_0-0_
  6
CONTINUOUS
 62
    7
 10
438.95191298756487
 20
111.61027380938987
 40
5.0499999999999998
  0
CIRCLE
  8
_0-0_
  6
CONTINUOUS
 62
    7
 10
438.95191298756487
 20
111.61027380938987
 40
8
  0
ARC
  8
_0-0_
  6
CONTINUOUS
 62
    7
 10
278.23537425716228
 20
126.86027380938987
 40
3.75
 50
89.999999999999986
 51
180
  0
ARC
  8
_0-0_
  6
CONTINUOUS
 62
    7
 10
278.18537425716232
 20
126.91027380938982
 40
0.5
 50
89.999999999999986
 51
180
  0
CIRCLE
  8
_0-1_
  6
CONTINUOUS
 62
  152
 10
60.018835526759631
 20
111.61027380938987
 40
6.0000000000000009
  0
TEXT
  8
_0-1_
 62
    7
 10
106.34511134927214
 20
143.80900145958827
 40
5
 41
1
 50
0
  1
(L)
  0
CIRCLE
  8
_0-1_
  6
CONTINUOUS
 62
  152
 10
438.95191298756487
 20
111.61027380938987
 40
6.0000000000000009
  0
TEXT
  8
_0-1_
 62
    7
 10
385.12563716505224
 20
143.80900145958827
 40
5
 41
1
 50
0
  1
(R)
  0
TEXT
  8
_0-1_
 62
    7
 10
24.243470363936922
 20
147.90554903474009
 40
5
 41
1
 50
0
  1
AP25-M12
  0
CIRCLE
  8
_0-1_
  6
CONTINUOUS
 62
  152
 10
60.018835526759631
 20
311.5698267630886
 40
5
  0
CIRCLE
  8
_0-1_
  6
CONTINUOUS
 62
  152
 10
438.95191298756487
 20
311.5698267630886
 40
5
  0
CIRCLE
  8
_0-0_
  6
CONTINUOUS
 62
    7
 10
60.018835526759631
 20
311.5698267630886
 40
4.3000001907348633
  0
CIRCLE
  8
_0-0_
  6
CONTINUOUS
 62
    7
 10
438.95191298756487
 20
311.5698267630886
 40
4.3000001907348633
  0
TEXT
  8
_0-1_
 62
    7
 10
24.243470363936922
 20
347.86510198843882
 40
5
 41
1
 50
0
  1
AP25-M10
  0
ENDSEC
  0
EOF
