  0
SECTION
  2
HEADER
  9
$ACADVER
  1
AC1009
  9
$INSBASE
 10
0
 20
0
 30
0
  9
$EXTMIN
 10
0
 20
0
  9
$EXTMAX
 10
1189
 20
841
  9
$LIMMIN
 10
0
 20
0
  9
$LIMMAX
 10
1189
 20
841
  9
$LTSCALE
 40
1
  0
ENDSEC
  0
SECTION
  2
TABLES
  0
TABLE
  2
LTYPE
 70
     9
  0
LTYPE
  2
CONTINUOUS
 70
    64
  3
実線
 72
    65
 73
     0
 40
0.0
  0
LTYPE
  2
DASHED1
 70
    64
  3
--  --  --  --  --  --  --  --  
 72
    65
 73
     2
 40
2.5
 49
1.25
 49
-1.25
  0
LTYPE
  2
DASHED2
 70
    64
  3
----    ----    ----    ----    
 72
    65
 73
     2
 40
5.0
 49
2.5
 49
-2.5
  0
LTYPE
  2
DASHED3
 70
    64
  3
------  ------  ------  ------  
 72
    65
 73
     2
 40
5.0
 49
3.75
 49
-1.25
  0
LTYPE
  2
CENTER1
 70
    64
  3
----- - ----- - ----- - ----- - 
 72
    65
 73
     4
 40
10.0
 49
6.25
 49
-1.25
 49
1.25
 49
-1.25
  0
LTYPE
  2
CENTER2
 70
    64
  3
----------  --  ----------  --  
 72
    65
 73
     4
 40
20.0
 49
12.5
 49
-2.5
 49
2.5
 49
-2.5
  0
LTYPE
  2
PHANTOM1
 70
    64
  3
--- - - --- - - --- - - --- - - 
 72
    65
 73
     6
 40
10.0
 49
3.25
 49
-1.25
 49
1.25
 49
-1.25
 49
1.25
 49
-1.25
  0
LTYPE
  2
PHANTOM2
 70
    64
  3
--------  -  -  --------  -  -  
 72
    65
 73
     6
 40
20.0
 49
10.0
 49
-2.5
 49
1.25
 49
-2.5
 49
1.25
 49
-2.5
  0
LTYPE
  2
DOT
 70
    64
  3
-   -   -   -   -   -   -   -   
 72
    65
 73
     2
 40
2.5
 49
0.625
 49
-1.875
  0
LTYPE
  2
DUMMY
 70
    64
  3
ダミー
 72
    65
 73
     0
 40
0.0
  0
LTYPE
  2
RAND1
 70
    64
  3
ランダム線1
 72
    65
 73
     4
 40
10.0
 49
1.0
 49
-2.0
 49
3.0
 49
-4.0
  0
LTYPE
  2
RAND2
 70
    64
  3
ランダム線2
 72
    65
 73
     4
 40
14.0
 49
2.0
 49
-3.0
 49
4.0
 49
-5.0
  0
LTYPE
  2
RAND3
 70
    64
  3
ランダム線3
 72
    65
 73
     4
 40
18.0
 49
3.0
 49
-4.0
 49
5.0
 49
-6.0
  0
LTYPE
  2
RAND4
 70
    64
  3
ランダム線4
 72
    65
 73
     4
 40
22.0
 49
4.0
 49
-5.0
 49
6.0
 49
-7.0
  0
LTYPE
  2
RAND5
 70
    64
  3
ランダム線5
 72
    65
 73
     4
 40
26.0
 49
5.0
 49
-6.0
 49
7.0
 49
-8.0
  0
LTYPE
  2
LONG1
 70
    64
  3
----------  --  ----------  --  
 72
    65
 73
     4
 40
40.0
 49
32.5
 49
-2.5
 49
2.5
 49
-2.5
  0
LTYPE
  2
LONG2
 70
    64
  3
--------  -  -  --------  -  -  
 72
    65
 73
     6
 40
40.0
 49
30.0
 49
-2.5
 49
1.25
 49
-2.5
 49
1.25
 49
-2.5
  0
LTYPE
  2
LONG3
 70
    64
  3
+++++++++++++++..+++++++++++++++
 72
    65
 73
     2
 40
40.0
 49
37.5
 49
-2.5
  0
LTYPE
  2
LONG4
 70
    64
  3
+++++++++++++++..+++++++++++++++
 72
    65
 73
     2
 40
80.0
 49
75.0
 49
-5.0
  0
LTYPE
  2
LONG5
 70
    64
  3
----------  --  ----------  --  
 72
    65
 73
     4
 40
60.0
 49
37.5
 49
-7.5
 49
7.5
 49
-7.5
  0
LTYPE
  2
dashed
 70
   64
  3
-------   -------------   ------
 72
   65
 73
    2
 40
7.5
 49
6
 49
-1.5
  0
LTYPE
  2
dashed_spaced
 70
   64
  3
----        --------        ----
 72
   65
 73
    2
 40
12
 49
6
 49
-6
  0
LTYPE
  2
long_dashed_dotted
 70
   64
  3
------------- --- --------------
 72
   65
 73
    4
 40
15.25
 49
12
 49
-1.5
 49
0.25
 49
-1.5
  0
LTYPE
  2
long_dashed_double-dotted
 70
   64
  3
----------- --- --- ------------
 72
   65
 73
    6
 40
17
 49
12
 49
-1.5
 49
0.25
 49
-1.5
 49
0.25
 49
-1.5
  0
LTYPE
  2
long_dashed_triplicate-dotted
 70
   64
  3
--------- --- --- --- ----------
 72
   65
 73
    8
 40
18.75
 49
12
 49
-1.5
 49
0.25
 49
-1.5
 49
0.25
 49
-1.5
 49
0.25
 49
-1.5
  0
LTYPE
  2
dotted
 70
   64
  3
   -       -       -       -    
 72
   65
 73
    2
 40
1.75
 49
0.25
 49
-1.5
  0
LTYPE
  2
chain
 70
   64
  3
-------------- -- --------------
 72
   65
 73
    4
 40
18.5
 49
12
 49
-1.5
 49
3.5
 49
-1.5
  0
LTYPE
  2
chain_double_dash
 70
   64
  3
------------ -- -- -------------
 72
   65
 73
    6
 40
23.5
 49
12
 49
-1.5
 49
3.5
 49
-1.5
 49
3.5
 49
-1.5
  0
LTYPE
  2
dashed_dotted
 70
   64
  3
-----------     -     ----------
 72
   65
 73
    4
 40
9.25
 49
6
 49
-1.5
 49
0.25
 49
-1.5
  0
LTYPE
  2
double-dashed_dotted
 70
   64
  3
------   -----------   -   -----
 72
   65
 73
    6
 40
16.75
 49
6
 49
-1.5
 49
6
 49
-1.5
 49
0.25
 49
-1.5
  0
LTYPE
  2
dashed_double-dotted
 70
   64
  3
---------    -    -    ---------
 72
   65
 73
    6
 40
11
 49
6
 49
-1.5
 49
0.25
 49
-1.5
 49
0.25
 49
-1.5
  0
LTYPE
  2
double-dashed_double-dotted
 70
   64
  3
-----   ---------   -   -   ----
 72
   65
 73
    8
 40
18.5
 49
6
 49
-1.5
 49
6
 49
-1.5
 49
0.25
 49
-1.5
 49
0.25
 49
-1.5
  0
LTYPE
  2
dashed_triplicate-dotted
 70
   64
  3
-------    -    -    -    ------
 72
   65
 73
    8
 40
12.75
 49
6
 49
-1.5
 49
0.25
 49
-1.5
 49
0.25
 49
-1.5
 49
0.25
 49
-1.5
  0
LTYPE
  2
double-dashed_triplicate-dotted
 70
   64
  3
-----  ---------  -  -  -  -----
 72
   65
 73
   10
 40
20.25
 49
6
 49
-1.5
 49
6
 49
-1.5
 49
0.25
 49
-1.5
 49
0.25
 49
-1.5
 49
0.25
 49
-1.5
  0
LTYPE
  2
undefined
 70
   64
  3
--------------------------------
 72
   65
 73
    0
 40
0
  0
ENDTAB
  0
TABLE
  2
STYLE
  5
3
100
AcDbSymbolTable
 70
     1
  0
STYLE
  5
10
100
AcDbSymbolTableRecord
100
AcDbTextStyleTableRecord
  2
STANDARD
 70
     0
 40
0.0
 41
1.0
 50
0.0
 71
     0
 42
0.2
  3
txt
  4
bigfont.shx
  0
STYLE
  5
26
100
AcDbSymbolTableRecord
100
AcDbTextStyleTableRecord
  2
TATEGAKI
 70
    68
 40
0.0
 41
1.0
 50
0.0
 71
     0
 42
1.0
  3
txt
  4
bigfont.shx
  0
ENDTAB
  0
TABLE
  2
LAYER
 70
    4
  0
LAYER
  2
_0-0_
 70
   64
 62
    7
  6
CONTINUOUS
  0
LAYER
  2
_0-8_
 70
   64
 62
    7
  6
CONTINUOUS
  0
LAYER
  2
_0-f_
 70
   64
 62
    7
  6
CONTINUOUS
  0
LAYER
  2
ADD_LINE
 70
   64
 62
    7
  6
CONTINUOUS
  0
ENDTAB
  0
ENDSEC
  0
SECTION
  2
BLOCKS
  0
ENDSEC
  0
SECTION
  2
ENTITIES
  0
LINE
  8
_0-0_
  6
CONTINUOUS
 62
    7
 10
49.719948489725311
 20
37.550793319816421
 11
49.719948489723947
 21
46.043909117231351
  0
LINE
  8
_0-0_
  6
CONTINUOUS
 62
    7
 10
42.793542029174091
 20
46.043909117231351
 11
42.793542029174091
 21
37.404381021552297
  0
LINE
  8
_0-0_
  6
CONTINUOUS
 62
    7
 10
42.793542029174091
 20
37.404381021552297
 11
45.149948489726057
 21
36.043909117232261
  0
LINE
  8
_0-0_
  6
CONTINUOUS
 62
    7
 10
40.875684421712094
 20
36.043909117232261
 11
72.424212557734108
 21
36.043909117231237
  0
LINE
  8
_0-0_
  6
CONTINUOUS
 62
    7
 10
70.506354950277341
 20
37.404381021552297
 11
70.506354950277341
 21
46.043909117231351
  0
LINE
  8
_0-0_
  6
CONTINUOUS
 62
    7
 10
70.506354950276545
 20
46.043909117231351
 11
42.793542029174091
 21
46.043909117231351
  0
LINE
  8
_0-0_
  6
CONTINUOUS
 62
    7
 10
49.649948489723329
 20
146.04390911723215
 11
48.649948489723442
 21
145.04390911723135
  0
LINE
  8
_0-0_
  6
CONTINUOUS
 62
    7
 10
48.649948489723442
 20
145.0439091172322
 11
64.649948489723329
 21
145.0439091172322
  0
LINE
  8
_0-0_
  6
CONTINUOUS
 62
    7
 10
64.649948489723329
 20
145.0439091172322
 11
63.649948489722078
 21
146.04390911723215
  0
LINE
  8
_0-0_
  6
CONTINUOUS
 62
    7
 10
63.649948489722078
 20
146.04390911723215
 11
49.649948489723329
 21
146.04390911723215
  0
LINE
  8
_0-0_
  6
CONTINUOUS
 62
    7
 10
63.579948489724188
 20
46.043909117231351
 11
63.579948489724188
 21
37.550793319816421
  0
LINE
  8
_0-0_
  6
CONTINUOUS
 62
    7
 10
68.149948489725375
 20
36.043909117232261
 11
70.506354950277341
 21
37.404381021552297
  0
LINE
  8
_0-0_
  6
CONTINUOUS
 62
    7
 10
94.149948489722135
 20
20.043909117231294
 11
19.149948489723556
 21
20.043909117231294
  0
LINE
  8
_0-0_
  6
CONTINUOUS
 62
    7
 10
19.149948489723556
 20
20.043909117231294
 11
19.149948489723556
 21
18.043909117231237
  0
LINE
  8
_0-0_
  6
CONTINUOUS
 62
    7
 10
19.149948489723556
 20
18.043909117231237
 11
94.149948489722135
 21
18.043909117231237
  0
LINE
  8
_0-0_
  6
CONTINUOUS
 62
    7
 10
94.149948489722135
 20
18.043909117231237
 11
94.149948489723499
 21
20.043909117231294
  0
LINE
  8
_0-0_
  6
CONTINUOUS
 62
    7
 10
42.799948489722055
 20
211.01860997811508
 11
49.728151719996276
 21
223.01860997811508
  0
LINE
  8
_0-0_
  6
CONTINUOUS
 62
    7
 10
49.728151719996276
 20
223.01860997811508
 11
63.571745259446971
 21
223.01860997811508
  0
LINE
  8
_0-0_
  6
CONTINUOUS
 62
    7
 10
63.571745259446971
 20
223.01860997811508
 11
70.499948489722556
 21
211.01860997811508
  0
LINE
  8
_0-0_
  6
CONTINUOUS
 62
    7
 10
70.499948489722556
 20
211.01860997811508
 11
63.571745259446971
 21
199.01860997811508
  0
LINE
  8
_0-0_
  6
CONTINUOUS
 62
    7
 10
63.571745259448335
 20
199.01860997811508
 11
49.728151719998436
 21
199.01860997811508
  0
LINE
  8
_0-0_
  6
CONTINUOUS
 62
    7
 10
49.728151719996276
 20
199.01860997811508
 11
42.799948489722055
 21
211.01860997811508
  0
ARC
  8
_0-0_
  6
CONTINUOUS
 62
    7
 10
111.29525533803036
 20
-33.202424358002645
 40
100
 50
137.18375526690497
 51
147.20528181166679
  0
ARC
  8
_0-0_
  6
CONTINUOUS
 62
    7
 10
40.875684421712094
 20
32.043909117231294
 40
4
 50
90
 51
137.183755266905
  0
ARC
  8
_0-0_
  6
CONTINUOUS
 62
    7
 10
25.552368533683307
 20
22.043909117231351
 40
2
 50
270
 51
327.20528181166691
  0
ARC
  8
_0-0_
  6
CONTINUOUS
 62
    7
 10
46.1169301842815
 20
42.995102541492315
 40
6.5285713452927228
 50
245.03284197624447
 51
303.49640407980303
  0
ARC
  8
_0-0_
  6
CONTINUOUS
 62
    7
 10
2.0046416414151054
 20
-33.202424358002645
 40
100
 50
32.794718188333107
 51
42.81624473309494
  0
ARC
  8
_0-0_
  6
CONTINUOUS
 62
    7
 10
72.424212557734108
 20
32.043909117231294
 40
4
 50
42.81624473309494
 51
90
  0
ARC
  8
_0-0_
  6
CONTINUOUS
 62
    7
 10
87.74752844576318
 20
22.043909117231351
 40
2
 50
212.79471818833309
 51
270
  0
ARC
  8
_0-0_
  6
CONTINUOUS
 62
    7
 10
67.182966795167204
 20
42.995102541492315
 40
6.5285713452923178
 50
236.503595920197
 51
294.9671580237914
  0
ARC
  8
_0-0_
  6
CONTINUOUS
 62
    7
 10
56.649948489724352
 20
59.374493813667414
 40
22.897571994543902
 50
252.38303115961588
 51
287.61696884037724
  0
CIRCLE
  8
_0-0_
  6
CONTINUOUS
 62
    7
 10
56.649948489722192
 20
211.01860997811508
 40
37.5
  0
CIRCLE
  8
_0-0_
  6
CONTINUOUS
 62
    7
 10
56.649948489722192
 20
211.01860997811508
 40
30
  0
CIRCLE
  8
_0-0_
  6
CONTINUOUS
 62
    7
 10
56.649948489722192
 20
211.01860997811508
 40
8
  0
CIRCLE
  8
_0-0_
  6
CONTINUOUS
 62
    7
 10
56.649948489722192
 20
211.01860997811508
 40
17.5
  0
CIRCLE
  8
_0-8_
  6
CONTINUOUS
 62
  152
 10
56.649948489722192
 20
211.01860997811508
 40
7
  0
LINE
  8
_0-8_
  6
CENTER1
 62
  152
 10
97.149948489722078
 20
211.01860997811508
 11
16.149948489723556
 21
211.01860997811508
  0
LINE
  8
_0-8_
  6
CENTER1
 62
  152
 10
56.649948489722192
 20
251.51860997811508
 11
56.649948489722192
 21
170.51860997811525
  0
LINE
  8
_0-8_
  6
CENTER1
 62
  152
 10
56.649948489722192
 20
149.04390911723232
 11
56.649948489722192
 21
15.043909117231237
  0
LINE
  8
_0-8_
  6
PHANTOM1
 62
  152
 10
36.649948489722078
 20
149.04390911723232
 11
36.649948489722078
 21
93.043909117231237
  0
LINE
  8
_0-8_
  6
PHANTOM1
 62
  152
 10
76.649948489722192
 20
149.04390911723232
 11
76.649948489722192
 21
93.043909117231237
  0
LINE
  8
_0-8_
  6
PHANTOM1
 62
  152
 10
36.649948489722078
 20
93.043909117231237
 11
76.649948489722192
 21
93.043909117231237
  0
LINE
  8
_0-0_
  6
CONTINUOUS
 62
    7
 10
48.649948489722078
 20
80.043909117230271
 11
48.649948489723442
 21
46.043909117231351
  0
LINE
  8
_0-0_
  6
CONTINUOUS
 62
    7
 10
42.793542029174091
 20
81.40438102155133
 11
42.793542029174091
 21
93.043909117231237
  0
LINE
  8
_0-0_
  6
CONTINUOUS
 62
    7
 10
42.793542029174091
 20
93.043909117231237
 11
70.506354950276545
 21
93.043909117231237
  0
LINE
  8
_0-0_
  6
CONTINUOUS
 62
    7
 10
70.506354950276545
 20
93.043909117231237
 11
70.506354950276545
 21
81.40438102155133
  0
LINE
  8
_0-0_
  6
CONTINUOUS
 62
    7
 10
70.506354950276545
 20
81.40438102155133
 11
68.149948489724238
 21
80.043909117231294
  0
LINE
  8
_0-0_
  6
CONTINUOUS
 62
    7
 10
68.149948489724238
 20
80.043909117231294
 11
45.149948489724466
 21
80.043909117230271
  0
LINE
  8
_0-0_
  6
CONTINUOUS
 62
    7
 10
45.149948489725261
 20
80.043909117230271
 11
42.793542029174091
 21
81.40438102155133
  0
LINE
  8
_0-0_
  6
CONTINUOUS
 62
    7
 10
49.719948489725311
 20
81.550793319816307
 11
49.719948489723947
 21
93.043909117231237
  0
LINE
  8
_0-0_
  6
CONTINUOUS
 62
    7
 10
48.649948489723442
 20
145.04390911723135
 11
48.649948489722078
 21
93.043909117231237
  0
LINE
  8
_0-0_
  6
CONTINUOUS
 62
    7
 10
63.579948489723392
 20
93.043909117231237
 11
63.579948489724188
 21
81.550793319816307
  0
LINE
  8
_0-0_
  6
CONTINUOUS
 62
    7
 10
64.649948489723329
 20
46.043909117231351
 11
64.649948489723329
 21
80.043909117231294
  0
LINE
  8
_0-0_
  6
CONTINUOUS
 62
    7
 10
64.649948489723329
 20
93.043909117231237
 11
64.649948489723329
 21
145.0439091172322
  0
ARC
  8
_0-0_
  6
CONTINUOUS
 62
    7
 10
67.182966795167204
 20
86.995102541491349
 40
6.5285713452923178
 50
236.503595920197
 51
294.9671580237914
  0
ARC
  8
_0-0_
  6
CONTINUOUS
 62
    7
 10
46.1169301842815
 20
86.995102541492372
 40
6.5285713452927228
 50
245.03284197624447
 51
303.49640407980303
  0
ARC
  8
_0-0_
  6
CONTINUOUS
 62
    7
 10
56.649948489724352
 20
103.3744938136673
 40
22.897571994543902
 50
252.38303115961588
 51
287.61696884037724
  0
LINE
  8
_0-8_
  6
CONTINUOUS
 62
  152
 10
49.649948489723329
 20
93.043909117231237
 11
49.649948489723329
 21
146.04390911723215
  0
LINE
  8
_0-8_
  6
CONTINUOUS
 62
  152
 10
63.649948489722078
 20
146.04390911723215
 11
63.649948489722078
 21
93.043909117231237
  0
LINE
  8
_0-8_
  6
CONTINUOUS
 62
  152
 10
49.649948489723329
 20
46.043909117231351
 11
49.649948489723329
 21
80.043909117230271
  0
LINE
  8
_0-8_
  6
CONTINUOUS
 62
  152
 10
63.649948489722078
 20
80.043909117230271
 11
63.649948489722078
 21
46.043909117232204
  0
TEXT
  8
_0-f_
 62
    7
 10
8.1052155401810069
 20
31.943400745077156
 40
4.2999999999999998
 41
0.744186046511628
 50
0
  1
AM16A
  0
ENDSEC
  0
EOF
