  0
SECTION
  2
HEADER
  9
$ACADVER
  1
AC1009
  9
$INSBASE
 10
0
 20
0
 30
0
  9
$EXTMIN
 10
0
 20
0
  9
$EXTMAX
 10
1189
 20
841
  9
$LIMMIN
 10
0
 20
0
  9
$LIMMAX
 10
1189
 20
841
  9
$LTSCALE
 40
1
  0
ENDSEC
  0
SECTION
  2
TABLES
  0
TABLE
  2
LTYPE
 70
     9
  0
LTYPE
  2
CONTINUOUS
 70
    64
  3
実線
 72
    65
 73
     0
 40
0.0
  0
LTYPE
  2
DASHED1
 70
    64
  3
--  --  --  --  --  --  --  --  
 72
    65
 73
     2
 40
2.5
 49
1.25
 49
-1.25
  0
LTYPE
  2
DASHED2
 70
    64
  3
----    ----    ----    ----    
 72
    65
 73
     2
 40
5.0
 49
2.5
 49
-2.5
  0
LTYPE
  2
DASHED3
 70
    64
  3
------  ------  ------  ------  
 72
    65
 73
     2
 40
5.0
 49
3.75
 49
-1.25
  0
LTYPE
  2
CENTER1
 70
    64
  3
----- - ----- - ----- - ----- - 
 72
    65
 73
     4
 40
10.0
 49
6.25
 49
-1.25
 49
1.25
 49
-1.25
  0
LTYPE
  2
CENTER2
 70
    64
  3
----------  --  ----------  --  
 72
    65
 73
     4
 40
20.0
 49
12.5
 49
-2.5
 49
2.5
 49
-2.5
  0
LTYPE
  2
PHANTOM1
 70
    64
  3
--- - - --- - - --- - - --- - - 
 72
    65
 73
     6
 40
10.0
 49
3.25
 49
-1.25
 49
1.25
 49
-1.25
 49
1.25
 49
-1.25
  0
LTYPE
  2
PHANTOM2
 70
    64
  3
--------  -  -  --------  -  -  
 72
    65
 73
     6
 40
20.0
 49
10.0
 49
-2.5
 49
1.25
 49
-2.5
 49
1.25
 49
-2.5
  0
LTYPE
  2
DOT
 70
    64
  3
-   -   -   -   -   -   -   -   
 72
    65
 73
     2
 40
2.5
 49
0.625
 49
-1.875
  0
LTYPE
  2
DUMMY
 70
    64
  3
ダミー
 72
    65
 73
     0
 40
0.0
  0
LTYPE
  2
RAND1
 70
    64
  3
ランダム線1
 72
    65
 73
     4
 40
10.0
 49
1.0
 49
-2.0
 49
3.0
 49
-4.0
  0
LTYPE
  2
RAND2
 70
    64
  3
ランダム線2
 72
    65
 73
     4
 40
14.0
 49
2.0
 49
-3.0
 49
4.0
 49
-5.0
  0
LTYPE
  2
RAND3
 70
    64
  3
ランダム線3
 72
    65
 73
     4
 40
18.0
 49
3.0
 49
-4.0
 49
5.0
 49
-6.0
  0
LTYPE
  2
RAND4
 70
    64
  3
ランダム線4
 72
    65
 73
     4
 40
22.0
 49
4.0
 49
-5.0
 49
6.0
 49
-7.0
  0
LTYPE
  2
RAND5
 70
    64
  3
ランダム線5
 72
    65
 73
     4
 40
26.0
 49
5.0
 49
-6.0
 49
7.0
 49
-8.0
  0
LTYPE
  2
LONG1
 70
    64
  3
----------  --  ----------  --  
 72
    65
 73
     4
 40
40.0
 49
32.5
 49
-2.5
 49
2.5
 49
-2.5
  0
LTYPE
  2
LONG2
 70
    64
  3
--------  -  -  --------  -  -  
 72
    65
 73
     6
 40
40.0
 49
30.0
 49
-2.5
 49
1.25
 49
-2.5
 49
1.25
 49
-2.5
  0
LTYPE
  2
LONG3
 70
    64
  3
+++++++++++++++..+++++++++++++++
 72
    65
 73
     2
 40
40.0
 49
37.5
 49
-2.5
  0
LTYPE
  2
LONG4
 70
    64
  3
+++++++++++++++..+++++++++++++++
 72
    65
 73
     2
 40
80.0
 49
75.0
 49
-5.0
  0
LTYPE
  2
LONG5
 70
    64
  3
----------  --  ----------  --  
 72
    65
 73
     4
 40
60.0
 49
37.5
 49
-7.5
 49
7.5
 49
-7.5
  0
LTYPE
  2
dashed
 70
   64
  3
-------   -------------   ------
 72
   65
 73
    2
 40
7.5
 49
6
 49
-1.5
  0
LTYPE
  2
dashed_spaced
 70
   64
  3
----        --------        ----
 72
   65
 73
    2
 40
12
 49
6
 49
-6
  0
LTYPE
  2
long_dashed_dotted
 70
   64
  3
------------- --- --------------
 72
   65
 73
    4
 40
15.25
 49
12
 49
-1.5
 49
0.25
 49
-1.5
  0
LTYPE
  2
long_dashed_double-dotted
 70
   64
  3
----------- --- --- ------------
 72
   65
 73
    6
 40
17
 49
12
 49
-1.5
 49
0.25
 49
-1.5
 49
0.25
 49
-1.5
  0
LTYPE
  2
long_dashed_triplicate-dotted
 70
   64
  3
--------- --- --- --- ----------
 72
   65
 73
    8
 40
18.75
 49
12
 49
-1.5
 49
0.25
 49
-1.5
 49
0.25
 49
-1.5
 49
0.25
 49
-1.5
  0
LTYPE
  2
dotted
 70
   64
  3
   -       -       -       -    
 72
   65
 73
    2
 40
1.75
 49
0.25
 49
-1.5
  0
LTYPE
  2
chain
 70
   64
  3
-------------- -- --------------
 72
   65
 73
    4
 40
18.5
 49
12
 49
-1.5
 49
3.5
 49
-1.5
  0
LTYPE
  2
chain_double_dash
 70
   64
  3
------------ -- -- -------------
 72
   65
 73
    6
 40
23.5
 49
12
 49
-1.5
 49
3.5
 49
-1.5
 49
3.5
 49
-1.5
  0
LTYPE
  2
dashed_dotted
 70
   64
  3
-----------     -     ----------
 72
   65
 73
    4
 40
9.25
 49
6
 49
-1.5
 49
0.25
 49
-1.5
  0
LTYPE
  2
double-dashed_dotted
 70
   64
  3
------   -----------   -   -----
 72
   65
 73
    6
 40
16.75
 49
6
 49
-1.5
 49
6
 49
-1.5
 49
0.25
 49
-1.5
  0
LTYPE
  2
dashed_double-dotted
 70
   64
  3
---------    -    -    ---------
 72
   65
 73
    6
 40
11
 49
6
 49
-1.5
 49
0.25
 49
-1.5
 49
0.25
 49
-1.5
  0
LTYPE
  2
double-dashed_double-dotted
 70
   64
  3
-----   ---------   -   -   ----
 72
   65
 73
    8
 40
18.5
 49
6
 49
-1.5
 49
6
 49
-1.5
 49
0.25
 49
-1.5
 49
0.25
 49
-1.5
  0
LTYPE
  2
dashed_triplicate-dotted
 70
   64
  3
-------    -    -    -    ------
 72
   65
 73
    8
 40
12.75
 49
6
 49
-1.5
 49
0.25
 49
-1.5
 49
0.25
 49
-1.5
 49
0.25
 49
-1.5
  0
LTYPE
  2
double-dashed_triplicate-dotted
 70
   64
  3
-----  ---------  -  -  -  -----
 72
   65
 73
   10
 40
20.25
 49
6
 49
-1.5
 49
6
 49
-1.5
 49
0.25
 49
-1.5
 49
0.25
 49
-1.5
 49
0.25
 49
-1.5
  0
LTYPE
  2
undefined
 70
   64
  3
--------------------------------
 72
   65
 73
    0
 40
0
  0
ENDTAB
  0
TABLE
  2
STYLE
  5
3
100
AcDbSymbolTable
 70
     1
  0
STYLE
  5
10
100
AcDbSymbolTableRecord
100
AcDbTextStyleTableRecord
  2
STANDARD
 70
     0
 40
0.0
 41
1.0
 50
0.0
 71
     0
 42
0.2
  3
txt
  4
bigfont.shx
  0
STYLE
  5
26
100
AcDbSymbolTableRecord
100
AcDbTextStyleTableRecord
  2
TATEGAKI
 70
    68
 40
0.0
 41
1.0
 50
0.0
 71
     0
 42
1.0
  3
txt
  4
bigfont.shx
  0
ENDTAB
  0
TABLE
  2
LAYER
 70
    3
  0
LAYER
  2
_0-1_
 70
   64
 62
    7
  6
CONTINUOUS
  0
LAYER
  2
_0-f_
 70
   64
 62
    7
  6
CONTINUOUS
  0
LAYER
  2
ADD_LINE
 70
   64
 62
    7
  6
CONTINUOUS
  0
ENDTAB
  0
ENDSEC
  0
SECTION
  2
BLOCKS
  0
ENDSEC
  0
SECTION
  2
ENTITIES
  0
LINE
  8
_0-1_
  6
CENTER1
 62
  152
 10
53.85262098538783
 20
144.59124553841878
 11
53.852621010404846
 21
9.5912455384187751
  0
LINE
  8
_0-1_
  6
CONTINUOUS
 62
  152
 10
45.852620986059037
 20
139.59124553841878
 11
61.852620986058128
 21
139.59124553841878
  0
LINE
  8
_0-1_
  6
PHANTOM1
 62
  152
 10
33.852621009848804
 20
143.59124554220239
 11
33.852621009848804
 21
87.591245542201307
  0
LINE
  8
_0-1_
  6
PHANTOM1
 62
  152
 10
73.852621009848917
 20
143.59124554220239
 11
73.852621009848917
 21
87.591245542201307
  0
LINE
  8
_0-1_
  6
PHANTOM1
 62
  152
 10
33.852621009848804
 20
87.591245542201307
 11
73.852621009848917
 21
87.591245542201307
  0
LINE
  8
_0-1_
  6
CONTINUOUS
 62
    7
 10
47.852620946937805
 20
141.59124553841878
 11
59.852620946938032
 21
141.59124553841878
  0
LINE
  8
_0-1_
  6
CONTINUOUS
 62
    7
 10
59.852620946938032
 20
141.59124553841878
 11
61.852620946937122
 21
139.59124553841878
  0
LINE
  8
_0-1_
  6
CONTINUOUS
 62
    7
 10
45.852620946938032
 20
139.59124553841878
 11
47.852620946937805
 21
141.59124553841878
  0
LINE
  8
_0-1_
  6
CONTINUOUS
 62
    7
 10
46.924417715842083
 20
41.591245538418832
 11
46.92441771543804
 21
32.291245538418821
  0
LINE
  8
_0-1_
  6
CONTINUOUS
 62
    7
 10
42.014434236829175
 20
31.591245538418775
 11
65.690808033569056
 21
31.591245535774874
  0
LINE
  8
_0-1_
  6
CONTINUOUS
 62
    7
 10
67.709027406264909
 20
32.291245538418821
 11
67.709027406669293
 21
41.591245538418832
  0
LINE
  8
_0-1_
  6
CONTINUOUS
 62
    7
 10
67.709027406669293
 20
41.591245538418832
 11
39.996214485566838
 21
41.591245538418832
  0
LINE
  8
_0-1_
  6
CONTINUOUS
 62
    7
 10
39.996214485566838
 20
41.591245538418832
 11
39.996214485162227
 21
32.291245538418821
  0
LINE
  8
_0-1_
  6
CONTINUOUS
 62
    7
 10
60.780824175989096
 20
32.291245538418821
 11
60.780824176393708
 21
41.591245538418832
  0
LINE
  8
_0-1_
  6
CONTINUOUS
 62
    7
 10
77.381674872093981
 20
21.797464798741771
 11
77.99430676230827
 21
18.850895040813725
  0
LINE
  8
_0-1_
  6
CONTINUOUS
 62
    7
 10
29.710935087009375
 20
18.850895051598741
 11
30.323566978540157
 21
21.797464809252858
  0
LINE
  8
_0-1_
  6
CONTINUOUS
 62
    7
 10
16.35262096649808
 20
14.591245532990683
 11
136.35262096649802
 21
14.591245532990683
  0
LINE
  8
_0-1_
  6
CONTINUOUS
 62
    7
 10
136.35262096649802
 20
14.591245538419685
 11
136.35262096649802
 21
12.591245538418775
  0
LINE
  8
_0-1_
  6
CONTINUOUS
 62
    7
 10
136.35262096641293
 20
12.591245538418775
 11
16.35262096649808
 21
12.591245543920593
  0
LINE
  8
_0-1_
  6
CONTINUOUS
 62
    7
 10
16.35262096649808
 20
12.591245538418775
 11
16.35262096649808
 21
14.591245532990683
  0
ARC
  8
_0-1_
  6
CONTINUOUS
 62
    7
 10
53.852620945712715
 20
66.226959824132734
 40
34.635714285714108
 50
258.46125067889017
 51
281.53874932111006
  0
ARC
  8
_0-1_
  6
CONTINUOUS
 62
    7
 10
43.460316100301043
 20
40.512674109847808
 40
8.9214285714285388
 50
247.15185922147825
 51
292.84814077852167
  0
ARC
  8
_0-1_
  6
CONTINUOUS
 62
    7
 10
64.244925791127116
 20
40.512674109847808
 40
8.9214285714285388
 50
247.15185922147825
 51
292.84814077852167
  0
ARC
  8
_0-1_
  6
CONTINUOUS
 62
    7
 10
41.939400043308069
 20
19.806210983687777
 40
11.785273420094862
 50
89.635208154072558
 51
170.27257403052997
  0
ARC
  8
_0-1_
  6
CONTINUOUS
 62
    7
 10
24.352620927019188
 20
20.091245551597865
 40
5.499999999999627
 50
270.00000000000006
 51
346.96664367407794
  0
ARC
  8
_0-1_
  6
CONTINUOUS
 62
    7
 10
83.352620922853134
 20
20.091245538418775
 40
5.499999999999627
 50
193.03335630032467
 51
269.99999997441387
  0
ARC
  8
_0-1_
  6
CONTINUOUS
 62
    7
 10
65.765841806436242
 20
19.806210978365868
 40
11.785273420094862
 50
9.7274259438775026
 51
90.364791820340812
  0
LINE
  8
_0-1_
  6
CONTINUOUS
 62
  152
 10
46.852620983215957
 20
87.591245542201307
 11
46.852620986058128
 21
140.59124553841883
  0
LINE
  8
_0-1_
  6
CONTINUOUS
 62
  152
 10
60.852620986058128
 20
140.59124553841883
 11
60.85262098321607
 21
87.591245542201307
  0
LINE
  8
_0-1_
  6
CONTINUOUS
 62
  152
 10
46.852620986878037
 20
41.591245538418832
 11
46.852620983215957
 21
74.591245542202216
  0
LINE
  8
_0-1_
  6
CONTINUOUS
 62
  152
 10
60.85262098321607
 20
74.591245542202216
 11
60.852620986878037
 21
41.591245537766724
  0
LINE
  8
_0-1_
  6
CONTINUOUS
 62
    7
 10
46.924400944096078
 20
87.591245542201307
 11
46.924400944096078
 21
75.391223869439386
  0
LINE
  8
_0-1_
  6
CONTINUOUS
 62
    7
 10
45.852620946118122
 20
41.591245538418832
 11
45.852620944095861
 21
74.591245542202216
  0
LINE
  8
_0-1_
  6
CONTINUOUS
 62
    7
 10
43.460320944095884
 20
74.591245542202216
 11
64.244920944095838
 21
74.591245542202216
  0
LINE
  8
_0-1_
  6
CONTINUOUS
 62
    7
 10
61.852620944094951
 20
74.591245542202216
 11
61.852620946118009
 21
41.591245538418832
  0
LINE
  8
_0-1_
  6
CONTINUOUS
 62
    7
 10
60.780840944095189
 20
75.391223869439386
 11
60.780840944095189
 21
87.591245542201307
  0
LINE
  8
_0-1_
  6
CONTINUOUS
 62
    7
 10
61.852620946937122
 20
139.59124553841878
 11
61.852620944094951
 21
87.591245542201307
  0
LINE
  8
_0-1_
  6
CONTINUOUS
 62
    7
 10
67.709020944095982
 20
87.591245542201307
 11
39.99622094409483
 21
87.591245542201307
  0
LINE
  8
_0-1_
  6
CONTINUOUS
 62
    7
 10
39.99622094409483
 20
87.591245542201307
 11
39.99622094409483
 21
75.391233627416455
  0
LINE
  8
_0-1_
  6
CONTINUOUS
 62
    7
 10
45.852620944095861
 20
87.591245542201307
 11
45.852620946938032
 21
139.59124553841878
  0
LINE
  8
_0-1_
  6
CONTINUOUS
 62
    7
 10
67.709020944095982
 20
75.391233627416455
 11
67.709020944095982
 21
87.591245542201307
  0
ARC
  8
_0-1_
  6
CONTINUOUS
 62
    7
 10
43.460320944617024
 20
82.491245784255227
 40
7.9000100000000018
 50
243.99222480487256
 51
296.00761302925201
  0
ARC
  8
_0-1_
  6
CONTINUOUS
 62
    7
 10
64.244920944617888
 20
82.491245784255227
 40
7.9000100000000018
 50
243.99238697074819
 51
296.00777519512735
  0
ARC
  8
_0-1_
  6
CONTINUOUS
 62
    7
 10
53.852620944617001
 20
104.99124578425523
 40
30.400000000000006
 50
256.82600037006068
 51
283.17399962993937
  0
LINE
  8
_0-1_
  6
CENTER1
 62
  152
 10
53.85262096649808
 20
241.38591370392115
 11
53.85262096649808
 21
160.38591370392112
  0
CIRCLE
  8
_0-1_
  6
CONTINUOUS
 62
  152
 10
53.85262096649808
 20
200.88591370392115
 40
7.0000000000000098
  0
LINE
  8
_0-1_
  6
CONTINUOUS
 62
    7
 10
124.23723635111509
 20
217.5369171919921
 11
65.391082504963038
 21
236.56663546407717
  0
LINE
  8
_0-1_
  6
CONTINUOUS
 62
    7
 10
65.391082504963038
 20
165.20519194376504
 11
124.23723635111509
 21
184.23491021585019
  0
LINE
  8
_0-1_
  6
CONTINUOUS
 62
    7
 10
39.99621450594725
 20
200.88591370392115
 11
46.924417736223063
 21
188.88591370392115
  0
LINE
  8
_0-1_
  6
CONTINUOUS
 62
    7
 10
46.924417736223063
 20
188.88591370392115
 11
60.78082419677412
 21
188.88591370392115
  0
LINE
  8
_0-1_
  6
CONTINUOUS
 62
    7
 10
60.78082419677412
 20
188.88591370392115
 11
67.709027427049136
 21
200.88591370392115
  0
LINE
  8
_0-1_
  6
CONTINUOUS
 62
    7
 10
67.709027427049136
 20
200.88591370392115
 11
60.78082419677412
 21
212.88591370392115
  0
LINE
  8
_0-1_
  6
CONTINUOUS
 62
    7
 10
60.78082419677412
 20
212.88591370392115
 11
46.924417736223063
 21
212.88591370392115
  0
LINE
  8
_0-1_
  6
CONTINUOUS
 62
    7
 10
46.924417736223063
 20
212.88591370392115
 11
39.99621450594725
 21
200.88591370392115
  0
CIRCLE
  8
_0-1_
  6
CONTINUOUS
 62
    7
 10
53.85262096649808
 20
200.88591370392115
 40
8
  0
CIRCLE
  8
_0-1_
  6
CONTINUOUS
 62
    7
 10
53.85262096649808
 20
200.88591370392115
 40
17.000000000000004
  0
CIRCLE
  8
_0-1_
  6
CONTINUOUS
 62
    7
 10
53.85262096649808
 20
200.88591370392115
 40
29.5
  0
ARC
  8
_0-1_
  6
CONTINUOUS
 62
    7
 10
118.85262096649791
 20
200.88591370392115
 40
17.5
 50
287.9202131393958
 51
72.079786860604301
  0
CIRCLE
  8
_0-1_
  6
CONTINUOUS
 62
    7
 10
118.85262096649791
 20
200.88591370392115
 40
7
  0
ARC
  8
_0-1_
  6
CONTINUOUS
 62
    7
 10
53.85262096649808
 20
200.88591370392115
 40
37.5
 50
72.079786860604301
 51
287.9202131393958
  0
LINE
  8
_0-1_
  6
CENTER1
 62
  152
 10
118.85262096649791
 20
190.88591370392112
 11
118.85262096649791
 21
210.88591370392109
  0
LINE
  8
_0-1_
  6
CENTER1
 62
  152
 10
139.35262096649802
 20
200.88591370392115
 11
13.35262096649808
 21
200.88591370392115
  0
TEXT
  8
_0-f_
 62
    7
 10
11.90191591271946
 20
32.892575838211826
 40
4.2999999999999998
 41
0.744186046511628
 50
0
  1
AK16A
  0
ENDSEC
  0
EOF
